ISO-10303-21;
HEADER;
FILE_DESCRIPTION (( 'STEP AP203' ),
    '1' );
FILE_NAME ('ShaftRailAssembly_277BD465BF.step',
    '2022-03-01T15:27:30',
    ( '' ),
    ( '' ),
    'SwSTEP 2.0',
    'SolidWorks 2019',
    '' );
FILE_SCHEMA (( 'CONFIG_CONTROL_DESIGN' ));
ENDSEC;

DATA;
#1 = DATE_AND_TIME ( #265, #308 ) ;
#2 = DIRECTION ( 'NONE',  ( 1.000000000000000000, 0.000000000000000000, 0.000000000000000000 ) ) ;
#3 = COORDINATED_UNIVERSAL_TIME_OFFSET ( 6, 0, .BEHIND. ) ;
#4 =( NAMED_UNIT ( * ) SI_UNIT ( $, .STERADIAN. ) SOLID_ANGLE_UNIT ( ) );
#5 = PERSON_AND_ORGANIZATION_ROLE ( 'design_owner' ) ;
#6 = CC_DESIGN_APPROVAL ( #356, ( #311 ) ) ;
#7 = SHAPE_REPRESENTATION_RELATIONSHIP ( 'NONE' , 'NONE' ,  #166, #71 ) ;
#8 = APPROVAL_STATUS ( 'not_yet_approved' ) ;
#9 = PERSON_AND_ORGANIZATION ( #34, #370 ) ;
#10 =( CONVERSION_BASED_UNIT ( 'INCH', #131 ) LENGTH_UNIT ( ) NAMED_UNIT ( #51 ) );
#11 = LOCAL_TIME ( 9, 27, 30.00000000000000000, #157 ) ;
#12 = EDGE_CURVE ( 'NONE', #198, #22, #368, .T. ) ;
#13 = PERSON_AND_ORGANIZATION ( #362, #39 ) ;
#14 = CC_DESIGN_PERSON_AND_ORGANIZATION_ASSIGNMENT ( #9, #328, ( #69 ) ) ;
#15 = PRODUCT ( 'JUzLJKK7FU_CADModel_0', 'JUzLJKK7FU_CADModel_0', '', ( #162 ) ) ;
#16 = PERSON_AND_ORGANIZATION ( #362, #39 ) ;
#17 = CC_DESIGN_SECURITY_CLASSIFICATION ( #189, ( #144 ) ) ;
#18 = LOCAL_TIME ( 9, 27, 30.00000000000000000, #367 ) ;
#19 = COORDINATED_UNIVERSAL_TIME_OFFSET ( 6, 0, .BEHIND. ) ;
#20 = PRODUCT_DEFINITION ( 'UNKNOWN', '', #144, #75 ) ;
#21 = DATE_TIME_ROLE ( 'creation_date' ) ;
#22 = VERTEX_POINT ( 'NONE', #85 ) ;
#23 = COORDINATED_UNIVERSAL_TIME_OFFSET ( 6, 0, .BEHIND. ) ;
#24 = PERSON_AND_ORGANIZATION ( #362, #39 ) ;
#25 = ORIENTED_EDGE ( 'NONE', *, *, #146, .T. ) ;
#26 = LOCAL_TIME ( 9, 27, 30.00000000000000000, #194 ) ;
#27 = DIRECTION ( 'NONE',  ( 1.000000000000000000, 0.000000000000000000, 0.000000000000000000 ) ) ;
#28 = DIRECTION ( 'NONE',  ( 0.000000000000000000, 0.000000000000000000, 1.000000000000000000 ) ) ;
#29 = EDGE_CURVE ( 'NONE', #22, #65, #184, .T. ) ;
#30 = DIRECTION ( 'NONE',  ( 0.000000000000000000, 0.000000000000000000, 1.000000000000000000 ) ) ;
#31 = AXIS2_PLACEMENT_3D ( 'NONE', #112, #334, #256 ) ;
#32 = PRODUCT_DEFINITION_FORMATION_WITH_SPECIFIED_SOURCE ( 'ANY', '', #327, .NOT_KNOWN. ) ;
#33 = PERSON_AND_ORGANIZATION_ROLE ( 'creator' ) ;
#34 = PERSON ( 'NAUO-PER1', 'UNSPECIFIED', 'UNSPECIFIED', ('UNSPECIFIED'), ('UNSPECIFIED'), ('UNSPECIFIED') ) ;
#35 = PERSON_AND_ORGANIZATION_ROLE ( 'creator' ) ;
#36 = CC_DESIGN_DATE_AND_TIME_ASSIGNMENT ( #295, #266, ( #110 ) ) ;
#37 = EDGE_CURVE ( 'NONE', #65, #104, #201, .T. ) ;
#38 = DIRECTION ( 'NONE',  ( 0.000000000000000000, 0.000000000000000000, 1.000000000000000000 ) ) ;
#39 = ORGANIZATION ( 'UNSPECIFIED', 'UNSPECIFIED', '' ) ;
#40 = CALENDAR_DATE ( 2022, 1, 3 ) ;
#41 = APPROVAL_PERSON_ORGANIZATION ( #9, #52, #45 ) ;
#42 = CARTESIAN_POINT ( 'NONE',  ( 0.000000000000000000, 0.1000000000000000194, -11.99999999999999822 ) ) ;
#43 = APPLICATION_PROTOCOL_DEFINITION ( 'international standard', 'config_control_design', 1994, #130 ) ;
#44 = DIRECTION ( 'NONE',  ( 1.000000000000000000, 0.000000000000000000, 0.000000000000000000 ) ) ;
#45 = APPROVAL_ROLE ( '' ) ;
#46 = DATE_AND_TIME ( #175, #298 ) ;
#47 = DIRECTION ( 'NONE',  ( 0.000000000000000000, 0.000000000000000000, 1.000000000000000000 ) ) ;
#48 = DATE_AND_TIME ( #363, #18 ) ;
#49 = APPROVAL_STATUS ( 'not_yet_approved' ) ;
#50 = PRODUCT_DEFINITION_FORMATION_WITH_SPECIFIED_SOURCE ( 'ANY', '', #296, .NOT_KNOWN. ) ;
#51 = DIMENSIONAL_EXPONENTS ( 1.000000000000000000, 0.000000000000000000, 0.000000000000000000, 0.000000000000000000, 0.000000000000000000, 0.000000000000000000, 0.000000000000000000 ) ;
#52 = APPROVAL ( #260, 'UNKNOWN' ) ;
#53 = UNCERTAINTY_MEASURE_WITH_UNIT (LENGTH_MEASURE( 1.000000000000000082E-05 ), #353, 'distance_accuracy_value', 'NONE');
#54 = LOCAL_TIME ( 9, 27, 30.00000000000000000, #64 ) ;
#55 = CC_DESIGN_PERSON_AND_ORGANIZATION_ASSIGNMENT ( #248, #241, ( #144 ) ) ;
#56 = DATE_AND_TIME ( #303, #321 ) ;
#57 = APPROVAL_ROLE ( '' ) ;
#58 = AXIS2_PLACEMENT_3D ( 'NONE', #228, #341, #62 ) ;
#59 = CC_DESIGN_APPROVAL ( #108, ( #110 ) ) ;
#60 = ITEM_DEFINED_TRANSFORMATION ( 'NONE', 'NONE', #275,  #380 ) ;
#61 = COORDINATED_UNIVERSAL_TIME_OFFSET ( 6, 0, .BEHIND. ) ;
#62 = DIRECTION ( 'NONE',  ( 1.000000000000000000, 0.000000000000000000, 0.000000000000000000 ) ) ;
#63 = APPROVAL ( #96, 'UNSPECIFIED' ) ;
#64 = COORDINATED_UNIVERSAL_TIME_OFFSET ( 6, 0, .BEHIND. ) ;
#65 = VERTEX_POINT ( 'NONE', #222 ) ;
#66 = LOCAL_TIME ( 9, 27, 30.00000000000000000, #68 ) ;
#67 = CALENDAR_DATE ( 2022, 1, 3 ) ;
#68 = COORDINATED_UNIVERSAL_TIME_OFFSET ( 6, 0, .BEHIND. ) ;
#69 = SECURITY_CLASSIFICATION ( '', '', #232 ) ;
#70 = APPROVAL_DATE_TIME ( #237, #336 ) ;
#71 = ADVANCED_BREP_SHAPE_REPRESENTATION ( '', ( #292, #380 ), #361 ) ;
#72 = APPROVAL_STATUS ( 'not_yet_approved' ) ;
#73 = APPROVAL_STATUS ( 'not_yet_approved' ) ;
#74 = LOCAL_TIME ( 9, 27, 30.00000000000000000, #374 ) ;
#75 = DESIGN_CONTEXT ( 'detailed design', #358, 'design' ) ;
#76 = CC_DESIGN_PERSON_AND_ORGANIZATION_ASSIGNMENT ( #297, #78, ( #189 ) ) ;
#77 = APPROVAL_PERSON_ORGANIZATION ( #16, #182, #138 ) ;
#78 = PERSON_AND_ORGANIZATION_ROLE ( 'classification_officer' ) ;
#79 = CC_DESIGN_PERSON_AND_ORGANIZATION_ASSIGNMENT ( #151, #375, ( #113 ) ) ;
#80 = APPROVAL_STATUS ( 'not_yet_approved' ) ;
#81 =( LENGTH_UNIT ( ) NAMED_UNIT ( * ) SI_UNIT ( $, .METRE. ) );
#82 = DIRECTION ( 'NONE',  ( 0.000000000000000000, 0.000000000000000000, 1.000000000000000000 ) ) ;
#83 = PRODUCT_DEFINITION_SHAPE ( 'NONE', 'NONE',  #311 ) ;
#84 = DATE_TIME_ROLE ( 'classification_date' ) ;
#85 = CARTESIAN_POINT ( 'NONE',  ( 0.1250000000000000555, 0.1000000000000000194, -11.99999999999999822 ) ) ;
#86 = COORDINATED_UNIVERSAL_TIME_OFFSET ( 6, 0, .BEHIND. ) ;
#87 = ORIENTED_EDGE ( 'NONE', *, *, #29, .T. ) ;
#88 = PERSON_AND_ORGANIZATION ( #362, #39 ) ;
#89 = CARTESIAN_POINT ( 'NONE',  ( 0.000000000000000000, 0.1000000000000000194, -11.99999999999999822 ) ) ;
#90 = APPROVAL_STATUS ( 'not_yet_approved' ) ;
#91 = DIRECTION ( 'NONE',  ( 1.000000000000000000, 0.000000000000000000, -0.000000000000000000 ) ) ;
#92 = DATE_AND_TIME ( #225, #74 ) ;
#93 = AXIS2_PLACEMENT_3D ( 'NONE', #89, #262, #2 ) ;
#94 = CC_DESIGN_PERSON_AND_ORGANIZATION_ASSIGNMENT ( #226, #116, ( #32 ) ) ;
#95 = APPLICATION_CONTEXT ( 'configuration controlled 3d designs of mechanical parts and assemblies' ) ;
#96 = APPROVAL_STATUS ( 'not_yet_approved' ) ;
#97 = DIRECTION ( 'NONE',  ( 0.000000000000000000, 0.000000000000000000, 1.000000000000000000 ) ) ;
#98 = PERSON_AND_ORGANIZATION_ROLE ( 'design_supplier' ) ;
#99 = ADVANCED_FACE ( 'NONE', ( #379 ), #117, .T. ) ;
#100 = LOCAL_TIME ( 9, 27, 30.00000000000000000, #61 ) ;
#101 = APPROVAL_DATE_TIME ( #132, #243 ) ;
#102 = SECURITY_CLASSIFICATION_LEVEL ( 'unclassified' ) ;
#103 = CALENDAR_DATE ( 2022, 1, 3 ) ;
#104 = VERTEX_POINT ( 'NONE', #181 ) ;
#105 = AXIS2_PLACEMENT_3D ( 'NONE', #42, #164, #350 ) ;
#106 = LOCAL_TIME ( 9, 27, 30.00000000000000000, #301 ) ;
#107 = APPLICATION_CONTEXT ( 'configuration controlled 3d designs of mechanical parts and assemblies' ) ;
#108 = APPROVAL ( #8, 'UNSPECIFIED' ) ;
#109 = PERSON_AND_ORGANIZATION ( #362, #39 ) ;
#110 = SECURITY_CLASSIFICATION ( '', '', #291 ) ;
#111 = APPROVAL_DATE_TIME ( #143, #288 ) ;
#112 = CARTESIAN_POINT ( 'NONE',  ( 0.000000000000000000, 0.1000000000000000194, 0.000000000000000000 ) ) ;
#113 = PRODUCT_DEFINITION ( 'UNKNOWN', '', #32, #309 ) ;
#114 = APPROVAL_ROLE ( '' ) ;
#115 = CARTESIAN_POINT ( 'NONE',  ( 0.000000000000000000, 0.000000000000000000, 0.000000000000000000 ) ) ;
#116 = PERSON_AND_ORGANIZATION_ROLE ( 'design_supplier' ) ;
#117 = CYLINDRICAL_SURFACE ( 'NONE', #58, 0.1250000000000000555 ) ;
#118 = CC_DESIGN_APPROVAL ( #214, ( #20 ) ) ;
#119 = PERSON_AND_ORGANIZATION ( #362, #39 ) ;
#120 = DIRECTION ( 'NONE',  ( 0.000000000000000000, 0.000000000000000000, 1.000000000000000000 ) ) ;
#121 = CC_DESIGN_DATE_AND_TIME_ASSIGNMENT ( #46, #163, ( #20 ) ) ;
#122 = CARTESIAN_POINT ( 'NONE',  ( -0.1250000000000000555, 0.1000000000000000472, -11.99999999999999822 ) ) ;
#123 = PERSON_AND_ORGANIZATION ( #362, #39 ) ;
#124 = PLANE ( 'NONE',  #300 ) ;
#125 = APPLICATION_CONTEXT ( 'configuration controlled 3d designs of mechanical parts and assemblies' ) ;
#126 = PERSON_AND_ORGANIZATION ( #362, #39 ) ;
#127 = CALENDAR_DATE ( 2022, 1, 3 ) ;
#128 =( LENGTH_UNIT ( ) NAMED_UNIT ( * ) SI_UNIT ( $, .METRE. ) );
#129 = APPROVAL_ROLE ( '' ) ;
#130 = APPLICATION_CONTEXT ( 'configuration controlled 3d designs of mechanical parts and assemblies' ) ;
#131 = LENGTH_MEASURE_WITH_UNIT ( LENGTH_MEASURE( 0.02539999999999999897 ), #128 );
#132 = DATE_AND_TIME ( #251, #195 ) ;
#133 = APPROVAL_PERSON_ORGANIZATION ( #204, #336, #187 ) ;
#134 = DIRECTION ( 'NONE',  ( 1.000000000000000000, 0.000000000000000000, 0.000000000000000000 ) ) ;
#135 = CC_DESIGN_DATE_AND_TIME_ASSIGNMENT ( #56, #84, ( #369 ) ) ;
#136 = PERSON_AND_ORGANIZATION_ROLE ( 'design_owner' ) ;
#137 = CC_DESIGN_APPROVAL ( #52, ( #69 ) ) ;
#138 = APPROVAL_ROLE ( '' ) ;
#139 = DATE_AND_TIME ( #173, #26 ) ;
#140 = PERSON_AND_ORGANIZATION ( #362, #39 ) ;
#141 = ORIENTED_EDGE ( 'NONE', *, *, #37, .T. ) ;
#142 = APPROVAL_ROLE ( '' ) ;
#143 = DATE_AND_TIME ( #255, #209 ) ;
#144 = PRODUCT_DEFINITION_FORMATION_WITH_SPECIFIED_SOURCE ( 'ANY', '', #15, .NOT_KNOWN. ) ;
#145 = CC_DESIGN_PERSON_AND_ORGANIZATION_ASSIGNMENT ( #196, #364, ( #144 ) ) ;
#146 = EDGE_CURVE ( 'NONE', #104, #65, #158, .T. ) ;
#147 = CALENDAR_DATE ( 2022, 1, 3 ) ;
#148 = DATE_AND_TIME ( #344, #246 ) ;
#149 = ORIENTED_EDGE ( 'NONE', *, *, #154, .F. ) ;
#150 = EDGE_LOOP ( 'NONE', ( #366, #382 ) ) ;
#151 = PERSON_AND_ORGANIZATION ( #362, #39 ) ;
#152 = DIRECTION ( 'NONE',  ( 1.000000000000000000, 0.000000000000000000, 0.000000000000000000 ) ) ;
#153 = APPROVAL_ROLE ( '' ) ;
#154 = EDGE_CURVE ( 'NONE', #198, #104, #259, .T. ) ;
#155 =( NAMED_UNIT ( * ) PLANE_ANGLE_UNIT ( ) SI_UNIT ( $, .RADIAN. ) );
#156 = PERSON_AND_ORGANIZATION ( #362, #39 ) ;
#157 = COORDINATED_UNIVERSAL_TIME_OFFSET ( 6, 0, .BEHIND. ) ;
#158 = CIRCLE ( 'NONE', #239, 0.1250000000000000555 ) ;
#159 = CC_DESIGN_APPROVAL ( #313, ( #189 ) ) ;
#160 = PERSON_AND_ORGANIZATION ( #362, #39 ) ;
#161 = CC_DESIGN_PERSON_AND_ORGANIZATION_ASSIGNMENT ( #318, #33, ( #311 ) ) ;
#162 = MECHANICAL_CONTEXT ( 'NONE', #130, 'mechanical' ) ;
#163 = DATE_TIME_ROLE ( 'creation_date' ) ;
#164 = DIRECTION ( 'NONE',  ( 0.000000000000000000, 0.000000000000000000, 1.000000000000000000 ) ) ;
#165 = PRODUCT_DEFINITION_SHAPE ( 'NONE', 'NONE',  #383 ) ;
#166 = SHAPE_REPRESENTATION ( 'JUzLJKK7FU_CADModel_0', ( #380 ), #361 ) ;
#167 = AXIS2_PLACEMENT_3D ( 'NONE', #330, #197, #134 ) ;
#168 = PERSON_AND_ORGANIZATION_ROLE ( 'creator' ) ;
#169 = CC_DESIGN_PERSON_AND_ORGANIZATION_ASSIGNMENT ( #140, #378, ( #32 ) ) ;
#170 = PRODUCT_RELATED_PRODUCT_CATEGORY ( 'detail', '', ( #327 ) ) ;
#171 = DIMENSIONAL_EXPONENTS ( 1.000000000000000000, 0.000000000000000000, 0.000000000000000000, 0.000000000000000000, 0.000000000000000000, 0.000000000000000000, 0.000000000000000000 ) ;
#172 = APPROVAL_PERSON_ORGANIZATION ( #183, #356, #153 ) ;
#173 = CALENDAR_DATE ( 2022, 1, 3 ) ;
#174 = DATE_AND_TIME ( #254, #106 ) ;
#175 = CALENDAR_DATE ( 2022, 1, 3 ) ;
#176 = DIRECTION ( 'NONE',  ( 1.000000000000000000, 0.000000000000000000, 0.000000000000000000 ) ) ;
#177 = ORIENTED_EDGE ( 'NONE', *, *, #154, .T. ) ;
#178 = CC_DESIGN_SECURITY_CLASSIFICATION ( #369, ( #32 ) ) ;
#179 = APPROVAL_DATE_TIME ( #174, #182 ) ;
#180 = CARTESIAN_POINT ( 'NONE',  ( 0.000000000000000000, 0.1000000000000000194, -11.99999999999999822 ) ) ;
#181 = CARTESIAN_POINT ( 'NONE',  ( -0.1250000000000000555, 0.1000000000000000472, 0.000000000000000000 ) ) ;
#182 = APPROVAL ( #200, 'UNSPECIFIED' ) ;
#183 = PERSON_AND_ORGANIZATION ( #362, #39 ) ;
#184 = LINE ( 'NONE', #304, #280 ) ;
#185 = LOCAL_TIME ( 9, 27, 30.00000000000000000, #3 ) ;
#186 = DIRECTION ( 'NONE',  ( 1.000000000000000000, 0.000000000000000000, -0.000000000000000000 ) ) ;
#187 = APPROVAL_ROLE ( '' ) ;
#188 = APPROVAL_DATE_TIME ( #261, #63 ) ;
#189 = SECURITY_CLASSIFICATION ( '', '', #102 ) ;
#190 = APPROVAL_ROLE ( '' ) ;
#191 =( NAMED_UNIT ( * ) SI_UNIT ( $, .STERADIAN. ) SOLID_ANGLE_UNIT ( ) );
#192 = FACE_OUTER_BOUND ( 'NONE', #150, .T. ) ;
#193 = CONTEXT_DEPENDENT_SHAPE_REPRESENTATION ( #373, #165 ) ;
#194 = COORDINATED_UNIVERSAL_TIME_OFFSET ( 6, 0, .BEHIND. ) ;
#195 = LOCAL_TIME ( 9, 27, 30.00000000000000000, #276 ) ;
#196 = PERSON_AND_ORGANIZATION ( #362, #39 ) ;
#197 = DIRECTION ( 'NONE',  ( 0.000000000000000000, 0.000000000000000000, 1.000000000000000000 ) ) ;
#198 = VERTEX_POINT ( 'NONE', #343 ) ;
#199 = APPROVAL_DATE_TIME ( #48, #52 ) ;
#200 = APPROVAL_STATUS ( 'not_yet_approved' ) ;
#201 = CIRCLE ( 'NONE', #31, 0.1250000000000000555 ) ;
#202 = AXIS2_PLACEMENT_3D ( 'NONE', #115, #339, #27 ) ;
#203 = PERSON_AND_ORGANIZATION ( #362, #39 ) ;
#204 = PERSON_AND_ORGANIZATION ( #362, #39 ) ;
#205 = CC_DESIGN_PERSON_AND_ORGANIZATION_ASSIGNMENT ( #203, #249, ( #369 ) ) ;
#206 = DIRECTION ( 'NONE',  ( 0.000000000000000000, 0.000000000000000000, 1.000000000000000000 ) ) ;
#207 = VECTOR ( 'NONE', #82, 39.37007874015748143 ) ;
#208 = CARTESIAN_POINT ( 'NONE',  ( 0.000000000000000000, 0.000000000000000000, 0.000000000000000000 ) ) ;
#209 = LOCAL_TIME ( 9, 27, 30.00000000000000000, #372 ) ;
#210 = ORIENTED_EDGE ( 'NONE', *, *, #12, .T. ) ;
#211 = APPROVAL_DATE_TIME ( #1, #356 ) ;
#212 = CC_DESIGN_APPROVAL ( #336, ( #369 ) ) ;
#213 = APPROVAL_DATE_TIME ( #92, #313 ) ;
#214 = APPROVAL ( #72, 'UNSPECIFIED' ) ;
#215 = DATE_TIME_ROLE ( 'creation_date' ) ;
#216 = SHAPE_DEFINITION_REPRESENTATION ( #83, #283 ) ;
#217 = APPROVAL_PERSON_ORGANIZATION ( #160, #108, #129 ) ;
#218 = EDGE_CURVE ( 'NONE', #22, #198, #244, .T. ) ;
#219 = EDGE_LOOP ( 'NONE', ( #302, #177, #242, #279 ) ) ;
#220 = APPROVAL_PERSON_ORGANIZATION ( #119, #63, #190 ) ;
#221 = CC_DESIGN_PERSON_AND_ORGANIZATION_ASSIGNMENT ( #156, #98, ( #50 ) ) ;
#222 = CARTESIAN_POINT ( 'NONE',  ( 0.1250000000000000555, 0.1000000000000000194, 0.000000000000000000 ) ) ;
#223 = CC_DESIGN_PERSON_AND_ORGANIZATION_ASSIGNMENT ( #13, #136, ( #327 ) ) ;
#224 = SECURITY_CLASSIFICATION_LEVEL ( 'unclassified' ) ;
#225 = CALENDAR_DATE ( 2022, 1, 3 ) ;
#226 = PERSON_AND_ORGANIZATION ( #362, #39 ) ;
#227 = CARTESIAN_POINT ( 'NONE',  ( 0.000000000000000000, 0.000000000000000000, 0.000000000000000000 ) ) ;
#228 = CARTESIAN_POINT ( 'NONE',  ( 0.000000000000000000, 0.1000000000000000194, -11.99999999999999822 ) ) ;
#229 = PERSON_AND_ORGANIZATION_ROLE ( 'design_owner' ) ;
#230 = DIRECTION ( 'NONE',  ( 0.000000000000000000, 0.000000000000000000, 1.000000000000000000 ) ) ;
#231 = EDGE_LOOP ( 'NONE', ( #141, #25 ) ) ;
#232 = SECURITY_CLASSIFICATION_LEVEL ( 'unclassified' ) ;
#233 = APPLICATION_PROTOCOL_DEFINITION ( 'international standard', 'config_control_design', 1994, #319 ) ;
#234 = CARTESIAN_POINT ( 'NONE',  ( 0.000000000000000000, 0.1000000000000000194, 0.000000000000000000 ) ) ;
#235 = PERSON_AND_ORGANIZATION_ROLE ( 'classification_officer' ) ;
#236 = APPROVAL_PERSON_ORGANIZATION ( #109, #313, #142 ) ;
#237 = DATE_AND_TIME ( #345, #11 ) ;
#238 = CALENDAR_DATE ( 2022, 1, 3 ) ;
#239 = AXIS2_PLACEMENT_3D ( 'NONE', #285, #30, #152 ) ;
#240 = CC_DESIGN_APPROVAL ( #182, ( #113 ) ) ;
#241 = PERSON_AND_ORGANIZATION_ROLE ( 'creator' ) ;
#242 = ORIENTED_EDGE ( 'NONE', *, *, #37, .F. ) ;
#243 = APPROVAL ( #73, 'UNSPECIFIED' ) ;
#244 = CIRCLE ( 'NONE', #93, 0.1250000000000000555 ) ;
#245 = APPROVAL_PERSON_ORGANIZATION ( #88, #214, #57 ) ;
#246 = LOCAL_TIME ( 9, 27, 30.00000000000000000, #86 ) ;
#247 = PRODUCT_RELATED_PRODUCT_CATEGORY ( 'detail', '', ( #15 ) ) ;
#248 = PERSON_AND_ORGANIZATION ( #362, #39 ) ;
#249 = PERSON_AND_ORGANIZATION_ROLE ( 'classification_officer' ) ;
#250 = ADVANCED_FACE ( 'NONE', ( #192 ), #354, .F. ) ;
#251 = CALENDAR_DATE ( 2022, 1, 3 ) ;
#252 = LOCAL_TIME ( 9, 27, 30.00000000000000000, #19 ) ;
#253 = UNCERTAINTY_MEASURE_WITH_UNIT (LENGTH_MEASURE( 1.000000000000000082E-05 ), #10, 'distance_accuracy_value', 'NONE');
#254 = CALENDAR_DATE ( 2022, 1, 3 ) ;
#255 = CALENDAR_DATE ( 2022, 1, 3 ) ;
#256 = DIRECTION ( 'NONE',  ( 1.000000000000000000, 0.000000000000000000, 0.000000000000000000 ) ) ;
#257 = CLOSED_SHELL ( 'NONE', ( #99, #306, #250, #331 ) ) ;
#258 = CC_DESIGN_SECURITY_CLASSIFICATION ( #69, ( #383 ) ) ;
#259 = LINE ( 'NONE', #122, #207 ) ;
#260 = APPROVAL_STATUS ( 'not_yet_approved' ) ;
#261 = DATE_AND_TIME ( #67, #66 ) ;
#262 = DIRECTION ( 'NONE',  ( 0.000000000000000000, 0.000000000000000000, 1.000000000000000000 ) ) ;
#263 = APPLICATION_PROTOCOL_DEFINITION ( 'international standard', 'config_control_design', 1994, #107 ) ;
#264 = CARTESIAN_POINT ( 'NONE',  ( 0.000000000000000000, 0.1000000000000000194, -11.99999999999999822 ) ) ;
#265 = CALENDAR_DATE ( 2022, 1, 3 ) ;
#266 = DATE_TIME_ROLE ( 'classification_date' ) ;
#267 =( NAMED_UNIT ( * ) PLANE_ANGLE_UNIT ( ) SI_UNIT ( $, .RADIAN. ) );
#268 = APPROVAL_ROLE ( '' ) ;
#269 = CC_DESIGN_PERSON_AND_ORGANIZATION_ASSIGNMENT ( #123, #35, ( #50 ) ) ;
#270 = CYLINDRICAL_SURFACE ( 'NONE', #105, 0.1250000000000000555 ) ;
#271 = CC_DESIGN_APPROVAL ( #63, ( #50 ) ) ;
#272 = CC_DESIGN_PERSON_AND_ORGANIZATION_ASSIGNMENT ( #381, #229, ( #15 ) ) ;
#273 = MECHANICAL_CONTEXT ( 'NONE', #125, 'mechanical' ) ;
#274 = APPLICATION_PROTOCOL_DEFINITION ( 'international standard', 'config_control_design', 1994, #95 ) ;
#275 = AXIS2_PLACEMENT_3D ( 'NONE', #208, #230, #310 ) ;
#276 = COORDINATED_UNIVERSAL_TIME_OFFSET ( 6, 0, .BEHIND. ) ;
#277 = DATE_AND_TIME ( #147, #100 ) ;
#278 = PERSON_AND_ORGANIZATION ( #362, #39 ) ;
#279 = ORIENTED_EDGE ( 'NONE', *, *, #29, .F. ) ;
#280 = VECTOR ( 'NONE', #28, 39.37007874015748143 ) ;
#281 = LOCAL_TIME ( 9, 27, 30.00000000000000000, #348 ) ;
#282 = DESIGN_CONTEXT ( 'detailed design', #107, 'design' ) ;
#283 = SHAPE_REPRESENTATION ( 'ShaftRailAssembly_277BD465BF', ( #287, #275 ), #340 ) ;
#284 = DIRECTION ( 'NONE',  ( 1.000000000000000000, 0.000000000000000000, 0.000000000000000000 ) ) ;
#285 = CARTESIAN_POINT ( 'NONE',  ( 0.000000000000000000, 0.1000000000000000194, 0.000000000000000000 ) ) ;
#286 = PERSON_AND_ORGANIZATION ( #362, #39 ) ;
#287 = AXIS2_PLACEMENT_3D ( 'NONE', #290, #38, #44 ) ;
#288 = APPROVAL ( #80, 'UNSPECIFIED' ) ;
#289 = COORDINATED_UNIVERSAL_TIME_OFFSET ( 6, 0, .BEHIND. ) ;
#290 = CARTESIAN_POINT ( 'NONE',  ( 0.000000000000000000, 0.000000000000000000, 0.000000000000000000 ) ) ;
#291 = SECURITY_CLASSIFICATION_LEVEL ( 'unclassified' ) ;
#292 = MANIFOLD_SOLID_BREP ( 'S0_a_shaft-1/S0_a_shaft-1-solid1', #257 ) ;
#293 = CC_DESIGN_APPROVAL ( #243, ( #144 ) ) ;
#294 = DATE_TIME_ROLE ( 'classification_date' ) ;
#295 = DATE_AND_TIME ( #40, #281 ) ;
#296 = PRODUCT ( 'ShaftRailAssembly_277BD465BF', 'ShaftRailAssembly_277BD465BF', '', ( #315 ) ) ;
#297 = PERSON_AND_ORGANIZATION ( #362, #39 ) ;
#298 = LOCAL_TIME ( 9, 27, 30.00000000000000000, #23 ) ;
#299 = DATE_AND_TIME ( #103, #252 ) ;
#300 = AXIS2_PLACEMENT_3D ( 'NONE', #234, #97, #91 ) ;
#301 = COORDINATED_UNIVERSAL_TIME_OFFSET ( 6, 0, .BEHIND. ) ;
#302 = ORIENTED_EDGE ( 'NONE', *, *, #218, .T. ) ;
#303 = CALENDAR_DATE ( 2022, 1, 3 ) ;
#304 = CARTESIAN_POINT ( 'NONE',  ( 0.1250000000000000555, 0.1000000000000000194, -11.99999999999999822 ) ) ;
#305 = CC_DESIGN_DATE_AND_TIME_ASSIGNMENT ( #139, #371, ( #189 ) ) ;
#306 = ADVANCED_FACE ( 'NONE', ( #346 ), #270, .T. ) ;
#307 = AXIS2_PLACEMENT_3D ( 'NONE', #264, #47, #186 ) ;
#308 = LOCAL_TIME ( 9, 27, 30.00000000000000000, #289 ) ;
#309 = DESIGN_CONTEXT ( 'detailed design', #95, 'design' ) ;
#310 = DIRECTION ( 'NONE',  ( 1.000000000000000000, 0.000000000000000000, 0.000000000000000000 ) ) ;
#311 = PRODUCT_DEFINITION ( 'UNKNOWN', '', #50, #282 ) ;
#312 = EDGE_LOOP ( 'NONE', ( #149, #210, #87, #376 ) ) ;
#313 = APPROVAL ( #49, 'UNSPECIFIED' ) ;
#314 = APPROVAL_STATUS ( 'not_yet_approved' ) ;
#315 = MECHANICAL_CONTEXT ( 'NONE', #319, 'mechanical' ) ;
#316 = CC_DESIGN_SECURITY_CLASSIFICATION ( #110, ( #50 ) ) ;
#317 = FACE_OUTER_BOUND ( 'NONE', #231, .T. ) ;
#318 = PERSON_AND_ORGANIZATION ( #362, #39 ) ;
#319 = APPLICATION_CONTEXT ( 'configuration controlled 3d designs of mechanical parts and assemblies' ) ;
#320 = APPROVAL_DATE_TIME ( #355, #108 ) ;
#321 = LOCAL_TIME ( 9, 27, 30.00000000000000000, #337 ) ;
#322 = CC_DESIGN_DATE_AND_TIME_ASSIGNMENT ( #352, #215, ( #311 ) ) ;
#323 = APPLICATION_PROTOCOL_DEFINITION ( 'international standard', 'config_control_design', 1994, #125 ) ;
#324 = PRODUCT_DEFINITION_SHAPE ( 'NONE', 'NONE',  #20 ) ;
#325 = CC_DESIGN_PERSON_AND_ORGANIZATION_ASSIGNMENT ( #278, #168, ( #20 ) ) ;
#326 = APPROVAL_DATE_TIME ( #299, #214 ) ;
#327 = PRODUCT ( 'JUzLJKK7FU_CADModel_0', 'JUzLJKK7FU_CADModel_0', '', ( #273 ) ) ;
#328 = PERSON_AND_ORGANIZATION_ROLE ( 'classification_officer' ) ;
#329 = APPROVAL_PERSON_ORGANIZATION ( #24, #288, #114 ) ;
#330 = CARTESIAN_POINT ( 'NONE',  ( 0.000000000000000000, 0.000000000000000000, 0.000000000000000000 ) ) ;
#331 = ADVANCED_FACE ( 'NONE', ( #317 ), #124, .T. ) ;
#332 = PRODUCT_DEFINITION_SHAPE ( 'NONE', 'NONE',  #113 ) ;
#333 = CC_DESIGN_APPROVAL ( #288, ( #32 ) ) ;
#334 = DIRECTION ( 'NONE',  ( 0.000000000000000000, 0.000000000000000000, 1.000000000000000000 ) ) ;
#335 = PRODUCT_RELATED_PRODUCT_CATEGORY ( 'detail', '', ( #296 ) ) ;
#336 = APPROVAL ( #314, 'UNSPECIFIED' ) ;
#337 = COORDINATED_UNIVERSAL_TIME_OFFSET ( 6, 0, .BEHIND. ) ;
#338 = SHAPE_DEFINITION_REPRESENTATION ( #324, #166 ) ;
#339 = DIRECTION ( 'NONE',  ( 0.000000000000000000, 0.000000000000000000, 1.000000000000000000 ) ) ;
#340 =( GEOMETRIC_REPRESENTATION_CONTEXT ( 3 ) GLOBAL_UNCERTAINTY_ASSIGNED_CONTEXT ( ( #53 ) ) GLOBAL_UNIT_ASSIGNED_CONTEXT ( ( #353, #155, #191 ) ) REPRESENTATION_CONTEXT ( 'NONE', 'WORKASPACE' ) );
#341 = DIRECTION ( 'NONE',  ( 0.000000000000000000, 0.000000000000000000, 1.000000000000000000 ) ) ;
#342 = APPLICATION_PROTOCOL_DEFINITION ( 'international standard', 'config_control_design', 1994, #358 ) ;
#343 = CARTESIAN_POINT ( 'NONE',  ( -0.1250000000000000555, 0.1000000000000000472, -11.99999999999999822 ) ) ;
#344 = CALENDAR_DATE ( 2022, 1, 3 ) ;
#345 = CALENDAR_DATE ( 2022, 1, 3 ) ;
#346 = FACE_OUTER_BOUND ( 'NONE', #312, .T. ) ;
#347 = CC_DESIGN_PERSON_AND_ORGANIZATION_ASSIGNMENT ( #286, #5, ( #296 ) ) ;
#348 = COORDINATED_UNIVERSAL_TIME_OFFSET ( 6, 0, .BEHIND. ) ;
#349 = APPROVAL_PERSON_ORGANIZATION ( #359, #243, #268 ) ;
#350 = DIRECTION ( 'NONE',  ( 1.000000000000000000, 0.000000000000000000, 0.000000000000000000 ) ) ;
#351 = CC_DESIGN_DATE_AND_TIME_ASSIGNMENT ( #148, #294, ( #69 ) ) ;
#352 = DATE_AND_TIME ( #127, #185 ) ;
#353 =( CONVERSION_BASED_UNIT ( 'INCH', #357 ) LENGTH_UNIT ( ) NAMED_UNIT ( #171 ) );
#354 = PLANE ( 'NONE',  #307 ) ;
#355 = DATE_AND_TIME ( #238, #54 ) ;
#356 = APPROVAL ( #90, 'UNSPECIFIED' ) ;
#357 = LENGTH_MEASURE_WITH_UNIT ( LENGTH_MEASURE( 0.02539999999999999897 ), #81 );
#358 = APPLICATION_CONTEXT ( 'configuration controlled 3d designs of mechanical parts and assemblies' ) ;
#359 = PERSON_AND_ORGANIZATION ( #362, #39 ) ;
#360 = AXIS2_PLACEMENT_3D ( 'NONE', #180, #206, #284 ) ;
#361 =( GEOMETRIC_REPRESENTATION_CONTEXT ( 3 ) GLOBAL_UNCERTAINTY_ASSIGNED_CONTEXT ( ( #253 ) ) GLOBAL_UNIT_ASSIGNED_CONTEXT ( ( #10, #267, #4 ) ) REPRESENTATION_CONTEXT ( 'NONE', 'WORKASPACE' ) );
#362 = PERSON ( 'UNSPECIFIED', 'UNSPECIFIED', 'UNSPECIFIED', ('UNSPECIFIED'), ('UNSPECIFIED'), ('UNSPECIFIED') ) ;
#363 = CALENDAR_DATE ( 2022, 1, 3 ) ;
#364 = PERSON_AND_ORGANIZATION_ROLE ( 'design_supplier' ) ;
#365 = CC_DESIGN_DATE_AND_TIME_ASSIGNMENT ( #277, #21, ( #113 ) ) ;
#366 = ORIENTED_EDGE ( 'NONE', *, *, #218, .F. ) ;
#367 = COORDINATED_UNIVERSAL_TIME_OFFSET ( 6, 0, .BEHIND. ) ;
#368 = CIRCLE ( 'NONE', #360, 0.1250000000000000555 ) ;
#369 = SECURITY_CLASSIFICATION ( '', '', #224 ) ;
#370 = ORGANIZATION ( 'NAUO-ORG1', 'UNSPECIFIED', 'UNSPECIFIED' ) ;
#371 = DATE_TIME_ROLE ( 'classification_date' ) ;
#372 = COORDINATED_UNIVERSAL_TIME_OFFSET ( 6, 0, .BEHIND. ) ;
#373 =( REPRESENTATION_RELATIONSHIP ('NONE','NONE', #283, #166 ) REPRESENTATION_RELATIONSHIP_WITH_TRANSFORMATION ( #60 )SHAPE_REPRESENTATION_RELATIONSHIP( ) );
#374 = COORDINATED_UNIVERSAL_TIME_OFFSET ( 6, 0, .BEHIND. ) ;
#375 = PERSON_AND_ORGANIZATION_ROLE ( 'creator' ) ;
#376 = ORIENTED_EDGE ( 'NONE', *, *, #146, .F. ) ;
#377 = CC_DESIGN_PERSON_AND_ORGANIZATION_ASSIGNMENT ( #126, #235, ( #110 ) ) ;
#378 = PERSON_AND_ORGANIZATION_ROLE ( 'creator' ) ;
#379 = FACE_OUTER_BOUND ( 'NONE', #219, .T. ) ;
#380 = AXIS2_PLACEMENT_3D ( 'NONE', #227, #120, #176 ) ;
#381 = PERSON_AND_ORGANIZATION ( #362, #39 ) ;
#382 = ORIENTED_EDGE ( 'NONE', *, *, #12, .F. ) ;
#383 = NEXT_ASSEMBLY_USAGE_OCCURRENCE ( 'NAUO1', ' ', ' ', #311, #20, $ ) ;
ENDSEC;
END-ISO-10303-21;
