ISO-10303-21;
HEADER;
FILE_DESCRIPTION (( 'STEP AP203' ),
    '1' );
FILE_NAME ('ShaftRailAssembly_545B808428.step',
    '2022-09-08T14:48:03',
    ( '' ),
    ( '' ),
    'SwSTEP 2.0',
    'SolidWorks 2019',
    '' );
FILE_SCHEMA (( 'CONFIG_CONTROL_DESIGN' ));
ENDSEC;

DATA;
#1 = PERSON_AND_ORGANIZATION ( #246, #50 ) ;
#2 = ORIENTED_EDGE ( 'NONE', *, *, #123, .T. ) ;
#3 = APPLICATION_CONTEXT ( 'configuration controlled 3d designs of mechanical parts and assemblies' ) ;
#4 = DATE_AND_TIME ( #179, #216 ) ;
#5 = APPROVAL_PERSON_ORGANIZATION ( #25, #275, #142 ) ;
#6 = PRODUCT_RELATED_PRODUCT_CATEGORY ( 'detail', '', ( #217 ) ) ;
#7 = PRODUCT_RELATED_PRODUCT_CATEGORY ( 'detail', '', ( #102 ) ) ;
#8 = SECURITY_CLASSIFICATION ( '', '', #239 ) ;
#9 = DIMENSIONAL_EXPONENTS ( 1.000000000000000000, 0.000000000000000000, 0.000000000000000000, 0.000000000000000000, 0.000000000000000000, 0.000000000000000000, 0.000000000000000000 ) ;
#10 = PRODUCT ( 'ShaftRailAssembly_545B808428', 'ShaftRailAssembly_545B808428', '', ( #134 ) ) ;
#11 = CARTESIAN_POINT ( 'NONE',  ( 0.3749999999999999445, 1.500000000000000222, 0.000000000000000000 ) ) ;
#12 = DIRECTION ( 'NONE',  ( 0.000000000000000000, 0.000000000000000000, 1.000000000000000000 ) ) ;
#13 = CIRCLE ( 'NONE', #380, 0.3749999999999999445 ) ;
#14 = LOCAL_TIME ( 9, 48, 3.000000000000000000, #298 ) ;
#15 = CALENDAR_DATE ( 2022, 8, 9 ) ;
#16 = APPROVAL ( #80, 'UNSPECIFIED' ) ;
#17 = PERSON_AND_ORGANIZATION_ROLE ( 'design_owner' ) ;
#18 = CALENDAR_DATE ( 2022, 8, 9 ) ;
#19 = DIRECTION ( 'NONE',  ( 0.000000000000000000, 0.000000000000000000, 1.000000000000000000 ) ) ;
#20 = APPROVAL_ROLE ( '' ) ;
#21 = ADVANCED_FACE ( 'NONE', ( #125 ), #299, .T. ) ;
#22 = LOCAL_TIME ( 9, 48, 3.000000000000000000, #272 ) ;
#23 = PERSON_AND_ORGANIZATION ( #246, #50 ) ;
#24 = DIRECTION ( 'NONE',  ( 1.000000000000000000, 0.000000000000000000, 0.000000000000000000 ) ) ;
#25 = PERSON_AND_ORGANIZATION ( #246, #50 ) ;
#26 = CARTESIAN_POINT ( 'NONE',  ( 0.000000000000000000, 0.000000000000000000, 0.000000000000000000 ) ) ;
#27 = APPLICATION_PROTOCOL_DEFINITION ( 'international standard', 'config_control_design', 1994, #3 ) ;
#28 = APPROVAL_STATUS ( 'not_yet_approved' ) ;
#29 = PERSON_AND_ORGANIZATION_ROLE ( 'creator' ) ;
#30 = APPROVAL_STATUS ( 'not_yet_approved' ) ;
#31 = ORIENTED_EDGE ( 'NONE', *, *, #48, .T. ) ;
#32 = PERSON_AND_ORGANIZATION ( #246, #50 ) ;
#33 = ORIENTED_EDGE ( 'NONE', *, *, #48, .F. ) ;
#34 = APPROVAL_STATUS ( 'not_yet_approved' ) ;
#35 = CC_DESIGN_PERSON_AND_ORGANIZATION_ASSIGNMENT ( #32, #204, ( #317 ) ) ;
#36 = CC_DESIGN_APPROVAL ( #16, ( #73 ) ) ;
#37 = AXIS2_PLACEMENT_3D ( 'NONE', #268, #382, #238 ) ;
#38 = LOCAL_TIME ( 9, 48, 3.000000000000000000, #293 ) ;
#39 = DIRECTION ( 'NONE',  ( 0.000000000000000000, 0.000000000000000000, 1.000000000000000000 ) ) ;
#40 = CC_DESIGN_PERSON_AND_ORGANIZATION_ASSIGNMENT ( #290, #55, ( #8 ) ) ;
#41 = DIRECTION ( 'NONE',  ( 1.000000000000000000, 0.000000000000000000, 0.000000000000000000 ) ) ;
#42 = APPROVAL ( #254, 'UNSPECIFIED' ) ;
#43 = APPROVAL_PERSON_ORGANIZATION ( #324, #375, #151 ) ;
#44 = DIRECTION ( 'NONE',  ( 1.000000000000000000, 0.000000000000000000, 0.000000000000000000 ) ) ;
#45 = SHAPE_DEFINITION_REPRESENTATION ( #333, #167 ) ;
#46 = MECHANICAL_CONTEXT ( 'NONE', #200, 'mechanical' ) ;
#47 = DATE_AND_TIME ( #252, #103 ) ;
#48 = EDGE_CURVE ( 'NONE', #327, #271, #304, .T. ) ;
#49 = DATE_AND_TIME ( #197, #366 ) ;
#50 = ORGANIZATION ( 'UNSPECIFIED', 'UNSPECIFIED', '' ) ;
#51 = APPROVAL_STATUS ( 'not_yet_approved' ) ;
#52 = CALENDAR_DATE ( 2022, 8, 9 ) ;
#53 = APPROVAL_DATE_TIME ( #87, #116 ) ;
#54 = COORDINATED_UNIVERSAL_TIME_OFFSET ( 6, 0, .BEHIND. ) ;
#55 = PERSON_AND_ORGANIZATION_ROLE ( 'classification_officer' ) ;
#56 = CC_DESIGN_PERSON_AND_ORGANIZATION_ASSIGNMENT ( #328, #29, ( #156 ) ) ;
#57 = DIRECTION ( 'NONE',  ( 1.000000000000000000, 0.000000000000000000, 0.000000000000000000 ) ) ;
#58 = APPROVAL_PERSON_ORGANIZATION ( #342, #250, #168 ) ;
#59 = EDGE_LOOP ( 'NONE', ( #2, #122, #240, #295 ) ) ;
#60 = CC_DESIGN_PERSON_AND_ORGANIZATION_ASSIGNMENT ( #340, #281, ( #217 ) ) ;
#61 = CALENDAR_DATE ( 2022, 8, 9 ) ;
#62 =( REPRESENTATION_RELATIONSHIP ('NONE','NONE', #167, #72 ) REPRESENTATION_RELATIONSHIP_WITH_TRANSFORMATION ( #321 )SHAPE_REPRESENTATION_RELATIONSHIP( ) );
#63 = MANIFOLD_SOLID_BREP ( 'S0_a_shaft-1/S0_a_shaft-1-solid1', #316 ) ;
#64 = ORGANIZATION ( 'NAUO-ORG1', 'UNSPECIFIED', 'UNSPECIFIED' ) ;
#65 = DIRECTION ( 'NONE',  ( 1.000000000000000000, 0.000000000000000000, 0.000000000000000000 ) ) ;
#66 = LENGTH_MEASURE_WITH_UNIT ( LENGTH_MEASURE( 0.02539999999999999897 ), #187 );
#67 = DIMENSIONAL_EXPONENTS ( 1.000000000000000000, 0.000000000000000000, 0.000000000000000000, 0.000000000000000000, 0.000000000000000000, 0.000000000000000000, 0.000000000000000000 ) ;
#68 = APPROVAL_PERSON_ORGANIZATION ( #171, #306, #141 ) ;
#69 = DIRECTION ( 'NONE',  ( 0.000000000000000000, 0.000000000000000000, 1.000000000000000000 ) ) ;
#70 = CC_DESIGN_PERSON_AND_ORGANIZATION_ASSIGNMENT ( #1, #269, ( #140 ) ) ;
#71 = DIRECTION ( 'NONE',  ( 0.000000000000000000, 0.000000000000000000, 1.000000000000000000 ) ) ;
#72 = SHAPE_REPRESENTATION ( 'muo1nZcGPi_CADModel_0', ( #139 ), #98 ) ;
#73 = PRODUCT_DEFINITION ( 'UNKNOWN', '', #156, #284 ) ;
#74 = CARTESIAN_POINT ( 'NONE',  ( 0.3749999999999999445, 1.500000000000000222, -23.99999999999999645 ) ) ;
#75 = PERSON_AND_ORGANIZATION ( #246, #50 ) ;
#76 = AXIS2_PLACEMENT_3D ( 'NONE', #302, #215, #153 ) ;
#77 = LOCAL_TIME ( 9, 48, 3.000000000000000000, #231 ) ;
#78 = COORDINATED_UNIVERSAL_TIME_OFFSET ( 6, 0, .BEHIND. ) ;
#79 = DATE_AND_TIME ( #337, #170 ) ;
#80 = APPROVAL_STATUS ( 'not_yet_approved' ) ;
#81 = CALENDAR_DATE ( 2022, 8, 9 ) ;
#82 = APPLICATION_CONTEXT ( 'configuration controlled 3d designs of mechanical parts and assemblies' ) ;
#83 = APPLICATION_PROTOCOL_DEFINITION ( 'international standard', 'config_control_design', 1994, #82 ) ;
#84 = AXIS2_PLACEMENT_3D ( 'NONE', #105, #364, #133 ) ;
#85 = LOCAL_TIME ( 9, 48, 3.000000000000000000, #147 ) ;
#86 = DATE_TIME_ROLE ( 'creation_date' ) ;
#87 = DATE_AND_TIME ( #181, #85 ) ;
#88 = DIRECTION ( 'NONE',  ( 0.000000000000000000, 0.000000000000000000, 1.000000000000000000 ) ) ;
#89 = PERSON_AND_ORGANIZATION ( #246, #50 ) ;
#90 = CC_DESIGN_PERSON_AND_ORGANIZATION_ASSIGNMENT ( #75, #112, ( #154 ) ) ;
#91 = DATE_TIME_ROLE ( 'creation_date' ) ;
#92 = EDGE_LOOP ( 'NONE', ( #93, #177 ) ) ;
#93 = ORIENTED_EDGE ( 'NONE', *, *, #123, .F. ) ;
#94 = PERSON_AND_ORGANIZATION_ROLE ( 'creator' ) ;
#95 = EDGE_CURVE ( 'NONE', #180, #327, #219, .T. ) ;
#96 = LOCAL_TIME ( 9, 48, 3.000000000000000000, #228 ) ;
#97 = CARTESIAN_POINT ( 'NONE',  ( 0.000000000000000000, 1.500000000000000222, -23.99999999999999645 ) ) ;
#98 =( GEOMETRIC_REPRESENTATION_CONTEXT ( 3 ) GLOBAL_UNCERTAINTY_ASSIGNED_CONTEXT ( ( #194 ) ) GLOBAL_UNIT_ASSIGNED_CONTEXT ( ( #100, #331, #128 ) ) REPRESENTATION_CONTEXT ( 'NONE', 'WORKASPACE' ) );
#99 = CC_DESIGN_APPROVAL ( #375, ( #317 ) ) ;
#100 =( CONVERSION_BASED_UNIT ( 'INCH', #66 ) LENGTH_UNIT ( ) NAMED_UNIT ( #9 ) );
#101 = PRODUCT_RELATED_PRODUCT_CATEGORY ( 'detail', '', ( #10 ) ) ;
#102 = PRODUCT ( 'muo1nZcGPi_CADModel_0', 'muo1nZcGPi_CADModel_0', '', ( #46 ) ) ;
#103 = LOCAL_TIME ( 9, 48, 3.000000000000000000, #312 ) ;
#104 = CARTESIAN_POINT ( 'NONE',  ( 0.000000000000000000, 1.500000000000000222, -23.99999999999999645 ) ) ;
#105 = CARTESIAN_POINT ( 'NONE',  ( 0.000000000000000000, 1.500000000000000222, 0.000000000000000000 ) ) ;
#106 = DATE_TIME_ROLE ( 'classification_date' ) ;
#107 = CARTESIAN_POINT ( 'NONE',  ( 0.000000000000000000, 0.000000000000000000, 0.000000000000000000 ) ) ;
#108 = DATE_AND_TIME ( #81, #96 ) ;
#109 = PRODUCT_DEFINITION_FORMATION_WITH_SPECIFIED_SOURCE ( 'ANY', '', #10, .NOT_KNOWN. ) ;
#110 = DESIGN_CONTEXT ( 'detailed design', #329, 'design' ) ;
#111 = DIRECTION ( 'NONE',  ( 1.000000000000000000, 0.000000000000000000, 0.000000000000000000 ) ) ;
#112 = PERSON_AND_ORGANIZATION_ROLE ( 'creator' ) ;
#113 = PERSON ( 'NAUO-PER1', 'UNSPECIFIED', 'UNSPECIFIED', ('UNSPECIFIED'), ('UNSPECIFIED'), ('UNSPECIFIED') ) ;
#114 = APPROVAL_DATE_TIME ( #108, #250 ) ;
#115 = CARTESIAN_POINT ( 'NONE',  ( 0.000000000000000000, 0.000000000000000000, 0.000000000000000000 ) ) ;
#116 = APPROVAL ( #30, 'UNKNOWN' ) ;
#117 =( NAMED_UNIT ( * ) SI_UNIT ( $, .STERADIAN. ) SOLID_ANGLE_UNIT ( ) );
#118 = CC_DESIGN_PERSON_AND_ORGANIZATION_ASSIGNMENT ( #368, #376, ( #109 ) ) ;
#119 = CALENDAR_DATE ( 2022, 8, 9 ) ;
#120 = APPROVAL_DATE_TIME ( #347, #375 ) ;
#121 = DATE_TIME_ROLE ( 'classification_date' ) ;
#122 = ORIENTED_EDGE ( 'NONE', *, *, #95, .T. ) ;
#123 = EDGE_CURVE ( 'NONE', #148, #180, #296, .T. ) ;
#124 = PERSON_AND_ORGANIZATION ( #246, #50 ) ;
#125 = FACE_OUTER_BOUND ( 'NONE', #59, .T. ) ;
#126 = APPROVAL_DATE_TIME ( #4, #248 ) ;
#127 = APPROVAL_PERSON_ORGANIZATION ( #351, #164, #206 ) ;
#128 =( NAMED_UNIT ( * ) SI_UNIT ( $, .STERADIAN. ) SOLID_ANGLE_UNIT ( ) );
#129 = CC_DESIGN_DATE_AND_TIME_ASSIGNMENT ( #318, #86, ( #73 ) ) ;
#130 = APPROVAL_PERSON_ORGANIZATION ( #201, #42, #20 ) ;
#131 = FACE_OUTER_BOUND ( 'NONE', #210, .T. ) ;
#132 = LOCAL_TIME ( 9, 48, 3.000000000000000000, #160 ) ;
#133 = DIRECTION ( 'NONE',  ( 1.000000000000000000, 0.000000000000000000, -0.000000000000000000 ) ) ;
#134 = MECHANICAL_CONTEXT ( 'NONE', #3, 'mechanical' ) ;
#135 = PERSON_AND_ORGANIZATION ( #246, #50 ) ;
#136 = PERSON_AND_ORGANIZATION ( #246, #50 ) ;
#137 = APPROVAL_DATE_TIME ( #313, #16 ) ;
#138 = PERSON_AND_ORGANIZATION ( #246, #50 ) ;
#139 = AXIS2_PLACEMENT_3D ( 'NONE', #188, #183, #205 ) ;
#140 = PRODUCT_DEFINITION_FORMATION_WITH_SPECIFIED_SOURCE ( 'ANY', '', #217, .NOT_KNOWN. ) ;
#141 = APPROVAL_ROLE ( '' ) ;
#142 = APPROVAL_ROLE ( '' ) ;
#143 = PERSON_AND_ORGANIZATION_ROLE ( 'design_supplier' ) ;
#144 = DATE_TIME_ROLE ( 'classification_date' ) ;
#145 = VECTOR ( 'NONE', #12, 39.37007874015748143 ) ;
#146 = PERSON_AND_ORGANIZATION ( #246, #50 ) ;
#147 = COORDINATED_UNIVERSAL_TIME_OFFSET ( 6, 0, .BEHIND. ) ;
#148 = VERTEX_POINT ( 'NONE', #277 ) ;
#149 = SECURITY_CLASSIFICATION_LEVEL ( 'unclassified' ) ;
#150 = ORIENTED_EDGE ( 'NONE', *, *, #255, .T. ) ;
#151 = APPROVAL_ROLE ( '' ) ;
#152 = SECURITY_CLASSIFICATION ( '', '', #199 ) ;
#153 = DIRECTION ( 'NONE',  ( 1.000000000000000000, 0.000000000000000000, 0.000000000000000000 ) ) ;
#154 = PRODUCT_DEFINITION ( 'UNKNOWN', '', #109, #370 ) ;
#155 = CARTESIAN_POINT ( 'NONE',  ( -0.3749999999999999445, 1.500000000000000222, 0.000000000000000000 ) ) ;
#156 = PRODUCT_DEFINITION_FORMATION_WITH_SPECIFIED_SOURCE ( 'ANY', '', #102, .NOT_KNOWN. ) ;
#157 = DIRECTION ( 'NONE',  ( 0.000000000000000000, 0.000000000000000000, 1.000000000000000000 ) ) ;
#158 = PRODUCT_DEFINITION_SHAPE ( 'NONE', 'NONE',  #383 ) ;
#159 = CARTESIAN_POINT ( 'NONE',  ( 0.000000000000000000, 1.500000000000000222, -23.99999999999999645 ) ) ;
#160 = COORDINATED_UNIVERSAL_TIME_OFFSET ( 6, 0, .BEHIND. ) ;
#161 = CC_DESIGN_SECURITY_CLASSIFICATION ( #286, ( #156 ) ) ;
#162 = COORDINATED_UNIVERSAL_TIME_OFFSET ( 6, 0, .BEHIND. ) ;
#163 = MECHANICAL_CONTEXT ( 'NONE', #283, 'mechanical' ) ;
#164 = APPROVAL ( #346, 'UNSPECIFIED' ) ;
#165 = APPLICATION_PROTOCOL_DEFINITION ( 'international standard', 'config_control_design', 1994, #343 ) ;
#166 = APPROVAL_STATUS ( 'not_yet_approved' ) ;
#167 = SHAPE_REPRESENTATION ( 'ShaftRailAssembly_545B808428', ( #178, #361 ), #338 ) ;
#168 = APPROVAL_ROLE ( '' ) ;
#169 = CC_DESIGN_DATE_AND_TIME_ASSIGNMENT ( #352, #144, ( #8 ) ) ;
#170 = LOCAL_TIME ( 9, 48, 3.000000000000000000, #311 ) ;
#171 = PERSON_AND_ORGANIZATION ( #246, #50 ) ;
#172 = SHAPE_REPRESENTATION_RELATIONSHIP ( 'NONE' , 'NONE' ,  #72, #354 ) ;
#173 = DATE_AND_TIME ( #52, #38 ) ;
#174 = APPROVAL_ROLE ( '' ) ;
#175 = SECURITY_CLASSIFICATION_LEVEL ( 'unclassified' ) ;
#176 = PERSON_AND_ORGANIZATION ( #246, #50 ) ;
#177 = ORIENTED_EDGE ( 'NONE', *, *, #363, .F. ) ;
#178 = AXIS2_PLACEMENT_3D ( 'NONE', #115, #280, #111 ) ;
#179 = CALENDAR_DATE ( 2022, 8, 9 ) ;
#180 = VERTEX_POINT ( 'NONE', #192 ) ;
#181 = CALENDAR_DATE ( 2022, 8, 9 ) ;
#182 = CC_DESIGN_DATE_AND_TIME_ASSIGNMENT ( #213, #358, ( #317 ) ) ;
#183 = DIRECTION ( 'NONE',  ( 0.000000000000000000, 0.000000000000000000, 1.000000000000000000 ) ) ;
#184 = AXIS2_PLACEMENT_3D ( 'NONE', #97, #208, #57 ) ;
#185 = LOCAL_TIME ( 9, 48, 3.000000000000000000, #323 ) ;
#186 = CC_DESIGN_DATE_AND_TIME_ASSIGNMENT ( #79, #106, ( #152 ) ) ;
#187 =( LENGTH_UNIT ( ) NAMED_UNIT ( * ) SI_UNIT ( $, .METRE. ) );
#188 = CARTESIAN_POINT ( 'NONE',  ( 0.000000000000000000, 0.000000000000000000, 0.000000000000000000 ) ) ;
#189 = ADVANCED_FACE ( 'NONE', ( #367 ), #247, .T. ) ;
#190 = ORIENTED_EDGE ( 'NONE', *, *, #326, .T. ) ;
#191 = CC_DESIGN_APPROVAL ( #275, ( #214 ) ) ;
#192 = CARTESIAN_POINT ( 'NONE',  ( -0.3749999999999999445, 1.500000000000000222, -23.99999999999999645 ) ) ;
#193 = LINE ( 'NONE', #74, #372 ) ;
#194 = UNCERTAINTY_MEASURE_WITH_UNIT (LENGTH_MEASURE( 1.000000000000000082E-05 ), #100, 'distance_accuracy_value', 'NONE');
#195 = PERSON_AND_ORGANIZATION_ROLE ( 'design_owner' ) ;
#196 = CC_DESIGN_PERSON_AND_ORGANIZATION_ASSIGNMENT ( #138, #230, ( #109 ) ) ;
#197 = CALENDAR_DATE ( 2022, 8, 9 ) ;
#198 = CC_DESIGN_DATE_AND_TIME_ASSIGNMENT ( #243, #91, ( #214 ) ) ;
#199 = SECURITY_CLASSIFICATION_LEVEL ( 'unclassified' ) ;
#200 = APPLICATION_CONTEXT ( 'configuration controlled 3d designs of mechanical parts and assemblies' ) ;
#201 = PERSON_AND_ORGANIZATION ( #246, #50 ) ;
#202 = CC_DESIGN_SECURITY_CLASSIFICATION ( #152, ( #109 ) ) ;
#203 = APPROVAL_STATUS ( 'not_yet_approved' ) ;
#204 = PERSON_AND_ORGANIZATION_ROLE ( 'classification_officer' ) ;
#205 = DIRECTION ( 'NONE',  ( 1.000000000000000000, 0.000000000000000000, 0.000000000000000000 ) ) ;
#206 = APPROVAL_ROLE ( '' ) ;
#207 = CONTEXT_DEPENDENT_SHAPE_REPRESENTATION ( #62, #158 ) ;
#208 = DIRECTION ( 'NONE',  ( 0.000000000000000000, 0.000000000000000000, 1.000000000000000000 ) ) ;
#209 = SHAPE_DEFINITION_REPRESENTATION ( #276, #72 ) ;
#210 = EDGE_LOOP ( 'NONE', ( #325, #353, #150, #33 ) ) ;
#211 = CIRCLE ( 'NONE', #76, 0.3749999999999999445 ) ;
#212 = CC_DESIGN_APPROVAL ( #164, ( #286 ) ) ;
#213 = DATE_AND_TIME ( #379, #14 ) ;
#214 = PRODUCT_DEFINITION ( 'UNKNOWN', '', #140, #110 ) ;
#215 = DIRECTION ( 'NONE',  ( 0.000000000000000000, 0.000000000000000000, 1.000000000000000000 ) ) ;
#216 = LOCAL_TIME ( 9, 48, 3.000000000000000000, #294 ) ;
#217 = PRODUCT ( 'muo1nZcGPi_CADModel_0', 'muo1nZcGPi_CADModel_0', '', ( #163 ) ) ;
#218 = LOCAL_TIME ( 9, 48, 3.000000000000000000, #330 ) ;
#219 = LINE ( 'NONE', #278, #145 ) ;
#220 = PLANE ( 'NONE',  #274 ) ;
#221 = CC_DESIGN_PERSON_AND_ORGANIZATION_ASSIGNMENT ( #341, #253, ( #73 ) ) ;
#222 = PERSON_AND_ORGANIZATION_ROLE ( 'classification_officer' ) ;
#223 = PERSON_AND_ORGANIZATION ( #246, #50 ) ;
#224 = APPROVAL_DATE_TIME ( #288, #306 ) ;
#225 = CC_DESIGN_SECURITY_CLASSIFICATION ( #8, ( #383 ) ) ;
#226 = ADVANCED_FACE ( 'NONE', ( #251 ), #220, .F. ) ;
#227 = APPLICATION_PROTOCOL_DEFINITION ( 'international standard', 'config_control_design', 1994, #200 ) ;
#228 = COORDINATED_UNIVERSAL_TIME_OFFSET ( 6, 0, .BEHIND. ) ;
#229 = UNCERTAINTY_MEASURE_WITH_UNIT (LENGTH_MEASURE( 1.000000000000000082E-05 ), #287, 'distance_accuracy_value', 'NONE');
#230 = PERSON_AND_ORGANIZATION_ROLE ( 'design_supplier' ) ;
#231 = COORDINATED_UNIVERSAL_TIME_OFFSET ( 6, 0, .BEHIND. ) ;
#232 = CARTESIAN_POINT ( 'NONE',  ( 0.000000000000000000, 0.000000000000000000, 0.000000000000000000 ) ) ;
#233 = AXIS2_PLACEMENT_3D ( 'NONE', #159, #39, #41 ) ;
#234 = CC_DESIGN_APPROVAL ( #369, ( #156 ) ) ;
#235 = CALENDAR_DATE ( 2022, 8, 9 ) ;
#236 = DATE_AND_TIME ( #119, #185 ) ;
#237 = CC_DESIGN_PERSON_AND_ORGANIZATION_ASSIGNMENT ( #319, #143, ( #156 ) ) ;
#238 = DIRECTION ( 'NONE',  ( 1.000000000000000000, 0.000000000000000000, 0.000000000000000000 ) ) ;
#239 = SECURITY_CLASSIFICATION_LEVEL ( 'unclassified' ) ;
#240 = ORIENTED_EDGE ( 'NONE', *, *, #326, .F. ) ;
#241 = CC_DESIGN_PERSON_AND_ORGANIZATION_ASSIGNMENT ( #124, #263, ( #140 ) ) ;
#242 = APPROVAL_PERSON_ORGANIZATION ( #176, #248, #355 ) ;
#243 = DATE_AND_TIME ( #301, #22 ) ;
#244 = CARTESIAN_POINT ( 'NONE',  ( 0.000000000000000000, 1.500000000000000222, 0.000000000000000000 ) ) ;
#245 = APPROVAL_PERSON_ORGANIZATION ( #290, #116, #174 ) ;
#246 = PERSON ( 'UNSPECIFIED', 'UNSPECIFIED', 'UNSPECIFIED', ('UNSPECIFIED'), ('UNSPECIFIED'), ('UNSPECIFIED') ) ;
#247 = PLANE ( 'NONE',  #84 ) ;
#248 = APPROVAL ( #34, 'UNSPECIFIED' ) ;
#249 = LOCAL_TIME ( 9, 48, 3.000000000000000000, #315 ) ;
#250 = APPROVAL ( #51, 'UNSPECIFIED' ) ;
#251 = FACE_OUTER_BOUND ( 'NONE', #92, .T. ) ;
#252 = CALENDAR_DATE ( 2022, 8, 9 ) ;
#253 = PERSON_AND_ORGANIZATION_ROLE ( 'creator' ) ;
#254 = APPROVAL_STATUS ( 'not_yet_approved' ) ;
#255 = EDGE_CURVE ( 'NONE', #148, #271, #193, .T. ) ;
#256 = CALENDAR_DATE ( 2022, 8, 9 ) ;
#257 = PERSON_AND_ORGANIZATION ( #246, #50 ) ;
#258 = AXIS2_PLACEMENT_3D ( 'NONE', #107, #19, #44 ) ;
#259 = APPROVAL_PERSON_ORGANIZATION ( #89, #369, #262 ) ;
#260 = APPLICATION_PROTOCOL_DEFINITION ( 'international standard', 'config_control_design', 1994, #283 ) ;
#261 = LENGTH_MEASURE_WITH_UNIT ( LENGTH_MEASURE( 0.02539999999999999897 ), #345 );
#262 = APPROVAL_ROLE ( '' ) ;
#263 = PERSON_AND_ORGANIZATION_ROLE ( 'design_supplier' ) ;
#264 = CC_DESIGN_APPROVAL ( #250, ( #109 ) ) ;
#265 = CC_DESIGN_DATE_AND_TIME_ASSIGNMENT ( #47, #279, ( #154 ) ) ;
#266 = APPROVAL_DATE_TIME ( #350, #369 ) ;
#267 = CALENDAR_DATE ( 2022, 8, 9 ) ;
#268 = CARTESIAN_POINT ( 'NONE',  ( 0.000000000000000000, 1.500000000000000222, 0.000000000000000000 ) ) ;
#269 = PERSON_AND_ORGANIZATION_ROLE ( 'creator' ) ;
#270 = CC_DESIGN_PERSON_AND_ORGANIZATION_ASSIGNMENT ( #23, #94, ( #214 ) ) ;
#271 = VERTEX_POINT ( 'NONE', #11 ) ;
#272 = COORDINATED_UNIVERSAL_TIME_OFFSET ( 6, 0, .BEHIND. ) ;
#273 = CC_DESIGN_SECURITY_CLASSIFICATION ( #317, ( #140 ) ) ;
#274 = AXIS2_PLACEMENT_3D ( 'NONE', #335, #157, #336 ) ;
#275 = APPROVAL ( #374, 'UNSPECIFIED' ) ;
#276 = PRODUCT_DEFINITION_SHAPE ( 'NONE', 'NONE',  #214 ) ;
#277 = CARTESIAN_POINT ( 'NONE',  ( 0.3749999999999999445, 1.500000000000000222, -23.99999999999999645 ) ) ;
#278 = CARTESIAN_POINT ( 'NONE',  ( -0.3749999999999999445, 1.500000000000000222, -23.99999999999999645 ) ) ;
#279 = DATE_TIME_ROLE ( 'creation_date' ) ;
#280 = DIRECTION ( 'NONE',  ( 0.000000000000000000, 0.000000000000000000, 1.000000000000000000 ) ) ;
#281 = PERSON_AND_ORGANIZATION_ROLE ( 'design_owner' ) ;
#282 = APPLICATION_PROTOCOL_DEFINITION ( 'international standard', 'config_control_design', 1994, #329 ) ;
#283 = APPLICATION_CONTEXT ( 'configuration controlled 3d designs of mechanical parts and assemblies' ) ;
#284 = DESIGN_CONTEXT ( 'detailed design', #343, 'design' ) ;
#285 = APPROVAL_DATE_TIME ( #314, #275 ) ;
#286 = SECURITY_CLASSIFICATION ( '', '', #175 ) ;
#287 =( CONVERSION_BASED_UNIT ( 'INCH', #261 ) LENGTH_UNIT ( ) NAMED_UNIT ( #67 ) );
#288 = DATE_AND_TIME ( #18, #249 ) ;
#289 = APPROVAL_DATE_TIME ( #173, #164 ) ;
#290 = PERSON_AND_ORGANIZATION ( #113, #64 ) ;
#291 = CC_DESIGN_PERSON_AND_ORGANIZATION_ASSIGNMENT ( #146, #378, ( #286 ) ) ;
#292 = DIRECTION ( 'NONE',  ( 0.000000000000000000, 0.000000000000000000, 1.000000000000000000 ) ) ;
#293 = COORDINATED_UNIVERSAL_TIME_OFFSET ( 6, 0, .BEHIND. ) ;
#294 = COORDINATED_UNIVERSAL_TIME_OFFSET ( 6, 0, .BEHIND. ) ;
#295 = ORIENTED_EDGE ( 'NONE', *, *, #255, .F. ) ;
#296 = CIRCLE ( 'NONE', #233, 0.3749999999999999445 ) ;
#297 = LOCAL_TIME ( 9, 48, 3.000000000000000000, #162 ) ;
#298 = COORDINATED_UNIVERSAL_TIME_OFFSET ( 6, 0, .BEHIND. ) ;
#299 = CYLINDRICAL_SURFACE ( 'NONE', #184, 0.3749999999999999445 ) ;
#300 = ADVANCED_FACE ( 'NONE', ( #131 ), #307, .T. ) ;
#301 = CALENDAR_DATE ( 2022, 8, 9 ) ;
#302 = CARTESIAN_POINT ( 'NONE',  ( 0.000000000000000000, 1.500000000000000222, -23.99999999999999645 ) ) ;
#303 = CC_DESIGN_PERSON_AND_ORGANIZATION_ASSIGNMENT ( #257, #222, ( #152 ) ) ;
#304 = CIRCLE ( 'NONE', #37, 0.3749999999999999445 ) ;
#305 = CC_DESIGN_APPROVAL ( #116, ( #8 ) ) ;
#306 = APPROVAL ( #166, 'UNSPECIFIED' ) ;
#307 = CYLINDRICAL_SURFACE ( 'NONE', #348, 0.3749999999999999445 ) ;
#308 = DIRECTION ( 'NONE',  ( 1.000000000000000000, 0.000000000000000000, 0.000000000000000000 ) ) ;
#309 = AXIS2_PLACEMENT_3D ( 'NONE', #232, #88, #24 ) ;
#310 = APPROVAL_ROLE ( '' ) ;
#311 = COORDINATED_UNIVERSAL_TIME_OFFSET ( 6, 0, .BEHIND. ) ;
#312 = COORDINATED_UNIVERSAL_TIME_OFFSET ( 6, 0, .BEHIND. ) ;
#313 = DATE_AND_TIME ( #339, #297 ) ;
#314 = DATE_AND_TIME ( #15, #132 ) ;
#315 = COORDINATED_UNIVERSAL_TIME_OFFSET ( 6, 0, .BEHIND. ) ;
#316 = CLOSED_SHELL ( 'NONE', ( #21, #300, #226, #189 ) ) ;
#317 = SECURITY_CLASSIFICATION ( '', '', #149 ) ;
#318 = DATE_AND_TIME ( #256, #349 ) ;
#319 = PERSON_AND_ORGANIZATION ( #246, #50 ) ;
#320 = CC_DESIGN_DATE_AND_TIME_ASSIGNMENT ( #236, #121, ( #286 ) ) ;
#321 = ITEM_DEFINED_TRANSFORMATION ( 'NONE', 'NONE', #361,  #139 ) ;
#322 = DIRECTION ( 'NONE',  ( 1.000000000000000000, 0.000000000000000000, 0.000000000000000000 ) ) ;
#323 = COORDINATED_UNIVERSAL_TIME_OFFSET ( 6, 0, .BEHIND. ) ;
#324 = PERSON_AND_ORGANIZATION ( #246, #50 ) ;
#325 = ORIENTED_EDGE ( 'NONE', *, *, #95, .F. ) ;
#326 = EDGE_CURVE ( 'NONE', #271, #327, #13, .T. ) ;
#327 = VERTEX_POINT ( 'NONE', #155 ) ;
#328 = PERSON_AND_ORGANIZATION ( #246, #50 ) ;
#329 = APPLICATION_CONTEXT ( 'configuration controlled 3d designs of mechanical parts and assemblies' ) ;
#330 = COORDINATED_UNIVERSAL_TIME_OFFSET ( 6, 0, .BEHIND. ) ;
#331 =( NAMED_UNIT ( * ) PLANE_ANGLE_UNIT ( ) SI_UNIT ( $, .RADIAN. ) );
#332 = CC_DESIGN_PERSON_AND_ORGANIZATION_ASSIGNMENT ( #136, #195, ( #10 ) ) ;
#333 = PRODUCT_DEFINITION_SHAPE ( 'NONE', 'NONE',  #154 ) ;
#334 = CC_DESIGN_APPROVAL ( #248, ( #140 ) ) ;
#335 = CARTESIAN_POINT ( 'NONE',  ( 0.000000000000000000, 1.500000000000000222, -23.99999999999999645 ) ) ;
#336 = DIRECTION ( 'NONE',  ( 1.000000000000000000, 0.000000000000000000, -0.000000000000000000 ) ) ;
#337 = CALENDAR_DATE ( 2022, 8, 9 ) ;
#338 =( GEOMETRIC_REPRESENTATION_CONTEXT ( 3 ) GLOBAL_UNCERTAINTY_ASSIGNED_CONTEXT ( ( #229 ) ) GLOBAL_UNIT_ASSIGNED_CONTEXT ( ( #287, #377, #117 ) ) REPRESENTATION_CONTEXT ( 'NONE', 'WORKASPACE' ) );
#339 = CALENDAR_DATE ( 2022, 8, 9 ) ;
#340 = PERSON_AND_ORGANIZATION ( #246, #50 ) ;
#341 = PERSON_AND_ORGANIZATION ( #246, #50 ) ;
#342 = PERSON_AND_ORGANIZATION ( #246, #50 ) ;
#343 = APPLICATION_CONTEXT ( 'configuration controlled 3d designs of mechanical parts and assemblies' ) ;
#344 = APPROVAL_DATE_TIME ( #49, #42 ) ;
#345 =( LENGTH_UNIT ( ) NAMED_UNIT ( * ) SI_UNIT ( $, .METRE. ) );
#346 = APPROVAL_STATUS ( 'not_yet_approved' ) ;
#347 = DATE_AND_TIME ( #61, #218 ) ;
#348 = AXIS2_PLACEMENT_3D ( 'NONE', #104, #71, #308 ) ;
#349 = LOCAL_TIME ( 9, 48, 3.000000000000000000, #78 ) ;
#350 = DATE_AND_TIME ( #235, #357 ) ;
#351 = PERSON_AND_ORGANIZATION ( #246, #50 ) ;
#352 = DATE_AND_TIME ( #267, #77 ) ;
#353 = ORIENTED_EDGE ( 'NONE', *, *, #363, .T. ) ;
#354 = ADVANCED_BREP_SHAPE_REPRESENTATION ( '', ( #63, #139 ), #98 ) ;
#355 = APPROVAL_ROLE ( '' ) ;
#356 = EDGE_LOOP ( 'NONE', ( #190, #31 ) ) ;
#357 = LOCAL_TIME ( 9, 48, 3.000000000000000000, #54 ) ;
#358 = DATE_TIME_ROLE ( 'classification_date' ) ;
#359 = DIRECTION ( 'NONE',  ( 0.000000000000000000, 0.000000000000000000, 1.000000000000000000 ) ) ;
#360 = CC_DESIGN_PERSON_AND_ORGANIZATION_ASSIGNMENT ( #135, #17, ( #102 ) ) ;
#361 = AXIS2_PLACEMENT_3D ( 'NONE', #26, #292, #322 ) ;
#362 = CC_DESIGN_APPROVAL ( #42, ( #154 ) ) ;
#363 = EDGE_CURVE ( 'NONE', #180, #148, #211, .T. ) ;
#364 = DIRECTION ( 'NONE',  ( 0.000000000000000000, 0.000000000000000000, 1.000000000000000000 ) ) ;
#365 = PRODUCT_DEFINITION_SHAPE ( 'NONE', 'NONE',  #73 ) ;
#366 = LOCAL_TIME ( 9, 48, 3.000000000000000000, #371 ) ;
#367 = FACE_OUTER_BOUND ( 'NONE', #356, .T. ) ;
#368 = PERSON_AND_ORGANIZATION ( #246, #50 ) ;
#369 = APPROVAL ( #203, 'UNSPECIFIED' ) ;
#370 = DESIGN_CONTEXT ( 'detailed design', #82, 'design' ) ;
#371 = COORDINATED_UNIVERSAL_TIME_OFFSET ( 6, 0, .BEHIND. ) ;
#372 = VECTOR ( 'NONE', #69, 39.37007874015748143 ) ;
#373 = CC_DESIGN_APPROVAL ( #306, ( #152 ) ) ;
#374 = APPROVAL_STATUS ( 'not_yet_approved' ) ;
#375 = APPROVAL ( #28, 'UNSPECIFIED' ) ;
#376 = PERSON_AND_ORGANIZATION_ROLE ( 'creator' ) ;
#377 =( NAMED_UNIT ( * ) PLANE_ANGLE_UNIT ( ) SI_UNIT ( $, .RADIAN. ) );
#378 = PERSON_AND_ORGANIZATION_ROLE ( 'classification_officer' ) ;
#379 = CALENDAR_DATE ( 2022, 8, 9 ) ;
#380 = AXIS2_PLACEMENT_3D ( 'NONE', #244, #359, #65 ) ;
#381 = APPROVAL_PERSON_ORGANIZATION ( #223, #16, #310 ) ;
#382 = DIRECTION ( 'NONE',  ( 0.000000000000000000, 0.000000000000000000, 1.000000000000000000 ) ) ;
#383 = NEXT_ASSEMBLY_USAGE_OCCURRENCE ( 'NAUO1', ' ', ' ', #154, #214, $ ) ;
ENDSEC;
END-ISO-10303-21;
