ISO-10303-21;
HEADER;
FILE_DESCRIPTION (( 'STEP AP203' ),
    '1' );
FILE_NAME ('ShaftRailAssembly_05AD987F54.step',
    '2021-08-03T19:17:31',
    ( '' ),
    ( '' ),
    'SwSTEP 2.0',
    'SolidWorks 2019',
    '' );
FILE_SCHEMA (( 'CONFIG_CONTROL_DESIGN' ));
ENDSEC;

DATA;
#1 = DATE_AND_TIME ( #273, #349 ) ;
#2 = APPROVAL_STATUS ( 'not_yet_approved' ) ;
#3 = DIRECTION ( 'NONE',  ( 1.000000000000000000, 0.000000000000000000, 0.000000000000000000 ) ) ;
#4 = APPROVAL_PERSON_ORGANIZATION ( #117, #174, #39 ) ;
#5 = CALENDAR_DATE ( 2021, 3, 8 ) ;
#6 = CC_DESIGN_PERSON_AND_ORGANIZATION_ASSIGNMENT ( #379, #55, ( #112 ) ) ;
#7 = DATE_AND_TIME ( #309, #180 ) ;
#8 = APPROVAL_ROLE ( '' ) ;
#9 = ADVANCED_BREP_SHAPE_REPRESENTATION ( '', ( #122, #173 ), #210 ) ;
#10 = APPROVAL ( #298, 'UNSPECIFIED' ) ;
#11 = PERSON_AND_ORGANIZATION ( #125, #37 ) ;
#12 = LOCAL_TIME ( 14, 17, 31.00000000000000000, #372 ) ;
#13 = DIRECTION ( 'NONE',  ( 0.000000000000000000, 0.000000000000000000, 1.000000000000000000 ) ) ;
#14 = ORIENTED_EDGE ( 'NONE', *, *, #292, .T. ) ;
#15 = CARTESIAN_POINT ( 'NONE',  ( 0.000000000000000000, 1.750000000000000000, -23.99999999999999645 ) ) ;
#16 = CC_DESIGN_PERSON_AND_ORGANIZATION_ASSIGNMENT ( #38, #303, ( #268 ) ) ;
#17 = CC_DESIGN_APPROVAL ( #249, ( #154 ) ) ;
#18 = PERSON_AND_ORGANIZATION ( #125, #37 ) ;
#19 = LOCAL_TIME ( 14, 17, 31.00000000000000000, #176 ) ;
#20 = CARTESIAN_POINT ( 'NONE',  ( 0.000000000000000000, 0.000000000000000000, 0.000000000000000000 ) ) ;
#21 = DIRECTION ( 'NONE',  ( 1.000000000000000000, 0.000000000000000000, 0.000000000000000000 ) ) ;
#22 = PERSON_AND_ORGANIZATION ( #125, #37 ) ;
#23 = FACE_OUTER_BOUND ( 'NONE', #226, .T. ) ;
#24 = DATE_TIME_ROLE ( 'classification_date' ) ;
#25 = CALENDAR_DATE ( 2021, 3, 8 ) ;
#26 = DIRECTION ( 'NONE',  ( 0.000000000000000000, 0.000000000000000000, 1.000000000000000000 ) ) ;
#27 = COORDINATED_UNIVERSAL_TIME_OFFSET ( 6, 0, .BEHIND. ) ;
#28 = CC_DESIGN_DATE_AND_TIME_ASSIGNMENT ( #333, #217, ( #154 ) ) ;
#29 = APPROVAL_ROLE ( '' ) ;
#30 = AXIS2_PLACEMENT_3D ( 'NONE', #211, #326, #104 ) ;
#31 = PRODUCT_DEFINITION_SHAPE ( 'NONE', 'NONE',  #112 ) ;
#32 = COORDINATED_UNIVERSAL_TIME_OFFSET ( 6, 0, .BEHIND. ) ;
#33 = CC_DESIGN_PERSON_AND_ORGANIZATION_ASSIGNMENT ( #358, #89, ( #209 ) ) ;
#34 = CALENDAR_DATE ( 2021, 3, 8 ) ;
#35 =( GEOMETRIC_REPRESENTATION_CONTEXT ( 3 ) GLOBAL_UNCERTAINTY_ASSIGNED_CONTEXT ( ( #219 ) ) GLOBAL_UNIT_ASSIGNED_CONTEXT ( ( #194, #370, #228 ) ) REPRESENTATION_CONTEXT ( 'NONE', 'WORKASPACE' ) );
#36 = CC_DESIGN_SECURITY_CLASSIFICATION ( #374, ( #50 ) ) ;
#37 = ORGANIZATION ( 'UNSPECIFIED', 'UNSPECIFIED', '' ) ;
#38 = PERSON_AND_ORGANIZATION ( #125, #37 ) ;
#39 = APPROVAL_ROLE ( '' ) ;
#40 = CC_DESIGN_DATE_AND_TIME_ASSIGNMENT ( #151, #108, ( #246 ) ) ;
#41 = DIRECTION ( 'NONE',  ( 0.000000000000000000, 0.000000000000000000, 1.000000000000000000 ) ) ;
#42 = COORDINATED_UNIVERSAL_TIME_OFFSET ( 6, 0, .BEHIND. ) ;
#43 = APPROVAL_STATUS ( 'not_yet_approved' ) ;
#44 = CC_DESIGN_APPROVAL ( #216, ( #209 ) ) ;
#45 =( CONVERSION_BASED_UNIT ( 'INCH', #287 ) LENGTH_UNIT ( ) NAMED_UNIT ( #311 ) );
#46 = ORIENTED_EDGE ( 'NONE', *, *, #224, .F. ) ;
#47 = APPLICATION_CONTEXT ( 'configuration controlled 3d designs of mechanical parts and assemblies' ) ;
#48 = APPROVAL_ROLE ( '' ) ;
#49 = CARTESIAN_POINT ( 'NONE',  ( 0.000000000000000000, 0.000000000000000000, 0.000000000000000000 ) ) ;
#50 = PRODUCT_DEFINITION_FORMATION_WITH_SPECIFIED_SOURCE ( 'ANY', '', #160, .NOT_KNOWN. ) ;
#51 = APPROVAL_PERSON_ORGANIZATION ( #307, #348, #215 ) ;
#52 = MECHANICAL_CONTEXT ( 'NONE', #193, 'mechanical' ) ;
#53 = DATE_AND_TIME ( #238, #12 ) ;
#54 = APPROVAL ( #165, 'UNSPECIFIED' ) ;
#55 = PERSON_AND_ORGANIZATION_ROLE ( 'creator' ) ;
#56 = DATE_AND_TIME ( #320, #161 ) ;
#57 = CARTESIAN_POINT ( 'NONE',  ( 0.000000000000000000, 1.750000000000000000, -23.99999999999999645 ) ) ;
#58 = ADVANCED_FACE ( 'NONE', ( #23 ), #295, .F. ) ;
#59 = FACE_OUTER_BOUND ( 'NONE', #94, .T. ) ;
#60 = APPROVAL_DATE_TIME ( #84, #348 ) ;
#61 = DATE_AND_TIME ( #34, #79 ) ;
#62 = CARTESIAN_POINT ( 'NONE',  ( 0.000000000000000000, 1.750000000000000000, -23.99999999999999645 ) ) ;
#63 = LOCAL_TIME ( 14, 17, 31.00000000000000000, #27 ) ;
#64 = DESIGN_CONTEXT ( 'detailed design', #300, 'design' ) ;
#65 = CC_DESIGN_PERSON_AND_ORGANIZATION_ASSIGNMENT ( #18, #198, ( #91 ) ) ;
#66 = DIRECTION ( 'NONE',  ( 0.000000000000000000, 0.000000000000000000, 1.000000000000000000 ) ) ;
#67 = PERSON_AND_ORGANIZATION ( #125, #37 ) ;
#68 = PERSON_AND_ORGANIZATION ( #125, #37 ) ;
#69 = LOCAL_TIME ( 14, 17, 31.00000000000000000, #171 ) ;
#70 = CC_DESIGN_DATE_AND_TIME_ASSIGNMENT ( #231, #71, ( #91 ) ) ;
#71 = DATE_TIME_ROLE ( 'classification_date' ) ;
#72 = DIRECTION ( 'NONE',  ( 0.000000000000000000, 0.000000000000000000, 1.000000000000000000 ) ) ;
#73 = APPLICATION_PROTOCOL_DEFINITION ( 'international standard', 'config_control_design', 1994, #203 ) ;
#74 = CARTESIAN_POINT ( 'NONE',  ( 0.000000000000000000, 1.750000000000000000, 0.000000000000000000 ) ) ;
#75 = APPROVAL_STATUS ( 'not_yet_approved' ) ;
#76 = CC_DESIGN_PERSON_AND_ORGANIZATION_ASSIGNMENT ( #205, #261, ( #374 ) ) ;
#77 = ORIENTED_EDGE ( 'NONE', *, *, #152, .T. ) ;
#78 = CIRCLE ( 'NONE', #30, 0.5000000000000000000 ) ;
#79 = LOCAL_TIME ( 14, 17, 31.00000000000000000, #32 ) ;
#80 = CC_DESIGN_APPROVAL ( #109, ( #112 ) ) ;
#81 = DIRECTION ( 'NONE',  ( 1.000000000000000000, 0.000000000000000000, 0.000000000000000000 ) ) ;
#82 = DIRECTION ( 'NONE',  ( 0.000000000000000000, 0.000000000000000000, 1.000000000000000000 ) ) ;
#83 = APPROVAL_DATE_TIME ( #1, #10 ) ;
#84 = DATE_AND_TIME ( #218, #168 ) ;
#85 = ITEM_DEFINED_TRANSFORMATION ( 'NONE', 'NONE', #136,  #173 ) ;
#86 = CC_DESIGN_PERSON_AND_ORGANIZATION_ASSIGNMENT ( #22, #204, ( #50 ) ) ;
#87 = SECURITY_CLASSIFICATION ( '', '', #248 ) ;
#88 = PERSON_AND_ORGANIZATION ( #125, #37 ) ;
#89 = PERSON_AND_ORGANIZATION_ROLE ( 'creator' ) ;
#90 = PRODUCT_RELATED_PRODUCT_CATEGORY ( 'detail', '', ( #160 ) ) ;
#91 = SECURITY_CLASSIFICATION ( '', '', #172 ) ;
#92 = MECHANICAL_CONTEXT ( 'NONE', #47, 'mechanical' ) ;
#93 = APPROVAL_ROLE ( '' ) ;
#94 = EDGE_LOOP ( 'NONE', ( #202, #110 ) ) ;
#95 = CC_DESIGN_PERSON_AND_ORGANIZATION_ASSIGNMENT ( #150, #250, ( #246 ) ) ;
#96 = SHAPE_REPRESENTATION_RELATIONSHIP ( 'NONE' , 'NONE' ,  #344, #9 ) ;
#97 = AXIS2_PLACEMENT_3D ( 'NONE', #57, #239, #265 ) ;
#98 = CC_DESIGN_APPROVAL ( #348, ( #87 ) ) ;
#99 = AXIS2_PLACEMENT_3D ( 'NONE', #20, #252, #364 ) ;
#100 = CYLINDRICAL_SURFACE ( 'NONE', #208, 0.5000000000000000000 ) ;
#101 = APPROVAL_DATE_TIME ( #321, #109 ) ;
#102 = ADVANCED_FACE ( 'NONE', ( #59 ), #297, .T. ) ;
#103 = PERSON_AND_ORGANIZATION ( #125, #37 ) ;
#104 = DIRECTION ( 'NONE',  ( 1.000000000000000000, 0.000000000000000000, 0.000000000000000000 ) ) ;
#105 = SHAPE_DEFINITION_REPRESENTATION ( #31, #130 ) ;
#106 = VERTEX_POINT ( 'NONE', #144 ) ;
#107 = PERSON_AND_ORGANIZATION_ROLE ( 'design_supplier' ) ;
#108 = DATE_TIME_ROLE ( 'creation_date' ) ;
#109 = APPROVAL ( #289, 'UNSPECIFIED' ) ;
#110 = ORIENTED_EDGE ( 'NONE', *, *, #224, .T. ) ;
#111 = PERSON_AND_ORGANIZATION ( #125, #37 ) ;
#112 = PRODUCT_DEFINITION ( 'UNKNOWN', '', #50, #132 ) ;
#113 = APPROVAL_ROLE ( '' ) ;
#114 = CIRCLE ( 'NONE', #299, 0.5000000000000000000 ) ;
#115 = LOCAL_TIME ( 14, 17, 31.00000000000000000, #186 ) ;
#116 = FACE_OUTER_BOUND ( 'NONE', #131, .T. ) ;
#117 = PERSON_AND_ORGANIZATION ( #125, #37 ) ;
#118 = CC_DESIGN_PERSON_AND_ORGANIZATION_ASSIGNMENT ( #88, #283, ( #209 ) ) ;
#119 = CARTESIAN_POINT ( 'NONE',  ( 0.000000000000000000, 1.750000000000000000, 0.000000000000000000 ) ) ;
#120 = PRODUCT_DEFINITION_SHAPE ( 'NONE', 'NONE',  #246 ) ;
#121 = APPROVAL_DATE_TIME ( #244, #216 ) ;
#122 = MANIFOLD_SOLID_BREP ( 'S0_a_shaft-1/S0_a_shaft-1-solid1', #229 ) ;
#123 = DIRECTION ( 'NONE',  ( 1.000000000000000000, 0.000000000000000000, 0.000000000000000000 ) ) ;
#124 = UNCERTAINTY_MEASURE_WITH_UNIT (LENGTH_MEASURE( 1.000000000000000082E-05 ), #45, 'distance_accuracy_value', 'NONE');
#125 = PERSON ( 'UNSPECIFIED', 'UNSPECIFIED', 'UNSPECIFIED', ('UNSPECIFIED'), ('UNSPECIFIED'), ('UNSPECIFIED') ) ;
#126 = DIRECTION ( 'NONE',  ( 0.000000000000000000, 0.000000000000000000, 1.000000000000000000 ) ) ;
#127 = PERSON_AND_ORGANIZATION ( #125, #37 ) ;
#128 = ORIENTED_EDGE ( 'NONE', *, *, #162, .T. ) ;
#129 = PRODUCT_DEFINITION_SHAPE ( 'NONE', 'NONE',  #240 ) ;
#130 = SHAPE_REPRESENTATION ( 'ShaftRailAssembly_05AD987F54', ( #255, #136 ), #35 ) ;
#131 = EDGE_LOOP ( 'NONE', ( #14, #77, #196, #207 ) ) ;
#132 = DESIGN_CONTEXT ( 'detailed design', #254, 'design' ) ;
#133 = LOCAL_TIME ( 14, 17, 31.00000000000000000, #257 ) ;
#134 = PERSON_AND_ORGANIZATION ( #125, #37 ) ;
#135 = CC_DESIGN_APPROVAL ( #174, ( #246 ) ) ;
#136 = AXIS2_PLACEMENT_3D ( 'NONE', #49, #41, #290 ) ;
#137 = PERSON_AND_ORGANIZATION_ROLE ( 'design_owner' ) ;
#138 = CALENDAR_DATE ( 2021, 3, 8 ) ;
#139 = ORIENTED_EDGE ( 'NONE', *, *, #352, .F. ) ;
#140 = PERSON_AND_ORGANIZATION ( #125, #37 ) ;
#141 = DIRECTION ( 'NONE',  ( 1.000000000000000000, 0.000000000000000000, 0.000000000000000000 ) ) ;
#142 = CC_DESIGN_SECURITY_CLASSIFICATION ( #87, ( #383 ) ) ;
#143 = DATE_AND_TIME ( #25, #147 ) ;
#144 = CARTESIAN_POINT ( 'NONE',  ( 0.5000000000000000000, 1.750000000000000000, -23.99999999999999645 ) ) ;
#145 = CC_DESIGN_PERSON_AND_ORGANIZATION_ASSIGNMENT ( #307, #359, ( #87 ) ) ;
#146 = DIRECTION ( 'NONE',  ( 0.000000000000000000, 0.000000000000000000, 1.000000000000000000 ) ) ;
#147 = LOCAL_TIME ( 14, 17, 31.00000000000000000, #266 ) ;
#148 = COORDINATED_UNIVERSAL_TIME_OFFSET ( 6, 0, .BEHIND. ) ;
#149 = CC_DESIGN_PERSON_AND_ORGANIZATION_ASSIGNMENT ( #68, #347, ( #50 ) ) ;
#150 = PERSON_AND_ORGANIZATION ( #125, #37 ) ;
#151 = DATE_AND_TIME ( #220, #214 ) ;
#152 = EDGE_CURVE ( 'NONE', #335, #323, #267, .T. ) ;
#153 = AXIS2_PLACEMENT_3D ( 'NONE', #351, #82, #141 ) ;
#154 = SECURITY_CLASSIFICATION ( '', '', #353 ) ;
#155 = APPROVAL_PERSON_ORGANIZATION ( #318, #109, #259 ) ;
#156 = PERSON_AND_ORGANIZATION ( #125, #37 ) ;
#157 = PERSON_AND_ORGANIZATION ( #125, #37 ) ;
#158 = DATE_AND_TIME ( #188, #185 ) ;
#159 = COORDINATED_UNIVERSAL_TIME_OFFSET ( 6, 0, .BEHIND. ) ;
#160 = PRODUCT ( 'ShaftRailAssembly_05AD987F54', 'ShaftRailAssembly_05AD987F54', '', ( #52 ) ) ;
#161 = LOCAL_TIME ( 14, 17, 31.00000000000000000, #206 ) ;
#162 = EDGE_CURVE ( 'NONE', #106, #192, #270, .T. ) ;
#163 = CALENDAR_DATE ( 2021, 3, 8 ) ;
#164 = CC_DESIGN_DATE_AND_TIME_ASSIGNMENT ( #158, #281, ( #240 ) ) ;
#165 = APPROVAL_STATUS ( 'not_yet_approved' ) ;
#166 = LENGTH_MEASURE_WITH_UNIT ( LENGTH_MEASURE( 0.02539999999999999897 ), #313 );
#167 = LOCAL_TIME ( 14, 17, 31.00000000000000000, #341 ) ;
#168 = LOCAL_TIME ( 14, 17, 31.00000000000000000, #328 ) ;
#169 = APPROVAL_STATUS ( 'not_yet_approved' ) ;
#170 = ORIENTED_EDGE ( 'NONE', *, *, #152, .F. ) ;
#171 = COORDINATED_UNIVERSAL_TIME_OFFSET ( 6, 0, .BEHIND. ) ;
#172 = SECURITY_CLASSIFICATION_LEVEL ( 'unclassified' ) ;
#173 = AXIS2_PLACEMENT_3D ( 'NONE', #187, #285, #366 ) ;
#174 = APPROVAL ( #308, 'UNSPECIFIED' ) ;
#175 = APPROVAL_PERSON_ORGANIZATION ( #291, #54, #293 ) ;
#176 = COORDINATED_UNIVERSAL_TIME_OFFSET ( 6, 0, .BEHIND. ) ;
#177 = CARTESIAN_POINT ( 'NONE',  ( -0.5000000000000000000, 1.750000000000000000, 0.000000000000000000 ) ) ;
#178 = PRODUCT_RELATED_PRODUCT_CATEGORY ( 'detail', '', ( #268 ) ) ;
#179 = CC_DESIGN_APPROVAL ( #197, ( #240 ) ) ;
#180 = LOCAL_TIME ( 14, 17, 31.00000000000000000, #278 ) ;
#181 = DIRECTION ( 'NONE',  ( 0.000000000000000000, 0.000000000000000000, 1.000000000000000000 ) ) ;
#182 = APPLICATION_PROTOCOL_DEFINITION ( 'international standard', 'config_control_design', 1994, #300 ) ;
#183 = CC_DESIGN_PERSON_AND_ORGANIZATION_ASSIGNMENT ( #134, #286, ( #253 ) ) ;
#184 = CALENDAR_DATE ( 2021, 3, 8 ) ;
#185 = LOCAL_TIME ( 14, 17, 31.00000000000000000, #368 ) ;
#186 = COORDINATED_UNIVERSAL_TIME_OFFSET ( 6, 0, .BEHIND. ) ;
#187 = CARTESIAN_POINT ( 'NONE',  ( 0.000000000000000000, 0.000000000000000000, 0.000000000000000000 ) ) ;
#188 = CALENDAR_DATE ( 2021, 3, 8 ) ;
#189 = APPROVAL_STATUS ( 'not_yet_approved' ) ;
#190 = CC_DESIGN_PERSON_AND_ORGANIZATION_ASSIGNMENT ( #294, #137, ( #160 ) ) ;
#191 = FACE_OUTER_BOUND ( 'NONE', #235, .T. ) ;
#192 = VERTEX_POINT ( 'NONE', #345 ) ;
#193 = APPLICATION_CONTEXT ( 'configuration controlled 3d designs of mechanical parts and assemblies' ) ;
#194 =( CONVERSION_BASED_UNIT ( 'INCH', #166 ) LENGTH_UNIT ( ) NAMED_UNIT ( #213 ) );
#195 = DIRECTION ( 'NONE',  ( 1.000000000000000000, 0.000000000000000000, 0.000000000000000000 ) ) ;
#196 = ORIENTED_EDGE ( 'NONE', *, *, #363, .F. ) ;
#197 = APPROVAL ( #43, 'UNSPECIFIED' ) ;
#198 = PERSON_AND_ORGANIZATION_ROLE ( 'classification_officer' ) ;
#199 = CARTESIAN_POINT ( 'NONE',  ( 0.000000000000000000, 0.000000000000000000, 0.000000000000000000 ) ) ;
#200 = CALENDAR_DATE ( 2021, 3, 8 ) ;
#201 = AXIS2_PLACEMENT_3D ( 'NONE', #74, #26, #373 ) ;
#202 = ORIENTED_EDGE ( 'NONE', *, *, #363, .T. ) ;
#203 = APPLICATION_CONTEXT ( 'configuration controlled 3d designs of mechanical parts and assemblies' ) ;
#204 = PERSON_AND_ORGANIZATION_ROLE ( 'creator' ) ;
#205 = PERSON_AND_ORGANIZATION ( #125, #37 ) ;
#206 = COORDINATED_UNIVERSAL_TIME_OFFSET ( 6, 0, .BEHIND. ) ;
#207 = ORIENTED_EDGE ( 'NONE', *, *, #162, .F. ) ;
#208 = AXIS2_PLACEMENT_3D ( 'NONE', #15, #13, #123 ) ;
#209 = PRODUCT_DEFINITION_FORMATION_WITH_SPECIFIED_SOURCE ( 'ANY', '', #268, .NOT_KNOWN. ) ;
#210 =( GEOMETRIC_REPRESENTATION_CONTEXT ( 3 ) GLOBAL_UNCERTAINTY_ASSIGNED_CONTEXT ( ( #124 ) ) GLOBAL_UNIT_ASSIGNED_CONTEXT ( ( #45, #232, #310 ) ) REPRESENTATION_CONTEXT ( 'NONE', 'WORKASPACE' ) );
#211 = CARTESIAN_POINT ( 'NONE',  ( 0.000000000000000000, 1.750000000000000000, -23.99999999999999645 ) ) ;
#212 = CC_DESIGN_DATE_AND_TIME_ASSIGNMENT ( #274, #357, ( #87 ) ) ;
#213 = DIMENSIONAL_EXPONENTS ( 1.000000000000000000, 0.000000000000000000, 0.000000000000000000, 0.000000000000000000, 0.000000000000000000, 0.000000000000000000, 0.000000000000000000 ) ;
#214 = LOCAL_TIME ( 14, 17, 31.00000000000000000, #159 ) ;
#215 = APPROVAL_ROLE ( '' ) ;
#216 = APPROVAL ( #276, 'UNSPECIFIED' ) ;
#217 = DATE_TIME_ROLE ( 'classification_date' ) ;
#218 = CALENDAR_DATE ( 2021, 3, 8 ) ;
#219 = UNCERTAINTY_MEASURE_WITH_UNIT (LENGTH_MEASURE( 1.000000000000000082E-05 ), #194, 'distance_accuracy_value', 'NONE');
#220 = CALENDAR_DATE ( 2021, 3, 8 ) ;
#221 = PRODUCT_DEFINITION_FORMATION_WITH_SPECIFIED_SOURCE ( 'ANY', '', #253, .NOT_KNOWN. ) ;
#222 = PERSON_AND_ORGANIZATION ( #125, #37 ) ;
#223 = PERSON_AND_ORGANIZATION ( #125, #37 ) ;
#224 = EDGE_CURVE ( 'NONE', #323, #192, #272, .T. ) ;
#225 = DATE_AND_TIME ( #163, #133 ) ;
#226 = EDGE_LOOP ( 'NONE', ( #237, #139 ) ) ;
#227 = CC_DESIGN_APPROVAL ( #315, ( #374 ) ) ;
#228 =( NAMED_UNIT ( * ) SI_UNIT ( $, .STERADIAN. ) SOLID_ANGLE_UNIT ( ) );
#229 = CLOSED_SHELL ( 'NONE', ( #367, #376, #58, #102 ) ) ;
#230 = DATE_TIME_ROLE ( 'creation_date' ) ;
#231 = DATE_AND_TIME ( #233, #69 ) ;
#232 =( NAMED_UNIT ( * ) PLANE_ANGLE_UNIT ( ) SI_UNIT ( $, .RADIAN. ) );
#233 = CALENDAR_DATE ( 2021, 3, 8 ) ;
#234 = APPROVAL_PERSON_ORGANIZATION ( #156, #216, #8 ) ;
#235 = EDGE_LOOP ( 'NONE', ( #170, #365, #128, #46 ) ) ;
#236 = DATE_AND_TIME ( #138, #63 ) ;
#237 = ORIENTED_EDGE ( 'NONE', *, *, #292, .F. ) ;
#238 = CALENDAR_DATE ( 2021, 3, 8 ) ;
#239 = DIRECTION ( 'NONE',  ( 0.000000000000000000, 0.000000000000000000, 1.000000000000000000 ) ) ;
#240 = PRODUCT_DEFINITION ( 'UNKNOWN', '', #221, #284 ) ;
#241 = CARTESIAN_POINT ( 'NONE',  ( 0.000000000000000000, 1.750000000000000000, 0.000000000000000000 ) ) ;
#242 = ORGANIZATION ( 'NAUO-ORG1', 'UNSPECIFIED', 'UNSPECIFIED' ) ;
#243 = CC_DESIGN_SECURITY_CLASSIFICATION ( #91, ( #221 ) ) ;
#244 = DATE_AND_TIME ( #5, #115 ) ;
#245 = CC_DESIGN_APPROVAL ( #382, ( #50 ) ) ;
#246 = PRODUCT_DEFINITION ( 'UNKNOWN', '', #209, #64 ) ;
#247 = APPROVAL_DATE_TIME ( #61, #174 ) ;
#248 = SECURITY_CLASSIFICATION_LEVEL ( 'unclassified' ) ;
#249 = APPROVAL ( #2, 'UNSPECIFIED' ) ;
#250 = PERSON_AND_ORGANIZATION_ROLE ( 'creator' ) ;
#251 = CC_DESIGN_APPROVAL ( #10, ( #221 ) ) ;
#252 = DIRECTION ( 'NONE',  ( 0.000000000000000000, 0.000000000000000000, 1.000000000000000000 ) ) ;
#253 = PRODUCT ( 'aXUTfyetk8_CADModel_0', 'aXUTfyetk8_CADModel_0', '', ( #92 ) ) ;
#254 = APPLICATION_CONTEXT ( 'configuration controlled 3d designs of mechanical parts and assemblies' ) ;
#255 = AXIS2_PLACEMENT_3D ( 'NONE', #339, #66, #195 ) ;
#256 = LOCAL_TIME ( 14, 17, 31.00000000000000000, #280 ) ;
#257 = COORDINATED_UNIVERSAL_TIME_OFFSET ( 6, 0, .BEHIND. ) ;
#258 = APPROVAL_PERSON_ORGANIZATION ( #11, #10, #29 ) ;
#259 = APPROVAL_ROLE ( '' ) ;
#260 = APPLICATION_PROTOCOL_DEFINITION ( 'international standard', 'config_control_design', 1994, #319 ) ;
#261 = PERSON_AND_ORGANIZATION_ROLE ( 'classification_officer' ) ;
#262 = CARTESIAN_POINT ( 'NONE',  ( 0.5000000000000000000, 1.750000000000000000, -23.99999999999999645 ) ) ;
#263 = APPROVAL_ROLE ( '' ) ;
#264 = LOCAL_TIME ( 14, 17, 31.00000000000000000, #42 ) ;
#265 = DIRECTION ( 'NONE',  ( 1.000000000000000000, 0.000000000000000000, -0.000000000000000000 ) ) ;
#266 = COORDINATED_UNIVERSAL_TIME_OFFSET ( 6, 0, .BEHIND. ) ;
#267 = LINE ( 'NONE', #378, #306 ) ;
#268 = PRODUCT ( 'aXUTfyetk8_CADModel_0', 'aXUTfyetk8_CADModel_0', '', ( #296 ) ) ;
#269 = APPLICATION_PROTOCOL_DEFINITION ( 'international standard', 'config_control_design', 1994, #254 ) ;
#270 = LINE ( 'NONE', #262, #325 ) ;
#271 = CARTESIAN_POINT ( 'NONE',  ( -0.5000000000000000000, 1.750000000000000000, -23.99999999999999645 ) ) ;
#272 = CIRCLE ( 'NONE', #277, 0.5000000000000000000 ) ;
#273 = CALENDAR_DATE ( 2021, 3, 8 ) ;
#274 = DATE_AND_TIME ( #275, #264 ) ;
#275 = CALENDAR_DATE ( 2021, 3, 8 ) ;
#276 = APPROVAL_STATUS ( 'not_yet_approved' ) ;
#277 = AXIS2_PLACEMENT_3D ( 'NONE', #241, #72, #81 ) ;
#278 = COORDINATED_UNIVERSAL_TIME_OFFSET ( 6, 0, .BEHIND. ) ;
#279 = CC_DESIGN_PERSON_AND_ORGANIZATION_ASSIGNMENT ( #111, #317, ( #221 ) ) ;
#280 = COORDINATED_UNIVERSAL_TIME_OFFSET ( 6, 0, .BEHIND. ) ;
#281 = DATE_TIME_ROLE ( 'creation_date' ) ;
#282 = PRODUCT_DEFINITION_SHAPE ( 'NONE', 'NONE',  #383 ) ;
#283 = PERSON_AND_ORGANIZATION_ROLE ( 'design_supplier' ) ;
#284 = DESIGN_CONTEXT ( 'detailed design', #319, 'design' ) ;
#285 = DIRECTION ( 'NONE',  ( 0.000000000000000000, 0.000000000000000000, 1.000000000000000000 ) ) ;
#286 = PERSON_AND_ORGANIZATION_ROLE ( 'design_owner' ) ;
#287 = LENGTH_MEASURE_WITH_UNIT ( LENGTH_MEASURE( 0.02539999999999999897 ), #361 );
#288 = CC_DESIGN_APPROVAL ( #54, ( #91 ) ) ;
#289 = APPROVAL_STATUS ( 'not_yet_approved' ) ;
#290 = DIRECTION ( 'NONE',  ( 1.000000000000000000, 0.000000000000000000, 0.000000000000000000 ) ) ;
#291 = PERSON_AND_ORGANIZATION ( #125, #37 ) ;
#292 = EDGE_CURVE ( 'NONE', #106, #335, #78, .T. ) ;
#293 = APPROVAL_ROLE ( '' ) ;
#294 = PERSON_AND_ORGANIZATION ( #125, #37 ) ;
#295 = PLANE ( 'NONE',  #97 ) ;
#296 = MECHANICAL_CONTEXT ( 'NONE', #203, 'mechanical' ) ;
#297 = PLANE ( 'NONE',  #201 ) ;
#298 = APPROVAL_STATUS ( 'not_yet_approved' ) ;
#299 = AXIS2_PLACEMENT_3D ( 'NONE', #119, #330, #3 ) ;
#300 = APPLICATION_CONTEXT ( 'configuration controlled 3d designs of mechanical parts and assemblies' ) ;
#301 = PRODUCT_RELATED_PRODUCT_CATEGORY ( 'detail', '', ( #253 ) ) ;
#302 = DIRECTION ( 'NONE',  ( 1.000000000000000000, 0.000000000000000000, 0.000000000000000000 ) ) ;
#303 = PERSON_AND_ORGANIZATION_ROLE ( 'design_owner' ) ;
#304 = AXIS2_PLACEMENT_3D ( 'NONE', #199, #126, #21 ) ;
#305 = CC_DESIGN_PERSON_AND_ORGANIZATION_ASSIGNMENT ( #157, #360, ( #154 ) ) ;
#306 = VECTOR ( 'NONE', #146, 39.37007874015748143 ) ;
#307 = PERSON_AND_ORGANIZATION ( #336, #242 ) ;
#308 = APPROVAL_STATUS ( 'not_yet_approved' ) ;
#309 = CALENDAR_DATE ( 2021, 3, 8 ) ;
#310 =( NAMED_UNIT ( * ) SI_UNIT ( $, .STERADIAN. ) SOLID_ANGLE_UNIT ( ) );
#311 = DIMENSIONAL_EXPONENTS ( 1.000000000000000000, 0.000000000000000000, 0.000000000000000000, 0.000000000000000000, 0.000000000000000000, 0.000000000000000000, 0.000000000000000000 ) ;
#312 = CC_DESIGN_DATE_AND_TIME_ASSIGNMENT ( #53, #24, ( #374 ) ) ;
#313 =( LENGTH_UNIT ( ) NAMED_UNIT ( * ) SI_UNIT ( $, .METRE. ) );
#314 = SECURITY_CLASSIFICATION_LEVEL ( 'unclassified' ) ;
#315 = APPROVAL ( #75, 'UNSPECIFIED' ) ;
#316 = APPROVAL_PERSON_ORGANIZATION ( #67, #382, #48 ) ;
#317 = PERSON_AND_ORGANIZATION_ROLE ( 'creator' ) ;
#318 = PERSON_AND_ORGANIZATION ( #125, #37 ) ;
#319 = APPLICATION_CONTEXT ( 'configuration controlled 3d designs of mechanical parts and assemblies' ) ;
#320 = CALENDAR_DATE ( 2021, 3, 8 ) ;
#321 = DATE_AND_TIME ( #369, #19 ) ;
#322 = CIRCLE ( 'NONE', #153, 0.5000000000000000000 ) ;
#323 = VERTEX_POINT ( 'NONE', #177 ) ;
#324 = CC_DESIGN_DATE_AND_TIME_ASSIGNMENT ( #343, #230, ( #112 ) ) ;
#325 = VECTOR ( 'NONE', #380, 39.37007874015748143 ) ;
#326 = DIRECTION ( 'NONE',  ( 0.000000000000000000, 0.000000000000000000, 1.000000000000000000 ) ) ;
#327 = CC_DESIGN_PERSON_AND_ORGANIZATION_ASSIGNMENT ( #103, #107, ( #221 ) ) ;
#328 = COORDINATED_UNIVERSAL_TIME_OFFSET ( 6, 0, .BEHIND. ) ;
#329 = APPROVAL_DATE_TIME ( #7, #249 ) ;
#330 = DIRECTION ( 'NONE',  ( 0.000000000000000000, 0.000000000000000000, 1.000000000000000000 ) ) ;
#331 = CYLINDRICAL_SURFACE ( 'NONE', #342, 0.5000000000000000000 ) ;
#332 = PERSON_AND_ORGANIZATION_ROLE ( 'creator' ) ;
#333 = DATE_AND_TIME ( #184, #256 ) ;
#334 =( REPRESENTATION_RELATIONSHIP ('NONE','NONE', #130, #344 ) REPRESENTATION_RELATIONSHIP_WITH_TRANSFORMATION ( #85 )SHAPE_REPRESENTATION_RELATIONSHIP( ) );
#335 = VERTEX_POINT ( 'NONE', #271 ) ;
#336 = PERSON ( 'NAUO-PER1', 'UNSPECIFIED', 'UNSPECIFIED', ('UNSPECIFIED'), ('UNSPECIFIED'), ('UNSPECIFIED') ) ;
#337 = CC_DESIGN_PERSON_AND_ORGANIZATION_ASSIGNMENT ( #222, #332, ( #240 ) ) ;
#338 = CC_DESIGN_SECURITY_CLASSIFICATION ( #154, ( #209 ) ) ;
#339 = CARTESIAN_POINT ( 'NONE',  ( 0.000000000000000000, 0.000000000000000000, 0.000000000000000000 ) ) ;
#340 = APPLICATION_PROTOCOL_DEFINITION ( 'international standard', 'config_control_design', 1994, #193 ) ;
#341 = COORDINATED_UNIVERSAL_TIME_OFFSET ( 6, 0, .BEHIND. ) ;
#342 = AXIS2_PLACEMENT_3D ( 'NONE', #62, #181, #302 ) ;
#343 = DATE_AND_TIME ( #200, #167 ) ;
#344 = SHAPE_REPRESENTATION ( 'aXUTfyetk8_CADModel_0', ( #173 ), #210 ) ;
#345 = CARTESIAN_POINT ( 'NONE',  ( 0.5000000000000000000, 1.750000000000000000, 0.000000000000000000 ) ) ;
#346 = APPROVAL_DATE_TIME ( #236, #54 ) ;
#347 = PERSON_AND_ORGANIZATION_ROLE ( 'design_supplier' ) ;
#348 = APPROVAL ( #189, 'UNKNOWN' ) ;
#349 = LOCAL_TIME ( 14, 17, 31.00000000000000000, #148 ) ;
#350 = APPROVAL_PERSON_ORGANIZATION ( #223, #249, #113 ) ;
#351 = CARTESIAN_POINT ( 'NONE',  ( 0.000000000000000000, 1.750000000000000000, -23.99999999999999645 ) ) ;
#352 = EDGE_CURVE ( 'NONE', #335, #106, #322, .T. ) ;
#353 = SECURITY_CLASSIFICATION_LEVEL ( 'unclassified' ) ;
#354 = CONTEXT_DEPENDENT_SHAPE_REPRESENTATION ( #334, #282 ) ;
#355 = APPROVAL_PERSON_ORGANIZATION ( #140, #315, #263 ) ;
#356 = SHAPE_DEFINITION_REPRESENTATION ( #120, #344 ) ;
#357 = DATE_TIME_ROLE ( 'classification_date' ) ;
#358 = PERSON_AND_ORGANIZATION ( #125, #37 ) ;
#359 = PERSON_AND_ORGANIZATION_ROLE ( 'classification_officer' ) ;
#360 = PERSON_AND_ORGANIZATION_ROLE ( 'classification_officer' ) ;
#361 =( LENGTH_UNIT ( ) NAMED_UNIT ( * ) SI_UNIT ( $, .METRE. ) );
#362 = APPLICATION_PROTOCOL_DEFINITION ( 'international standard', 'config_control_design', 1994, #47 ) ;
#363 = EDGE_CURVE ( 'NONE', #192, #323, #114, .T. ) ;
#364 = DIRECTION ( 'NONE',  ( 1.000000000000000000, 0.000000000000000000, 0.000000000000000000 ) ) ;
#365 = ORIENTED_EDGE ( 'NONE', *, *, #352, .T. ) ;
#366 = DIRECTION ( 'NONE',  ( 1.000000000000000000, 0.000000000000000000, 0.000000000000000000 ) ) ;
#367 = ADVANCED_FACE ( 'NONE', ( #116 ), #331, .T. ) ;
#368 = COORDINATED_UNIVERSAL_TIME_OFFSET ( 6, 0, .BEHIND. ) ;
#369 = CALENDAR_DATE ( 2021, 3, 8 ) ;
#370 =( NAMED_UNIT ( * ) PLANE_ANGLE_UNIT ( ) SI_UNIT ( $, .RADIAN. ) );
#371 = APPROVAL_DATE_TIME ( #225, #197 ) ;
#372 = COORDINATED_UNIVERSAL_TIME_OFFSET ( 6, 0, .BEHIND. ) ;
#373 = DIRECTION ( 'NONE',  ( 1.000000000000000000, 0.000000000000000000, -0.000000000000000000 ) ) ;
#374 = SECURITY_CLASSIFICATION ( '', '', #314 ) ;
#375 = APPROVAL_DATE_TIME ( #56, #315 ) ;
#376 = ADVANCED_FACE ( 'NONE', ( #191 ), #100, .T. ) ;
#377 = APPROVAL_DATE_TIME ( #143, #382 ) ;
#378 = CARTESIAN_POINT ( 'NONE',  ( -0.5000000000000000000, 1.750000000000000000, -23.99999999999999645 ) ) ;
#379 = PERSON_AND_ORGANIZATION ( #125, #37 ) ;
#380 = DIRECTION ( 'NONE',  ( 0.000000000000000000, 0.000000000000000000, 1.000000000000000000 ) ) ;
#381 = APPROVAL_PERSON_ORGANIZATION ( #127, #197, #93 ) ;
#382 = APPROVAL ( #169, 'UNSPECIFIED' ) ;
#383 = NEXT_ASSEMBLY_USAGE_OCCURRENCE ( 'NAUO1', ' ', ' ', #112, #246, $ ) ;
ENDSEC;
END-ISO-10303-21;
