  0
SECTION
  2
HEADER
  9
$ACADVER
  1
AC1027
  9
$ACADMAINTVER
 70
   105
  9
$DWGCODEPAGE
  3
ANSI_1252
  9
$REQUIREDVERSIONS
160
                 0
  9
$INSBASE
 10
0.0
 20
0.0
 30
0.0
  9
$EXTMIN
 10
0.0
 20
0.0
 30
0.0
  9
$EXTMAX
 10
11.0
 20
8.5
 30
0.0
  9
$LIMMIN
 10
0.0
 20
0.0
  9
$LIMMAX
 10
11.0
 20
8.5
  9
$ORTHOMODE
 70
     0
  9
$REGENMODE
 70
     1
  9
$FILLMODE
 70
     1
  9
$QTEXTMODE
 70
     0
  9
$MIRRTEXT
 70
     1
  9
$LTSCALE
 40
1.0
  9
$ATTMODE
 70
     1
  9
$TEXTSIZE
 40
0.1377952756
  9
$TRACEWID
 40
0.05
  9
$TEXTSTYLE
  7
Standard
  9
$CLAYER
  8
0
  9
$CELTYPE
  6
ByLayer
  9
$CECOLOR
 62
   256
  9
$CELTSCALE
 40
1.0
  9
$DISPSILH
 70
     0
  9
$DIMSCALE
 40
1.0
  9
$DIMASZ
 40
0.13
  9
$DIMEXO
 40
0.0393700787
  9
$DIMDLI
 40
0.38
  9
$DIMRND
 40
0.0
  9
$DIMDLE
 40
0.0
  9
$DIMEXE
 40
0.0393700787
  9
$DIMTP
 40
0.0
  9
$DIMTM
 40
0.0
  9
$DIMTXT
 40
0.1377952756
  9
$DIMCEN
 40
0.09
  9
$DIMTSZ
 40
0.0
  9
$DIMTOL
 70
     0
  9
$DIMLIM
 70
     0
  9
$DIMTIH
 70
     1
  9
$DIMTOH
 70
     1
  9
$DIMSE1
 70
     0
  9
$DIMSE2
 70
     0
  9
$DIMTAD
 70
     1
  9
$DIMZIN
 70
     0
  9
$DIMBLK
  1

  9
$DIMASO
 70
     1
  9
$DIMSHO
 70
     1
  9
$DIMPOST
  1

  9
$DIMAPOST
  1

  9
$DIMALT
 70
     0
  9
$DIMALTD
 70
     2
  9
$DIMALTF
 40
25.4
  9
$DIMLFAC
 40
1.0
  9
$DIMTOFL
 70
     0
  9
$DIMTVP
 40
0.0
  9
$DIMTIX
 70
     0
  9
$DIMSOXD
 70
     0
  9
$DIMSAH
 70
     0
  9
$DIMBLK1
  1

  9
$DIMBLK2
  1

  9
$DIMSTYLE
  2
Standard
  9
$DIMCLRD
 70
     0
  9
$DIMCLRE
 70
     0
  9
$DIMCLRT
 70
     0
  9
$DIMTFAC
 40
1.0
  9
$DIMGAP
 40
0.06
  9
$DIMJUST
 70
     0
  9
$DIMSD1
 70
     0
  9
$DIMSD2
 70
     0
  9
$DIMTOLJ
 70
     1
  9
$DIMTZIN
 70
     0
  9
$DIMALTZ
 70
     0
  9
$DIMALTTZ
 70
     0
  9
$DIMUPT
 70
     0
  9
$DIMDEC
 70
     2
  9
$DIMTDEC
 70
     2
  9
$DIMALTU
 70
     2
  9
$DIMALTTD
 70
     2
  9
$DIMTXSTY
  7
Standard
  9
$DIMAUNIT
 70
     0
  9
$DIMADEC
 70
     2
  9
$DIMALTRND
 40
0.0
  9
$DIMAZIN
 70
     0
  9
$DIMDSEP
 70
    46
  9
$DIMATFIT
 70
     3
  9
$DIMFRAC
 70
     0
  9
$DIMLDRBLK
  1

  9
$DIMLUNIT
 70
     2
  9
$DIMLWD
 70
    -2
  9
$DIMLWE
 70
    -2
  9
$DIMTMOVE
 70
     0
  9
$DIMFXL
 40
1.0
  9
$DIMFXLON
 70
     0
  9
$DIMJOGANG
 40
0.7853981634
  9
$DIMTFILL
 70
     0
  9
$DIMTFILLCLR
 70
     0
  9
$DIMARCSYM
 70
     0
  9
$DIMLTYPE
  6

  9
$DIMLTEX1
  6

  9
$DIMLTEX2
  6

  9
$DIMTXTDIRECTION
 70
     0
  9
$LUNITS
 70
     2
  9
$LUPREC
 70
     2
  9
$SKETCHINC
 40
0.1
  9
$FILLETRAD
 40
0.5
  9
$AUNITS
 70
     0
  9
$AUPREC
 70
     2
  9
$MENU
  1
.
  9
$ELEVATION
 40
0.0
  9
$PELEVATION
 40
0.0
  9
$THICKNESS
 40
0.0
  9
$LIMCHECK
 70
     0
  9
$CHAMFERA
 40
0.0
  9
$CHAMFERB
 40
0.0
  9
$CHAMFERC
 40
0.0
  9
$CHAMFERD
 40
0.0
  9
$SKPOLY
 70
     0
  9
$TDCREATE
 40
2459983.082956123
  9
$TDUCREATE
 40
2459983.332956123
  9
$TDUPDATE
 40
2459983.082959746
  9
$TDUUPDATE
 40
2459983.332959746
  9
$TDINDWG
 40
0.0000000116
  9
$TDUSRTIMER
 40
0.0000000116
  9
$USRTIMER
 70
     1
  9
$ANGBASE
 50
0.0
  9
$ANGDIR
 70
     0
  9
$PDMODE
 70
     0
  9
$PDSIZE
 40
-1.0
  9
$PLINEWID
 40
0.0
  9
$SPLFRAME
 70
     0
  9
$SPLINETYPE
 70
     6
  9
$SPLINESEGS
 70
     8
  9
$HANDSEED
  5
3AE
  9
$SURFTAB1
 70
     6
  9
$SURFTAB2
 70
     6
  9
$SURFTYPE
 70
     6
  9
$SURFU
 70
     6
  9
$SURFV
 70
     6
  9
$UCSBASE
  2

  9
$UCSNAME
  2

  9
$UCSORG
 10
0.0
 20
0.0
 30
0.0
  9
$UCSXDIR
 10
1.0
 20
0.0
 30
0.0
  9
$UCSYDIR
 10
0.0
 20
1.0
 30
0.0
  9
$UCSORTHOREF
  2

  9
$UCSORTHOVIEW
 70
     0
  9
$UCSORGTOP
 10
0.0
 20
0.0
 30
0.0
  9
$UCSORGBOTTOM
 10
0.0
 20
0.0
 30
0.0
  9
$UCSORGLEFT
 10
0.0
 20
0.0
 30
0.0
  9
$UCSORGRIGHT
 10
0.0
 20
0.0
 30
0.0
  9
$UCSORGFRONT
 10
0.0
 20
0.0
 30
0.0
  9
$UCSORGBACK
 10
0.0
 20
0.0
 30
0.0
  9
$PUCSBASE
  2

  9
$PUCSNAME
  2

  9
$PUCSORG
 10
0.0
 20
0.0
 30
0.0
  9
$PUCSXDIR
 10
1.0
 20
0.0
 30
0.0
  9
$PUCSYDIR
 10
0.0
 20
1.0
 30
0.0
  9
$PUCSORTHOREF
  2

  9
$PUCSORTHOVIEW
 70
     0
  9
$PUCSORGTOP
 10
0.0
 20
0.0
 30
0.0
  9
$PUCSORGBOTTOM
 10
0.0
 20
0.0
 30
0.0
  9
$PUCSORGLEFT
 10
0.0
 20
0.0
 30
0.0
  9
$PUCSORGRIGHT
 10
0.0
 20
0.0
 30
0.0
  9
$PUCSORGFRONT
 10
0.0
 20
0.0
 30
0.0
  9
$PUCSORGBACK
 10
0.0
 20
0.0
 30
0.0
  9
$USERI1
 70
     0
  9
$USERI2
 70
     0
  9
$USERI3
 70
     0
  9
$USERI4
 70
     0
  9
$USERI5
 70
     0
  9
$USERR1
 40
0.0
  9
$USERR2
 40
0.0
  9
$USERR3
 40
0.0
  9
$USERR4
 40
0.0
  9
$USERR5
 40
0.0
  9
$WORLDVIEW
 70
     1
  9
$SHADEDGE
 70
     3
  9
$SHADEDIF
 70
    70
  9
$TILEMODE
 70
     1
  9
$MAXACTVP
 70
    64
  9
$PINSBASE
 10
0.0
 20
0.0
 30
0.0
  9
$PLIMCHECK
 70
     0
  9
$PEXTMIN
 10
0.0
 20
0.0
 30
0.0
  9
$PEXTMAX
 10
11.0
 20
8.5
 30
0.0
  9
$PLIMMIN
 10
0.0
 20
0.0
  9
$PLIMMAX
 10
11.0
 20
8.5
  9
$UNITMODE
 70
     0
  9
$VISRETAIN
 70
     1
  9
$PLINEGEN
 70
     0
  9
$PSLTSCALE
 70
     1
  9
$TREEDEPTH
 70
  3020
  9
$CMLSTYLE
  2
Standard
  9
$CMLJUST
 70
     0
  9
$CMLSCALE
 40
1.0
  9
$PROXYGRAPHICS
 70
     1
  9
$MEASUREMENT
 70
     0
  9
$CELWEIGHT
370
    -1
  9
$ENDCAPS
280
     0
  9
$JOINSTYLE
280
     0
  9
$LWDISPLAY
290
     1
  9
$INSUNITS
 70
     1
  9
$HYPERLINKBASE
  1

  9
$STYLESHEET
  1

  9
$XEDIT
290
     1
  9
$CEPSNTYPE
380
     0
  9
$PSTYLEMODE
290
     1
  9
$FINGERPRINTGUID
  2
{8f8d6a70-3621-4f43-a0ee-1afb4ed98063}
  9
$VERSIONGUID
  2
{FAEB1C32-E019-11D5-929B-00C0DF256EC4}
  9
$EXTNAMES
290
     1
  9
$PSVPSCALE
 40
0.0
  9
$OLESTARTUP
290
     0
  9
$SORTENTS
280
   127
  9
$INDEXCTL
280
     0
  9
$HIDETEXT
280
     1
  9
$XCLIPFRAME
280
     2
  9
$HALOGAP
280
     0
  9
$OBSCOLOR
 70
   257
  9
$OBSLTYPE
280
     0
  9
$INTERSECTIONDISPLAY
280
     0
  9
$INTERSECTIONCOLOR
 70
   257
  9
$DIMASSOC
280
     2
  9
$PROJECTNAME
  1

  9
$CAMERADISPLAY
290
     0
  9
$LENSLENGTH
 40
50.0
  9
$CAMERAHEIGHT
 40
0.0
  9
$STEPSPERSEC
 40
2.0
  9
$STEPSIZE
 40
6.0
  9
$3DDWFPREC
 40
2.0
  9
$PSOLWIDTH
 40
0.25
  9
$PSOLHEIGHT
 40
4.0
  9
$LOFTANG1
 40
1.5707963268
  9
$LOFTANG2
 40
1.5707963268
  9
$LOFTMAG1
 40
0.0
  9
$LOFTMAG2
 40
0.0
  9
$LOFTPARAM
 70
     7
  9
$LOFTNORMALS
280
     1
  9
$LATITUDE
 40
37.795
  9
$LONGITUDE
 40
-122.394
  9
$NORTHDIRECTION
 40
0.0
  9
$TIMEZONE
 70
 -8000
  9
$LIGHTGLYPHDISPLAY
280
     1
  9
$TILEMODELIGHTSYNCH
280
     1
  9
$CMATERIAL
347
44
  9
$SOLIDHIST
280
     0
  9
$SHOWHIST
280
     1
  9
$DWFFRAME
280
     2
  9
$DGNFRAME
280
     2
  9
$REALWORLDSCALE
290
     1
  9
$INTERFERECOLOR
 62
   256
  9
$CSHADOW
280
     0
  9
$SHADOWPLANELOCATION
 40
0.0
  0
ENDSEC
  0
SECTION
  2
CLASSES
  0
CLASS
  1
ACDBDICTIONARYWDFLT
  2
AcDbDictionaryWithDefault
  3
ObjectDBX Classes
 90
        0
 91
        3
280
     0
281
     0
  0
CLASS
  1
VISUALSTYLE
  2
AcDbVisualStyle
  3
ObjectDBX Classes
 90
     4095
 91
        3
280
     0
281
     0
  0
CLASS
  1
MATERIAL
  2
AcDbMaterial
  3
ObjectDBX Classes
 90
     1153
 91
        3
280
     0
281
     0
  0
CLASS
  1
SCALE
  2
AcDbScale
  3
ObjectDBX Classes
 90
     1153
 91
        3
280
     0
281
     0
  0
CLASS
  1
TABLESTYLE
  2
AcDbTableStyle
  3
ObjectDBX Classes
 90
     4095
 91
        3
280
     0
281
     0
  0
CLASS
  1
MLEADERSTYLE
  2
AcDbMLeaderStyle
  3
ACDB_MLEADERSTYLE_CLASS
 90
     4095
 91
        3
280
     0
281
     0
  0
CLASS
  1
SUN
  2
AcDbSun
  3
SCENEOE
 90
     1153
 91
        3
280
     0
281
     0
  0
CLASS
  1
DICTIONARYVAR
  2
AcDbDictionaryVar
  3
ObjectDBX Classes
 90
        0
 91
        3
280
     0
281
     0
  0
CLASS
  1
CELLSTYLEMAP
  2
AcDbCellStyleMap
  3
ObjectDBX Classes
 90
     1152
 91
        3
280
     0
281
     0
  0
ENDSEC
  0
SECTION
  2
TABLES
  0
TABLE
  2
VPORT
  5
8
330
0
100
AcDbSymbolTable
 70
     1
  0
VPORT
  5
29
330
8
100
AcDbSymbolTableRecord
100
AcDbViewportTableRecord
  2
*Active
 70
     0
 10
0.0
 20
0.0
 11
1.0
 21
1.0
 12
5.5
 22
4.25
 13
0.0
 23
0.0
 14
0.5
 24
0.5
 15
0.5
 25
0.5
 16
0.0
 26
0.0
 36
1.0
 17
0.0
 27
0.0
 37
0.0
 40
8.5
 41
1.2941176471
 42
50.0
 43
0.0
 44
0.0
 50
0.0
 51
0.0
 71
     0
 72
  2000
 73
     1
 74
     3
 75
     0
 76
     0
 77
     0
 78
     0
281
     0
 65
     1
110
0.0
120
0.0
130
0.0
111
1.0
121
0.0
131
0.0
112
0.0
122
1.0
132
0.0
 79
     0
146
0.0
348
2F
 60
     3
 61
     5
292
     1
282
     1
141
0.0
142
0.0
 63
   250
361
6D
  0
ENDTAB
  0
TABLE
  2
LTYPE
  5
5
330
0
100
AcDbSymbolTable
 70
     6
  0
LTYPE
  5
14
330
5
100
AcDbSymbolTableRecord
100
AcDbLinetypeTableRecord
  2
ByBlock
 70
     0
  3

 72
    65
 73
     0
 40
0.0
  0
LTYPE
  5
15
330
5
100
AcDbSymbolTableRecord
100
AcDbLinetypeTableRecord
  2
ByLayer
 70
     0
  3

 72
    65
 73
     0
 40
0.0
  0
LTYPE
  5
16
330
5
100
AcDbSymbolTableRecord
100
AcDbLinetypeTableRecord
  2
Continuous
 70
     0
  3
Solid line
 72
    65
 73
     0
 40
0.0
  0
LTYPE
  5
6E
330
5
100
AcDbSymbolTableRecord
100
AcDbLinetypeTableRecord
  2
HIDDEN
 70
     0
  3
Hidden __ __ __ __ __ __ __ __ __ __ __ __ __ __
 72
    65
 73
     2
 40
0.075
 49
0.05
 74
     0
 49
-0.025
 74
     0
  0
LTYPE
  5
6F
330
5
100
AcDbSymbolTableRecord
100
AcDbLinetypeTableRecord
  2
PHANTOM
 70
     0
  3
Phantom ______  __  __  ______  __  __  ______
 72
    65
 73
     6
 40
0.5
 49
0.25
 74
     0
 49
-0.05
 74
     0
 49
0.05
 74
     0
 49
-0.05
 74
     0
 49
0.05
 74
     0
 49
-0.05
 74
     0
  0
LTYPE
  5
70
330
5
100
AcDbSymbolTableRecord
100
AcDbLinetypeTableRecord
  2
CENTER
 70
     0
  3
Center ____ _ ____ _ ____ _ ____ _ ____ _ ____
 72
    65
 73
     4
 40
0.4
 49
0.25
 74
     0
 49
-0.05
 74
     0
 49
0.05
 74
     0
 49
-0.05
 74
     0
  0
LTYPE
  5
71
330
5
100
AcDbSymbolTableRecord
100
AcDbLinetypeTableRecord
  2
CENTERX2
 70
     0
  3
Center (2x) ________  __  ________  __  _____
 72
    65
 73
     4
 40
0.8
 49
0.5
 74
     0
 49
-0.1
 74
     0
 49
0.1
 74
     0
 49
-0.1
 74
     0
  0
LTYPE
  5
72
330
5
100
AcDbSymbolTableRecord
100
AcDbLinetypeTableRecord
  2
DOT2
 70
     0
  3
Dot (.5x) ........................................
 72
    65
 73
     2
 40
0.025
 49
0.0
 74
     0
 49
-0.025
 74
     0
  0
ENDTAB
  0
TABLE
  2
LAYER
  5
2
330
0
100
AcDbSymbolTable
 70
     2
  0
LAYER
  5
10
330
2
100
AcDbSymbolTableRecord
100
AcDbLayerTableRecord
  2
0
 70
     0
 62
     7
  6
Continuous
370
    -3
390
F
347
46
348
0
  0
LAYER
  5
73
330
2
100
AcDbSymbolTableRecord
100
AcDbLayerTableRecord
  2
FORMAT
 70
     0
 62
     7
  6
Continuous
370
    -3
390
F
347
46
348
0
  0
ENDTAB
  0
TABLE
  2
STYLE
  5
3
330
0
100
AcDbSymbolTable
 70
     1
  0
STYLE
  5
11
330
3
100
AcDbSymbolTableRecord
100
AcDbTextStyleTableRecord
  2
Standard
 70
     0
 40
0.0
 41
1.0
 50
0.0
 71
     0
 42
0.1377952756
  3
txt
  4

  0
ENDTAB
  0
TABLE
  2
VIEW
  5
6
330
0
100
AcDbSymbolTable
 70
     0
  0
ENDTAB
  0
TABLE
  2
UCS
  5
7
330
0
100
AcDbSymbolTable
 70
     0
  0
ENDTAB
  0
TABLE
  2
APPID
  5
9
330
0
100
AcDbSymbolTable
 70
     1
  0
APPID
  5
12
330
9
100
AcDbSymbolTableRecord
100
AcDbRegAppTableRecord
  2
ACAD
 70
     0
  0
ENDTAB
  0
TABLE
  2
DIMSTYLE
  5
A
330
0
100
AcDbSymbolTable
 70
     1
100
AcDbDimStyleTable
  0
DIMSTYLE
105
27
330
A
100
AcDbSymbolTableRecord
100
AcDbDimStyleTableRecord
  2
Standard
 70
     0
178
     0
340
11
  0
ENDTAB
  0
TABLE
  2
BLOCK_RECORD
  5
1
330
0
100
AcDbSymbolTable
 70
     3
  0
BLOCK_RECORD
  5
1F
330
1
100
AcDbSymbolTableRecord
100
AcDbBlockTableRecord
  2
*Model_Space
340
22
 70
     0
280
     1
281
     0
  0
BLOCK_RECORD
  5
1B
330
1
100
AcDbSymbolTableRecord
100
AcDbBlockTableRecord
  2
*Paper_Space
340
1E
 70
     0
280
     1
281
     0
  0
BLOCK_RECORD
  5
23
330
1
100
AcDbSymbolTableRecord
100
AcDbBlockTableRecord
  2
*Paper_Space0
340
26
 70
     0
280
     1
281
     0
  0
BLOCK_RECORD
  5
364
330
1
100
AcDbSymbolTableRecord
100
AcDbBlockTableRecord
  2
*Paper_Space1
340
365
 70
     0
280
     1
281
     0
  0
BLOCK_RECORD
  5
38B
330
1
100
AcDbSymbolTableRecord
100
AcDbBlockTableRecord
  2
*Paper_Space2
340
38C
 70
     0
280
     1
281
     0
  0
ENDTAB
  0
ENDSEC
  0
SECTION
  2
BLOCKS
  0
BLOCK
  5
20
330
1F
100
AcDbEntity
  8
0
100
AcDbBlockBegin
  2
*Model_Space
 70
     0
 10
0.0
 20
0.0
 30
0.0
  3
*Model_Space
  1

  0
ENDBLK
  5
21
330
1F
100
AcDbEntity
  8
0
100
AcDbBlockEnd
  0
BLOCK
  5
1C
330
1B
100
AcDbEntity
 67
     1
  8
0
100
AcDbBlockBegin
  2
*Paper_Space
 70
     0
 10
0.0
 20
0.0
 30
0.0
  3
*Paper_Space
  1

  0
ENDBLK
  5
1D
330
1B
100
AcDbEntity
 67
     1
  8
0
100
AcDbBlockEnd
  0
BLOCK
  5
24
330
23
100
AcDbEntity
  8
0
100
AcDbBlockBegin
  2
*Paper_Space0
 70
     0
 10
0.0
 20
0.0
 30
0.0
  3
*Paper_Space0
  1

  0
CIRCLE
  5
D1
330
23
100
AcDbEntity
  8
0
  6
Continuous
 62
     7
370
    25
100
AcDbCircle
 10
2.827480315
 20
0.6188188976
 30
0.0
 40
0.4488188976377949
  0
CIRCLE
  5
D2
330
23
100
AcDbEntity
  8
0
  6
Continuous
 62
     7
370
    25
100
AcDbCircle
 10
0.6621259843
 20
0.6188188976
 30
0.0
 40
0.4488188976377961
  0
CIRCLE
  5
D3
330
23
100
AcDbEntity
  8
0
  6
Continuous
 62
     7
370
    25
100
AcDbCircle
 10
1.7407385348
 20
0.6507500383
 30
0.0
 40
0.4488188976377951
  0
CIRCLE
  5
D4
330
23
100
AcDbEntity
  8
0
  6
Continuous
 62
     7
370
    25
100
AcDbCircle
 10
2.827480315
 20
0.6188188976
 30
0.0
 40
0.3925478037114736
  0
CIRCLE
  5
D5
330
23
100
AcDbEntity
  8
0
  6
Continuous
 62
     7
370
    25
100
AcDbCircle
 10
2.827480315
 20
0.6188188976
 30
0.0
 40
0.3232775590551177
  0
CIRCLE
  5
D6
330
23
100
AcDbEntity
  8
0
  6
Continuous
 62
     7
370
    25
100
AcDbCircle
 10
2.827480315
 20
0.6188188976
 30
0.0
 40
0.223966535433071
  0
CIRCLE
  5
D7
330
23
100
AcDbEntity
  8
0
  6
Continuous
 62
     7
370
    25
100
AcDbCircle
 10
2.827480315
 20
0.6188188976
 30
0.0
 40
0.2357775590551184
  0
LWPOLYLINE
  5
D8
330
23
100
AcDbEntity
  8
0
  6
Continuous
 62
     7
370
    25
100
AcDbPolyline
 90
       11
 70
   128
 43
0.0
 10
2.8025375419
 20
0.3334984163
 10
2.8044575089
 20
0.3335566097
 10
2.8063104696
 20
0.3340740307
 10
2.8080137907
 20
0.3349653567
 10
2.8095015301
 20
0.3361806082
 10
2.8107295964
 20
0.3376594945
 10
2.8117182172
 20
0.3393085493
 10
2.8127891978
 20
0.3419848812
 10
2.81347196
 20
0.344788356
 10
2.8139314291
 20
0.3476371969
 10
2.8142442429
 20
0.3505061004
  0
LWPOLYLINE
  5
D9
330
23
100
AcDbEntity
  8
0
  6
Continuous
 62
     7
370
    25
100
AcDbPolyline
 90
       11
 70
   128
 43
0.0
 10
2.793788459
 20
0.3523093191
 10
2.7936163617
 20
0.349431295
 10
2.7936363275
 20
0.3465483114
 10
2.7939185254
 20
0.3436797184
 10
2.7945741829
 20
0.3408739556
 10
2.7952521874
 20
0.3390760045
 10
2.7961886623
 20
0.3373990609
 10
2.7974239309
 20
0.3359298747
 10
2.7989344091
 20
0.3347434084
 10
2.8006605111
 20
0.3338985082
 10
2.8025375419
 20
0.3334984163
  0
LWPOLYLINE
  5
DA
330
23
100
AcDbEntity
  8
0
  6
Continuous
 62
     7
370
    25
100
AcDbPolyline
 90
       12
 70
   128
 43
0.0
 10
2.8142442429
 20
0.3505061004
 10
2.8144380021
 20
0.3533851421
 10
2.8144813813
 20
0.3562700552
 10
2.8142995059
 20
0.359148982
 10
2.8137131953
 20
0.3619706909
 10
2.8130331417
 20
0.3637685809
 10
2.8120752623
 20
0.3654344727
 10
2.8108162493
 20
0.3668852909
 10
2.8096952054
 20
0.3677939994
 10
2.8084552715
 20
0.3685311427
 10
2.8071071993
 20
0.3690459235
 10
2.8056869381
 20
0.3692981937
  0
ARC
  5
DB
330
23
100
AcDbEntity
  8
0
  6
Continuous
 62
     7
370
    25
100
AcDbCircle
 10
2.8269190745
 20
0.3500309367
 30
0.0
 40
0.0332088648725393
100
AcDbArc
 50
157.3722352592
 51
176.065980466
  0
ARC
  5
DC
330
23
100
AcDbEntity
  8
0
  6
Continuous
 62
     7
370
    25
100
AcDbCircle
 10
2.8054856434
 20
0.3595085459
 30
0.0
 40
0.0097917171255269
100
AcDbArc
 50
88.8220507924
 51
160.3092220671
  0
ARC
  5
DD
330
23
100
AcDbEntity
  8
0
  6
Continuous
 62
     7
370
    25
100
AcDbCircle
 10
2.915221067
 20
0.3654978335
 30
0.0
 40
0.0216141347293115
100
AcDbArc
 50
236.4332352329
 51
291.8711066626
  0
ARC
  5
DE
330
23
100
AcDbEntity
  8
0
  6
Continuous
 62
     7
370
    25
100
AcDbCircle
 10
2.9167543874
 20
0.3659251373
 30
0.0
 40
0.0214977888150719
100
AcDbArc
 50
287.6505871644
 51
19.9015965918
  0
ARC
  5
DF
330
23
100
AcDbEntity
  8
0
  6
Continuous
 62
     7
370
    25
100
AcDbCircle
 10
2.916086978
 20
0.3661525515
 30
0.0
 40
0.0220523369754021
100
AcDbArc
 50
18.7556670353
 51
60.3349176736
  0
ARC
  5
E0
330
23
100
AcDbEntity
  8
0
  6
Continuous
 62
     7
370
    25
100
AcDbCircle
 10
2.9154949866
 20
0.3649034946
 30
0.0
 40
0.0225176103594673
100
AcDbArc
 50
108.2600359796
 51
160.5443989872
  0
LINE
  5
E1
330
23
100
AcDbEntity
  8
0
  6
Continuous
 62
     7
370
    25
100
AcDbLine
 10
2.8981728608
 20
0.3711835035
 30
0.0
 11
2.8942631346
 21
0.3724035769
 31
0.0
  0
ARC
  5
E2
330
23
100
AcDbEntity
  8
0
  6
Continuous
 62
     7
370
    25
100
AcDbCircle
 10
2.915769236
 20
0.3649217071
 30
0.0
 40
0.0186773262045652
100
AcDbArc
 50
109.5043102777
 51
160.4115333373
  0
ARC
  5
E3
330
23
100
AcDbEntity
  8
0
  6
Continuous
 62
     7
370
    25
100
AcDbCircle
 10
2.9161955383
 20
0.3663136896
 30
0.0
 40
0.0175289877667044
100
AcDbArc
 50
19.2901712468
 51
112.3380328848
  0
ARC
  5
E4
330
23
100
AcDbEntity
  8
0
  6
Continuous
 62
     7
370
    25
100
AcDbCircle
 10
2.9162629931
 20
0.3659417161
 30
0.0
 40
0.0175921650686323
100
AcDbArc
 50
288.4448983
 51
20.5063008474
  0
ARC
  5
E5
330
23
100
AcDbEntity
  8
0
  6
Continuous
 62
     7
370
    25
100
AcDbCircle
 10
2.9153345436
 20
0.3662234496
 30
0.0
 40
0.0181704318451945
100
AcDbArc
 50
237.1842036752
 51
290.9418434025
  0
LINE
  5
E6
330
23
100
AcDbEntity
  8
0
  6
Continuous
 62
     7
370
    25
100
AcDbLine
 10
2.9032704324
 20
0.3474880264
 30
0.0
 11
2.905487261
 21
0.3509527057
 31
0.0
  0
ARC
  5
E7
330
23
100
AcDbEntity
  8
0
  6
Continuous
 62
     7
370
    25
100
AcDbCircle
 10
2.8389470944
 20
0.341496848
 30
0.0
 40
0.0087216166488102
100
AcDbArc
 50
275.9943229093
 51
348.616072394
  0
ARC
  5
E8
330
23
100
AcDbEntity
  8
0
  6
Continuous
 62
     7
370
    25
100
AcDbCircle
 10
2.8390981445
 20
0.3399502293
 30
0.0
 40
0.0071676891823975
100
AcDbArc
 50
186.2470284772
 51
276.0845634404
  0
LWPOLYLINE
  5
E9
330
23
100
AcDbEntity
  8
0
  6
Continuous
 62
     7
370
    25
100
AcDbPolyline
 90
        9
 70
   128
 43
0.0
 10
2.8413191991
 20
0.3464962036
 10
2.8391323668
 20
0.3462483386
 10
2.8370185444
 20
0.3456364573
 10
2.8350496626
 20
0.3446551566
 10
2.8337437031
 20
0.3436480439
 10
2.8327393983
 20
0.3423415087
 10
2.8322860406
 20
0.3413380842
 10
2.8320223303
 20
0.3402697208
 10
2.8319730172
 20
0.3391702749
  0
LINE
  5
EA
330
23
100
AcDbEntity
  8
0
  6
Continuous
 62
     7
370
    25
100
AcDbLine
 10
2.841160772
 20
0.3502959249
 30
0.0
 11
2.8413191991
 21
0.3464962036
 31
0.0
  0
ARC
  5
EB
330
23
100
AcDbEntity
  8
0
  6
Continuous
 62
     7
370
    25
100
AcDbCircle
 10
2.8390959275
 20
0.3607114791
 30
0.0
 40
0.0106182556049482
100
AcDbArc
 50
190.1078539777
 51
281.2132821297
  0
ARC
  5
EC
330
23
100
AcDbEntity
  8
0
  6
Continuous
 62
     7
370
    25
100
AcDbCircle
 10
2.837944774
 20
0.3590009021
 30
0.0
 40
0.0093035548413075
100
AcDbArc
 50
88.1456695929
 51
180.9419494784
  0
ARC
  5
ED
330
23
100
AcDbEntity
  8
0
  6
Continuous
 62
     7
370
    25
100
AcDbCircle
 10
2.8389671442
 20
0.3587364743
 30
0.0
 40
0.0095902757022543
100
AcDbArc
 50
51.96309259
 51
94.3135057557
  0
ARC
  5
EE
330
23
100
AcDbEntity
  8
0
  6
Continuous
 62
     7
370
    25
100
AcDbCircle
 10
2.8366641865
 20
0.3576966384
 30
0.0
 40
0.0118863089221413
100
AcDbArc
 50
14.0664673616
 51
46.2990266124
  0
LINE
  5
EF
330
23
100
AcDbEntity
  8
0
  6
Continuous
 62
     7
370
    25
100
AcDbLine
 10
2.8522526225
 20
0.3607494941
 30
0.0
 11
2.8481940777
 21
0.3605855743
 31
0.0
  0
ARC
  5
F0
330
23
100
AcDbEntity
  8
0
  6
Continuous
 62
     7
370
    25
100
AcDbCircle
 10
2.8388777728
 20
0.3588528374
 30
0.0
 40
0.0135086606302485
100
AcDbArc
 50
8.0711678041
 51
93.1656024039
  0
ARC
  5
F1
330
23
100
AcDbEntity
  8
0
  6
Continuous
 62
     7
370
    25
100
AcDbCircle
 10
2.838193467
 20
0.3587139672
 30
0.0
 40
0.0136270574887701
100
AcDbArc
 50
90.25929848
 51
181.5995261217
  0
ARC
  5
F2
330
23
100
AcDbEntity
  8
0
  6
Continuous
 62
     7
370
    25
100
AcDbCircle
 10
2.8389573752
 20
0.3400928456
 30
0.0
 40
0.0113534668911771
100
AcDbArc
 50
185.476960481
 51
275.3810284518
  0
ARC
  5
F3
330
23
100
AcDbEntity
  8
0
  6
Continuous
 62
     7
370
    25
100
AcDbCircle
 10
2.8393966238
 20
0.3411676875
 30
0.0
 40
0.0123940668734348
100
AcDbArc
 50
272.8926494136
 51
354.3804696284
  0
LINE
  5
F4
330
23
100
AcDbEntity
  8
0
  6
Continuous
 62
     7
370
    25
100
AcDbLine
 10
2.7163497735
 20
0.3866936119
 30
0.0
 11
2.7142352106
 21
0.3902311019
 31
0.0
  0
ARC
  5
F5
330
23
100
AcDbEntity
  8
0
  6
Continuous
 62
     7
370
    25
100
AcDbCircle
 10
2.7253389554
 20
0.3702560458
 30
0.0
 40
0.0187349665222403
100
AcDbArc
 50
67.6560843499
 51
118.6728458021
  0
ARC
  5
F6
330
23
100
AcDbEntity
  8
0
  6
Continuous
 62
     7
370
    25
100
AcDbCircle
 10
2.7265764708
 20
0.3709617959
 30
0.0
 40
0.0176335321956486
100
AcDbArc
 50
337.5312316118
 51
70.5045745374
  0
ARC
  5
F7
330
23
100
AcDbEntity
  8
0
  6
Continuous
 62
     7
370
    25
100
AcDbCircle
 10
2.7263751552
 20
0.3706992872
 30
0.0
 40
0.017722120611178
100
AcDbArc
 50
246.7615739127
 51
338.5642982315
  0
ARC
  5
F8
330
23
100
AcDbEntity
  8
0
  6
Continuous
 62
     7
370
    25
100
AcDbCircle
 10
2.725884362
 20
0.3714978079
 30
0.0
 40
0.0182782708491644
100
AcDbArc
 50
195.4366170315
 51
249.1635316681
  0
LINE
  5
F9
330
23
100
AcDbEntity
  8
0
  6
Continuous
 62
     7
370
    25
100
AcDbLine
 10
2.8833056044
 20
0.3772160262
 30
0.0
 11
2.8906857781
 21
0.3364587489
 31
0.0
  0
LINE
  5
FA
330
23
100
AcDbEntity
  8
0
  6
Continuous
 62
     7
370
    25
100
AcDbLine
 10
2.8792323622
 20
0.376476312
 30
0.0
 11
2.8833056044
 21
0.3772160262
 31
0.0
  0
LINE
  5
FB
330
23
100
AcDbEntity
  8
0
  6
Continuous
 62
     7
370
    25
100
AcDbLine
 10
2.882662719
 20
0.3575237346
 30
0.0
 11
2.8792323622
 21
0.376476312
 31
0.0
  0
LINE
  5
FC
330
23
100
AcDbEntity
  8
0
  6
Continuous
 62
     7
370
    25
100
AcDbLine
 10
2.8622704099
 20
0.3734079723
 30
0.0
 11
2.8803291641
 21
0.3570987219
 31
0.0
  0
LINE
  5
FD
330
23
100
AcDbEntity
  8
0
  6
Continuous
 62
     7
370
    25
100
AcDbLine
 10
2.8572269857
 20
0.3724953196
 30
0.0
 11
2.8622704099
 21
0.3734079723
 31
0.0
  0
LINE
  5
FE
330
23
100
AcDbEntity
  8
0
  6
Continuous
 62
     7
370
    25
100
AcDbLine
 10
2.8753192166
 20
0.3561940472
 30
0.0
 11
2.8572269857
 21
0.3724953196
 31
0.0
  0
ARC
  5
FF
330
23
100
AcDbEntity
  8
0
  6
Continuous
 62
     7
370
    25
100
AcDbCircle
 10
2.8752475983
 20
0.3440960657
 30
0.0
 40
0.0120981934254901
100
AcDbArc
 50
89.6608208637
 51
186.7631283266
  0
ARC
  5
100
330
23
100
AcDbEntity
  8
0
  6
Continuous
 62
     7
370
    25
100
AcDbCircle
 10
2.8734828734
 20
0.3442469761
 30
0.0
 40
0.0103696909975935
100
AcDbArc
 50
188.7398303594
 51
268.7782887616
  0
ARC
  5
101
330
23
100
AcDbEntity
  8
0
  6
Continuous
 62
     7
370
    25
100
AcDbCircle
 10
2.8723765063
 20
0.3809287241
 30
0.0
 40
0.0470574096617382
100
AcDbArc
 50
271.0779460925
 51
282.5035296933
  0
LINE
  5
102
330
23
100
AcDbEntity
  8
0
  6
Continuous
 62
     7
370
    25
100
AcDbLine
 10
2.8906857781
 20
0.3364587489
 30
0.0
 11
2.8825644241
 21
0.3349873905
 31
0.0
  0
LINE
  5
103
330
23
100
AcDbEntity
  8
0
  6
Continuous
 62
     7
370
    25
100
AcDbLine
 10
2.7687123193
 20
0.876956726
 30
0.0
 11
2.7695482898
 21
0.8740426823
 31
0.0
  0
LINE
  5
104
330
23
100
AcDbEntity
  8
0
  6
Continuous
 62
     7
370
    25
100
AcDbLine
 10
2.7624823267
 20
0.8751723567
 30
0.0
 11
2.7687123193
 21
0.876956726
 31
0.0
  0
LINE
  5
105
330
23
100
AcDbEntity
  8
0
  6
Continuous
 62
     7
370
    25
100
AcDbLine
 10
2.7612083912
 20
0.8845436127
 30
0.0
 11
2.7624823267
 21
0.8751723567
 31
0.0
  0
LINE
  5
106
330
23
100
AcDbEntity
  8
0
  6
Continuous
 62
     7
370
    25
100
AcDbLine
 10
2.7676728133
 20
0.8863921742
 30
0.0
 11
2.7612083912
 21
0.8845436127
 31
0.0
  0
LINE
  5
107
330
23
100
AcDbEntity
  8
0
  6
Continuous
 62
     7
370
    25
100
AcDbLine
 10
2.766837119
 20
0.8893312564
 30
0.0
 11
2.7676728133
 21
0.8863921742
 31
0.0
  0
LINE
  5
108
330
23
100
AcDbEntity
  8
0
  6
Continuous
 62
     7
370
    25
100
AcDbLine
 10
2.7607997328
 20
0.8876031932
 30
0.0
 11
2.766837119
 21
0.8893312564
 31
0.0
  0
LINE
  5
109
330
23
100
AcDbEntity
  8
0
  6
Continuous
 62
     7
370
    25
100
AcDbLine
 10
2.7590499393
 20
0.9007526297
 30
0.0
 11
2.7607997328
 21
0.8876031932
 31
0.0
  0
LINE
  5
10A
330
23
100
AcDbEntity
  8
0
  6
Continuous
 62
     7
370
    25
100
AcDbLine
 10
2.7560353733
 20
0.8998843791
 30
0.0
 11
2.7590499393
 21
0.9007526297
 31
0.0
  0
LINE
  5
10B
330
23
100
AcDbEntity
  8
0
  6
Continuous
 62
     7
370
    25
100
AcDbLine
 10
2.7578103894
 20
0.8867513588
 30
0.0
 11
2.7560353733
 21
0.8998843791
 31
0.0
  0
LINE
  5
10C
330
23
100
AcDbEntity
  8
0
  6
Continuous
 62
     7
370
    25
100
AcDbLine
 10
2.7470840355
 20
0.8973286916
 30
0.0
 11
2.7488589596
 21
0.8841873252
 31
0.0
  0
LINE
  5
10D
330
23
100
AcDbEntity
  8
0
  6
Continuous
 62
     7
370
    25
100
AcDbLine
 10
2.7442034686
 20
0.8965006991
 30
0.0
 11
2.7470840355
 21
0.8973286916
 31
0.0
  0
LINE
  5
10E
330
23
100
AcDbEntity
  8
0
  6
Continuous
 62
     7
370
    25
100
AcDbLine
 10
2.7459198774
 20
0.8833516308
 30
0.0
 11
2.7442034686
 21
0.8965006991
 31
0.0
  0
LINE
  5
10F
330
23
100
AcDbEntity
  8
0
  6
Continuous
 62
     7
370
    25
100
AcDbLine
 10
2.7386766832
 20
0.8812779366
 30
0.0
 11
2.7459198774
 21
0.8833516308
 31
0.0
  0
LINE
  5
110
330
23
100
AcDbEntity
  8
0
  6
Continuous
 62
     7
370
    25
100
AcDbLine
 10
2.7395123776
 20
0.8783388544
 30
0.0
 11
2.7386766832
 21
0.8812779366
 31
0.0
  0
LINE
  5
111
330
23
100
AcDbEntity
  8
0
  6
Continuous
 62
     7
370
    25
100
AcDbLine
 10
2.7463285358
 20
0.8802920503
 30
0.0
 11
2.7395123776
 21
0.8783388544
 31
0.0
  0
LINE
  5
112
330
23
100
AcDbEntity
  8
0
  6
Continuous
 62
     7
370
    25
100
AcDbLine
 10
2.7475270795
 20
0.8708965841
 30
0.0
 11
2.7463285358
 21
0.8802920503
 31
0.0
  0
LINE
  5
113
330
23
100
AcDbEntity
  8
0
  6
Continuous
 62
     7
370
    25
100
AcDbLine
 10
2.7404345768
 20
0.868862964
 30
0.0
 11
2.7475270795
 21
0.8708965841
 31
0.0
  0
LINE
  5
114
330
23
100
AcDbEntity
  8
0
  6
Continuous
 62
     7
370
    25
100
AcDbLine
 10
2.7412705473
 20
0.8659489204
 30
0.0
 11
2.7404345768
 21
0.868862964
 31
0.0
  0
LINE
  5
115
330
23
100
AcDbEntity
  8
0
  6
Continuous
 62
     7
370
    25
100
AcDbLine
 10
2.7479024453
 20
0.867845718
 30
0.0
 11
2.7412705473
 21
0.8659489204
 31
0.0
  0
LINE
  5
116
330
23
100
AcDbEntity
  8
0
  6
Continuous
 62
     7
370
    25
100
AcDbLine
 10
2.7496606469
 20
0.8539449411
 30
0.0
 11
2.7479024453
 21
0.867845718
 31
0.0
  0
LINE
  5
117
330
23
100
AcDbEntity
  8
0
  6
Continuous
 62
     7
370
    25
100
AcDbLine
 10
2.7526332979
 20
0.8547969597
 30
0.0
 11
2.7496606469
 21
0.8539449411
 31
0.0
  0
LINE
  5
118
330
23
100
AcDbEntity
  8
0
  6
Continuous
 62
     7
370
    25
100
AcDbLine
 10
2.7508667501
 20
0.8686978285
 30
0.0
 11
2.7526332979
 21
0.8547969597
 31
0.0
  0
LINE
  5
119
330
23
100
AcDbEntity
  8
0
  6
Continuous
 62
     7
370
    25
100
AcDbLine
 10
2.7598432185
 20
0.871261586
 30
0.0
 11
2.7508667501
 21
0.8686978285
 31
0.0
  0
LINE
  5
11A
330
23
100
AcDbEntity
  8
0
  6
Continuous
 62
     7
370
    25
100
AcDbLine
 10
2.7617102886
 20
0.8573929973
 30
0.0
 11
2.7598432185
 21
0.871261586
 31
0.0
  0
LINE
  5
11B
330
23
100
AcDbEntity
  8
0
  6
Continuous
 62
     7
370
    25
100
AcDbLine
 10
2.7647332008
 20
0.8582611559
 30
0.0
 11
2.7617102886
 21
0.8573929973
 31
0.0
  0
LINE
  5
11C
330
23
100
AcDbEntity
  8
0
  6
Continuous
 62
     7
370
    25
100
AcDbLine
 10
2.7628577845
 20
0.8721298367
 30
0.0
 11
2.7647332008
 21
0.8582611559
 31
0.0
  0
LINE
  5
11D
330
23
100
AcDbEntity
  8
0
  6
Continuous
 62
     7
370
    25
100
AcDbLine
 10
2.7695482898
 20
0.8740426823
 30
0.0
 11
2.7628577845
 21
0.8721298367
 31
0.0
  0
LINE
  5
11E
330
23
100
AcDbEntity
  8
0
  6
Continuous
 62
     7
370
    25
100
AcDbLine
 10
2.8204520009
 20
0.8835383852
 30
0.0
 11
2.8206938278
 21
0.8804889918
 31
0.0
  0
LINE
  5
11F
330
23
100
AcDbEntity
  8
0
  6
Continuous
 62
     7
370
    25
100
AcDbLine
 10
2.813943791
 20
0.8830175108
 30
0.0
 11
2.8204520009
 21
0.8835383852
 31
0.0
  0
LINE
  5
120
330
23
100
AcDbEntity
  8
0
  6
Continuous
 62
     7
370
    25
100
AcDbLine
 10
2.8145495871
 20
0.8925349799
 30
0.0
 11
2.813943791
 21
0.8830175108
 31
0.0
  0
LINE
  5
121
330
23
100
AcDbEntity
  8
0
  6
Continuous
 62
     7
370
    25
100
AcDbLine
 10
2.8213168047
 20
0.8930780394
 30
0.0
 11
2.8145495871
 21
0.8925349799
 31
0.0
  0
LINE
  5
122
330
23
100
AcDbEntity
  8
0
  6
Continuous
 62
     7
370
    25
100
AcDbLine
 10
2.8210669078
 20
0.8961525634
 30
0.0
 11
2.8213168047
 21
0.8930780394
 31
0.0
  0
LINE
  5
123
330
23
100
AcDbEntity
  8
0
  6
Continuous
 62
     7
370
    25
100
AcDbLine
 10
2.8147508441
 20
0.8956462643
 30
0.0
 11
2.8210669078
 21
0.8961525634
 31
0.0
  0
LINE
  5
124
330
23
100
AcDbEntity
  8
0
  6
Continuous
 62
     7
370
    25
100
AcDbLine
 10
2.815641021
 20
0.909000307
 30
0.0
 11
2.8147508441
 21
0.8956462643
 31
0.0
  0
LINE
  5
125
330
23
100
AcDbEntity
  8
0
  6
Continuous
 62
     7
370
    25
100
AcDbLine
 10
2.8124829431
 20
0.9087429844
 30
0.0
 11
2.815641021
 21
0.909000307
 31
0.0
  0
LINE
  5
126
330
23
100
AcDbEntity
  8
0
  6
Continuous
 62
     7
370
    25
100
AcDbLine
 10
2.8116178969
 20
0.8953970116
 30
0.0
 11
2.8124829431
 21
0.9087429844
 31
0.0
  0
LINE
  5
127
330
23
100
AcDbEntity
  8
0
  6
Continuous
 62
     7
370
    25
100
AcDbLine
 10
2.802260786
 20
0.8946487936
 30
0.0
 11
2.8116178969
 21
0.8953970116
 31
0.0
  0
LINE
  5
128
330
23
100
AcDbEntity
  8
0
  6
Continuous
 62
     7
370
    25
100
AcDbLine
 10
2.8031174861
 20
0.9079948583
 30
0.0
 11
2.802260786
 21
0.8946487936
 31
0.0
  0
LINE
  5
129
330
23
100
AcDbEntity
  8
0
  6
Continuous
 62
     7
370
    25
100
AcDbLine
 10
2.8001014774
 20
0.9077526633
 30
0.0
 11
2.8031174861
 21
0.9079948583
 31
0.0
  0
LINE
  5
12A
330
23
100
AcDbEntity
  8
0
  6
Continuous
 62
     7
370
    25
100
AcDbLine
 10
2.799186354
 20
0.8944072428
 30
0.0
 11
2.8001014774
 21
0.9077526633
 31
0.0
  0
LINE
  5
12B
330
23
100
AcDbEntity
  8
0
  6
Continuous
 62
     7
370
    25
100
AcDbLine
 10
2.7916003823
 20
0.8937980882
 30
0.0
 11
2.799186354
 21
0.8944072428
 31
0.0
  0
LINE
  5
12C
330
23
100
AcDbEntity
  8
0
  6
Continuous
 62
     7
370
    25
100
AcDbLine
 10
2.798985097
 20
0.8912959584
 30
0.0
 11
2.7918502792
 21
0.8907235642
 31
0.0
  0
LINE
  5
12D
330
23
100
AcDbEntity
  8
0
  6
Continuous
 62
     7
370
    25
100
AcDbLine
 10
2.7982956549
 20
0.8817627174
 30
0.0
 11
2.798985097
 21
0.8912959584
 31
0.0
  0
LINE
  5
12E
330
23
100
AcDbEntity
  8
0
  6
Continuous
 62
     7
370
    25
100
AcDbLine
 10
2.7908767909
 20
0.8811684143
 30
0.0
 11
2.7982956549
 21
0.8817627174
 31
0.0
  0
LINE
  5
12F
330
23
100
AcDbEntity
  8
0
  6
Continuous
 62
     7
370
    25
100
AcDbLine
 10
2.7911186178
 20
0.8781190209
 30
0.0
 11
2.7908767909
 21
0.8811684143
 31
0.0
  0
LINE
  5
130
330
23
100
AcDbEntity
  8
0
  6
Continuous
 62
     7
370
    25
100
AcDbLine
 10
2.7980529431
 20
0.8786769318
 30
0.0
 11
2.7911186178
 21
0.8781190209
 31
0.0
  0
LINE
  5
131
330
23
100
AcDbEntity
  8
0
  6
Continuous
 62
     7
370
    25
100
AcDbLine
 10
2.7970293814
 20
0.8645814596
 30
0.0
 11
2.7980529431
 21
0.8786769318
 31
0.0
  0
LINE
  5
132
330
23
100
AcDbEntity
  8
0
  6
Continuous
 62
     7
370
    25
100
AcDbLine
 10
2.8001288519
 20
0.8648227343
 30
0.0
 11
2.7970293814
 21
0.8645814596
 31
0.0
  0
LINE
  5
133
330
23
100
AcDbEntity
  8
0
  6
Continuous
 62
     7
370
    25
100
AcDbLine
 10
2.8011608519
 20
0.8789264605
 30
0.0
 11
2.8001288519
 21
0.8648227343
 31
0.0
  0
LINE
  5
134
330
23
100
AcDbEntity
  8
0
  6
Continuous
 62
     7
370
    25
100
AcDbLine
 10
2.8105430013
 20
0.8796744025
 30
0.0
 11
2.8011608519
 21
0.8789264605
 31
0.0
  0
LINE
  5
135
330
23
100
AcDbEntity
  8
0
  6
Continuous
 62
     7
370
    25
100
AcDbLine
 10
2.809628032
 20
0.8655860799
 30
0.0
 11
2.8105430013
 21
0.8796744025
 31
0.0
  0
LINE
  5
136
330
23
100
AcDbEntity
  8
0
  6
Continuous
 62
     7
370
    25
100
AcDbLine
 10
2.8127860178
 20
0.8658350564
 30
0.0
 11
2.809628032
 21
0.8655860799
 31
0.0
  0
LINE
  5
137
330
23
100
AcDbEntity
  8
0
  6
Continuous
 62
     7
370
    25
100
AcDbLine
 10
2.8137009871
 20
0.879923379
 30
0.0
 11
2.8127860178
 21
0.8658350564
 31
0.0
  0
LINE
  5
138
330
23
100
AcDbEntity
  8
0
  6
Continuous
 62
     7
370
    25
100
AcDbLine
 10
2.8206938278
 20
0.8804889918
 30
0.0
 11
2.8137009871
 21
0.879923379
 31
0.0
  0
LINE
  5
139
330
23
100
AcDbEntity
  8
0
  6
Continuous
 62
     7
370
    25
100
AcDbLine
 10
2.8719425844
 20
0.8796931506
 30
0.0
 11
2.8715838545
 21
0.8766837693
 31
0.0
  0
LINE
  5
13A
330
23
100
AcDbEntity
  8
0
  6
Continuous
 62
     7
370
    25
100
AcDbLine
 10
2.8654985347
 20
0.8804486895
 30
0.0
 11
2.8719425844
 21
0.8796931506
 31
0.0
  0
LINE
  5
13B
330
23
100
AcDbEntity
  8
0
  6
Continuous
 62
     7
370
    25
100
AcDbLine
 10
2.8679367167
 20
0.8896037149
 30
0.0
 11
2.8654985347
 21
0.8804486895
 31
0.0
  0
LINE
  5
13C
330
23
100
AcDbEntity
  8
0
  6
Continuous
 62
     7
370
    25
100
AcDbLine
 10
2.8746224374
 20
0.888812122
 30
0.0
 11
2.8679367167
 21
0.8896037149
 31
0.0
  0
LINE
  5
13D
330
23
100
AcDbEntity
  8
0
  6
Continuous
 62
     7
370
    25
100
AcDbLine
 10
2.8749814434
 20
0.8918465418
 30
0.0
 11
2.8746224374
 21
0.888812122
 31
0.0
  0
LINE
  5
13E
330
23
100
AcDbEntity
  8
0
  6
Continuous
 62
     7
370
    25
100
AcDbLine
 10
2.868737518
 20
0.8925831793
 30
0.0
 11
2.8749814434
 21
0.8918465418
 31
0.0
  0
LINE
  5
13F
330
23
100
AcDbEntity
  8
0
  6
Continuous
 62
     7
370
    25
100
AcDbLine
 10
2.8722011418
 20
0.9054080088
 30
0.0
 11
2.868737518
 21
0.8925831793
 31
0.0
  0
LINE
  5
140
330
23
100
AcDbEntity
  8
0
  6
Continuous
 62
     7
370
    25
100
AcDbLine
 10
2.8690833522
 20
0.9057762815
 30
0.0
 11
2.8722011418
 21
0.9054080088
 31
0.0
  0
LINE
  5
141
330
23
100
AcDbEntity
  8
0
  6
Continuous
 62
     7
370
    25
100
AcDbLine
 10
2.8656447669
 20
0.8929511758
 30
0.0
 11
2.8690833522
 21
0.9057762815
 31
0.0
  0
LINE
  5
142
330
23
100
AcDbEntity
  8
0
  6
Continuous
 62
     7
370
    25
100
AcDbLine
 10
2.8563914601
 20
0.8940465431
 30
0.0
 11
2.8656447669
 21
0.8929511758
 31
0.0
  0
LINE
  5
143
330
23
100
AcDbEntity
  8
0
  6
Continuous
 62
     7
370
    25
100
AcDbLine
 10
2.8598299534
 20
0.9068633026
 30
0.0
 11
2.8563914601
 21
0.8940465431
 31
0.0
  0
LINE
  5
144
330
23
100
AcDbEntity
  8
0
  6
Continuous
 62
     7
370
    25
100
AcDbLine
 10
2.8568455185
 20
0.9072134102
 30
0.0
 11
2.8598299534
 21
0.9068633026
 31
0.0
  0
LINE
  5
145
330
23
100
AcDbEntity
  8
0
  6
Continuous
 62
     7
370
    25
100
AcDbLine
 10
2.8533569482
 20
0.894397203
 30
0.0
 11
2.8568455185
 21
0.9072134102
 31
0.0
  0
LINE
  5
146
330
23
100
AcDbEntity
  8
0
  6
Continuous
 62
     7
370
    25
100
AcDbLine
 10
2.8458543143
 20
0.8952896246
 30
0.0
 11
2.8533569482
 21
0.894397203
 31
0.0
  0
LINE
  5
147
330
23
100
AcDbEntity
  8
0
  6
Continuous
 62
     7
370
    25
100
AcDbLine
 10
2.8454953083
 20
0.8922552047
 30
0.0
 11
2.8458543143
 21
0.8952896246
 31
0.0
  0
LINE
  5
148
330
23
100
AcDbEntity
  8
0
  6
Continuous
 62
     7
370
    25
100
AcDbLine
 10
2.8525478007
 20
0.8914178307
 30
0.0
 11
2.8454953083
 21
0.8922552047
 31
0.0
  0
LINE
  5
149
330
23
100
AcDbEntity
  8
0
  6
Continuous
 62
     7
370
    25
100
AcDbLine
 10
2.8500345952
 20
0.8822719799
 30
0.0
 11
2.8525478007
 21
0.8914178307
 31
0.0
  0
LINE
  5
14A
330
23
100
AcDbEntity
  8
0
  6
Continuous
 62
     7
370
    25
100
AcDbLine
 10
2.8426986088
 20
0.883137522
 30
0.0
 11
2.8500345952
 21
0.8822719799
 31
0.0
  0
LINE
  5
14B
330
23
100
AcDbEntity
  8
0
  6
Continuous
 62
     7
370
    25
100
AcDbLine
 10
2.8423398789
 20
0.8801281407
 30
0.0
 11
2.8426986088
 21
0.883137522
 31
0.0
  0
LINE
  5
14C
330
23
100
AcDbEntity
  8
0
  6
Continuous
 62
     7
370
    25
100
AcDbLine
 10
2.8454623438
 20
0.8658033053
 30
0.0
 11
2.8492006853
 21
0.8793179223
 31
0.0
  0
LINE
  5
14D
330
23
100
AcDbEntity
  8
0
  6
Continuous
 62
     7
370
    25
100
AcDbLine
 10
2.8485300564
 20
0.8654355849
 30
0.0
 11
2.8454623438
 21
0.8658033053
 31
0.0
  0
LINE
  5
14E
330
23
100
AcDbEntity
  8
0
  6
Continuous
 62
     7
370
    25
100
AcDbLine
 10
2.8522684899
 20
0.8789585481
 30
0.0
 11
2.8485300564
 21
0.8654355849
 31
0.0
  0
LINE
  5
14F
330
23
100
AcDbEntity
  8
0
  6
Continuous
 62
     7
370
    25
100
AcDbLine
 10
2.8615468352
 20
0.8778629046
 30
0.0
 11
2.8522684899
 21
0.8789585481
 31
0.0
  0
LINE
  5
150
330
23
100
AcDbEntity
  8
0
  6
Continuous
 62
     7
370
    25
100
AcDbLine
 10
2.85791681
 20
0.8643303986
 30
0.0
 11
2.8615468352
 21
0.8778629046
 31
0.0
  0
LINE
  5
151
330
23
100
AcDbEntity
  8
0
  6
Continuous
 62
     7
370
    25
100
AcDbLine
 10
2.8610429458
 20
0.8639620339
 30
0.0
 11
2.85791681
 21
0.8643303986
 31
0.0
  0
LINE
  5
152
330
23
100
AcDbEntity
  8
0
  6
Continuous
 62
     7
370
    25
100
AcDbLine
 10
2.864672971
 20
0.8774945399
 30
0.0
 11
2.8610429458
 21
0.8639620339
 31
0.0
  0
LINE
  5
153
330
23
100
AcDbEntity
  8
0
  6
Continuous
 62
     7
370
    25
100
AcDbLine
 10
2.8715838545
 20
0.8766837693
 30
0.0
 11
2.864672971
 21
0.8774945399
 31
0.0
  0
LINE
  5
154
330
23
100
AcDbEntity
  8
0
  6
Continuous
 62
     7
370
    25
100
AcDbLine
 10
2.922139976
 20
0.8659757422
 30
0.0
 11
2.9211982101
 21
0.8630813045
 31
0.0
  0
LINE
  5
155
330
23
100
AcDbEntity
  8
0
  6
Continuous
 62
     7
370
    25
100
AcDbLine
 10
2.9159519567
 20
0.8679972312
 30
0.0
 11
2.922139976
 21
0.8659757422
 31
0.0
  0
LINE
  5
156
330
23
100
AcDbEntity
  8
0
  6
Continuous
 62
     7
370
    25
100
AcDbLine
 10
2.9201527174
 20
0.8765151254
 30
0.0
 11
2.9159519567
 21
0.8679972312
 31
0.0
  0
LINE
  5
157
330
23
100
AcDbEntity
  8
0
  6
Continuous
 62
     7
370
    25
100
AcDbLine
 10
2.9265736934
 20
0.8744242896
 30
0.0
 11
2.9201527174
 21
0.8765151254
 31
0.0
  0
LINE
  5
158
330
23
100
AcDbEntity
  8
0
  6
Continuous
 62
     7
370
    25
100
AcDbLine
 10
2.9275240817
 20
0.8773436738
 30
0.0
 11
2.9265736934
 21
0.8744242896
 31
0.0
  0
LINE
  5
159
330
23
100
AcDbEntity
  8
0
  6
Continuous
 62
     7
370
    25
100
AcDbLine
 10
2.9215272881
 20
0.8792962763
 30
0.0
 11
2.9275240817
 21
0.8773436738
 31
0.0
  0
LINE
  5
15A
330
23
100
AcDbEntity
  8
0
  6
Continuous
 62
     7
370
    25
100
AcDbLine
 10
2.9274517164
 20
0.891217511
 30
0.0
 11
2.9215272881
 21
0.8792962763
 31
0.0
  0
LINE
  5
15B
330
23
100
AcDbEntity
  8
0
  6
Continuous
 62
     7
370
    25
100
AcDbLine
 10
2.9244574927
 20
0.8921937662
 30
0.0
 11
2.9274517164
 21
0.891217511
 31
0.0
  0
LINE
  5
15C
330
23
100
AcDbEntity
  8
0
  6
Continuous
 62
     7
370
    25
100
AcDbLine
 10
2.9185580109
 20
0.8802639092
 30
0.0
 11
2.9244574927
 21
0.8921937662
 31
0.0
  0
LINE
  5
15D
330
23
100
AcDbEntity
  8
0
  6
Continuous
 62
     7
370
    25
100
AcDbLine
 10
2.9096667796
 20
0.8831582776
 30
0.0
 11
2.9185580109
 21
0.8802639092
 31
0.0
  0
LINE
  5
15E
330
23
100
AcDbEntity
  8
0
  6
Continuous
 62
     7
370
    25
100
AcDbLine
 10
2.9155662615
 20
0.8950881347
 30
0.0
 11
2.9096667796
 21
0.8831582776
 31
0.0
  0
LINE
  5
15F
330
23
100
AcDbEntity
  8
0
  6
Continuous
 62
     7
370
    25
100
AcDbLine
 10
2.9127051164
 20
0.8960211862
 30
0.0
 11
2.9155662615
 21
0.8950881347
 31
0.0
  0
LINE
  5
160
330
23
100
AcDbEntity
  8
0
  6
Continuous
 62
     7
370
    25
100
AcDbLine
 10
2.9067473954
 20
0.8841086658
 30
0.0
 11
2.9127051164
 21
0.8960211862
 31
0.0
  0
LINE
  5
161
330
23
100
AcDbEntity
  8
0
  6
Continuous
 62
     7
370
    25
100
AcDbLine
 10
2.899552894
 20
0.8864501012
 30
0.0
 11
2.9067473954
 21
0.8841086658
 31
0.0
  0
LINE
  5
162
330
23
100
AcDbEntity
  8
0
  6
Continuous
 62
     7
370
    25
100
AcDbLine
 10
2.8986025057
 20
0.883530717
 30
0.0
 11
2.899552894
 21
0.8864501012
 31
0.0
  0
LINE
  5
163
330
23
100
AcDbEntity
  8
0
  6
Continuous
 62
     7
370
    25
100
AcDbLine
 10
2.9053728247
 20
0.8813275149
 30
0.0
 11
2.8986025057
 21
0.883530717
 31
0.0
  0
LINE
  5
164
330
23
100
AcDbEntity
  8
0
  6
Continuous
 62
     7
370
    25
100
AcDbLine
 10
2.9010971324
 20
0.8728271415
 30
0.0
 11
2.9053728247
 21
0.8813275149
 31
0.0
  0
LINE
  5
165
330
23
100
AcDbEntity
  8
0
  6
Continuous
 62
     7
370
    25
100
AcDbLine
 10
2.894052402
 20
0.8751251891
 30
0.0
 11
2.9010971324
 21
0.8728271415
 31
0.0
  0
LINE
  5
166
330
23
100
AcDbEntity
  8
0
  6
Continuous
 62
     7
370
    25
100
AcDbLine
 10
2.8931106361
 20
0.8722307514
 30
0.0
 11
2.894052402
 21
0.8751251891
 31
0.0
  0
LINE
  5
167
330
23
100
AcDbEntity
  8
0
  6
Continuous
 62
     7
370
    25
100
AcDbLine
 10
2.8933574126
 20
0.8575202711
 30
0.0
 11
2.8996978914
 21
0.8700796514
 31
0.0
  0
LINE
  5
168
330
23
100
AcDbEntity
  8
0
  6
Continuous
 62
     7
370
    25
100
AcDbLine
 10
2.8963100895
 20
0.8565611685
 30
0.0
 11
2.8933574126
 21
0.8575202711
 31
0.0
  0
LINE
  5
169
330
23
100
AcDbEntity
  8
0
  6
Continuous
 62
     7
370
    25
100
AcDbLine
 10
2.9026422221
 20
0.8691206409
 30
0.0
 11
2.8963100895
 21
0.8565611685
 31
0.0
  0
LINE
  5
16A
330
23
100
AcDbEntity
  8
0
  6
Continuous
 62
     7
370
    25
100
AcDbLine
 10
2.9115584919
 20
0.8662259963
 30
0.0
 11
2.9026422221
 21
0.8691206409
 31
0.0
  0
LINE
  5
16B
330
23
100
AcDbEntity
  8
0
  6
Continuous
 62
     7
370
    25
100
AcDbLine
 10
2.9053260532
 20
0.8536236885
 30
0.0
 11
2.9115584919
 21
0.8662259963
 31
0.0
  0
LINE
  5
16C
330
23
100
AcDbEntity
  8
0
  6
Continuous
 62
     7
370
    25
100
AcDbLine
 10
2.9083286231
 20
0.8526473412
 30
0.0
 11
2.9053260532
 21
0.8536236885
 31
0.0
  0
LINE
  5
16D
330
23
100
AcDbEntity
  8
0
  6
Continuous
 62
     7
370
    25
100
AcDbLine
 10
2.9145527156
 20
0.8652497411
 30
0.0
 11
2.9083286231
 21
0.8526473412
 31
0.0
  0
LINE
  5
16E
330
23
100
AcDbEntity
  8
0
  6
Continuous
 62
     7
370
    25
100
AcDbLine
 10
2.9211982101
 20
0.8630813045
 30
0.0
 11
2.9145527156
 21
0.8652497411
 31
0.0
  0
LINE
  5
16F
330
23
100
AcDbEntity
  8
0
  6
Continuous
 62
     7
370
    25
100
AcDbLine
 10
2.7488589596
 20
0.8841873252
 30
0.0
 11
2.7578103894
 21
0.8867513588
 31
0.0
  0
LWPOLYLINE
  5
170
330
23
100
AcDbEntity
  8
0
  6
Continuous
 62
     7
370
    25
100
AcDbPolyline
 90
       12
 70
   128
 43
0.0
 10
2.8061621764
 20
0.3730324961
 10
2.8085471088
 20
0.3725974232
 10
2.8108011977
 20
0.3717059491
 10
2.812825249
 20
0.3703717889
 10
2.8145470494
 20
0.3686648828
 10
2.8159140324
 20
0.3666620933
 10
2.8169495618
 20
0.3644686367
 10
2.8177947699
 20
0.3616835141
 10
2.8182356621
 20
0.3588057915
 10
2.8183971333
 20
0.3558977298
 10
2.8183481805
 20
0.352985325
 10
2.8181543674
 20
0.3500790062
  0
ARC
  5
171
330
23
100
AcDbEntity
  8
0
  6
Continuous
 62
     7
370
    25
100
AcDbCircle
 10
2.9166995585
 20
0.366318871
 30
0.0
 40
0.021609317907698
100
AcDbArc
 50
61.5280855576
 51
112.4727103872
  0
LINE
  5
172
330
23
100
AcDbEntity
  8
0
  6
Continuous
 62
     7
370
    25
100
AcDbLine
 10
2.8996978914
 20
0.8700796514
 30
0.0
 11
2.8931106361
 21
0.8722307514
 31
0.0
  0
LINE
  5
173
330
23
100
AcDbEntity
  8
0
  6
Continuous
 62
     7
370
    25
100
AcDbLine
 10
2.7918502792
 20
0.8907235642
 30
0.0
 11
2.7916003823
 21
0.8937980882
 31
0.0
  0
ARC
  5
174
330
23
100
AcDbEntity
  8
0
  6
Continuous
 62
     7
370
    25
100
AcDbCircle
 10
2.7687753433
 20
0.3660302979
 30
0.0
 40
0.0111279145122513
100
AcDbArc
 50
167.9952500938
 51
244.8605515674
  0
ARC
  5
175
330
23
100
AcDbEntity
  8
0
  6
Continuous
 62
     7
370
    25
100
AcDbCircle
 10
2.7664177514
 20
0.3465294575
 30
0.0
 40
0.0097203032039272
100
AcDbArc
 50
104.1108688214
 51
167.6645991418
  0
ARC
  5
176
330
23
100
AcDbEntity
  8
0
  6
Continuous
 62
     7
370
    25
100
AcDbCircle
 10
2.767922198
 20
0.3468891342
 30
0.0
 40
0.0111335242847847
100
AcDbArc
 50
171.1289665135
 51
268.9335378549
  0
LINE
  5
177
330
23
100
AcDbEntity
  8
0
  6
Continuous
 62
     7
370
    25
100
AcDbLine
 10
2.8803291641
 20
0.3570987219
 30
0.0
 11
2.882662719
 21
0.3575237346
 31
0.0
  0
LINE
  5
178
330
23
100
AcDbEntity
  8
0
  6
Continuous
 62
     7
370
    25
100
AcDbLine
 10
2.847497127
 20
0.3397753548
 30
0.0
 11
2.8517311258
 21
0.339954034
 31
0.0
  0
LINE
  5
179
330
23
100
AcDbEntity
  8
0
  6
Continuous
 62
     7
370
    25
100
AcDbLine
 10
2.8492006853
 20
0.8793179223
 30
0.0
 11
2.8423398789
 21
0.8801281407
 31
0.0
  0
ARC
  5
17A
330
23
100
AcDbEntity
  8
0
  6
Continuous
 62
     7
370
    25
100
AcDbCircle
 10
2.8358809022
 20
0.3587556502
 30
0.0
 40
0.0113170557624358
100
AcDbArc
 50
182.1372939127
 51
222.8205709889
  0
ARC
  5
17B
330
23
100
AcDbEntity
  8
0
  6
Continuous
 62
     7
370
    25
100
AcDbCircle
 10
2.8366092855
 20
0.3592083024
 30
0.0
 40
0.0121600778605629
100
AcDbArc
 50
222.0521884835
 51
250.8813942047
  0
ARC
  5
17C
330
23
100
AcDbEntity
  8
0
  6
Continuous
 62
     7
370
    25
100
AcDbCircle
 10
2.8373759638
 20
0.3392350236
 30
0.0
 40
0.0097228456952192
100
AcDbArc
 50
119.2406504408
 51
181.3308256543
  0
LWPOLYLINE
  5
17D
330
23
100
AcDbEntity
  8
0
  6
Continuous
 62
     7
370
    25
100
AcDbPolyline
 90
       12
 70
   128
 43
0.0
 10
2.8181543674
 20
0.3500790062
 10
2.8178357136
 20
0.3471799917
 10
2.8173832699
 20
0.3442988804
 10
2.8167260137
 20
0.3414579788
 10
2.8157969761
 20
0.3386948728
 10
2.8144751952
 20
0.3360978431
 10
2.8130714771
 20
0.3341159697
 10
2.811356719
 20
0.3323971638
 10
2.8093579185
 20
0.3310210011
 10
2.8071292026
 20
0.3300600952
 10
2.8047539725
 20
0.3295634957
 10
2.8023269882
 20
0.3295441677
  0
LWPOLYLINE
  5
17E
330
23
100
AcDbEntity
  8
0
  6
Continuous
 62
     7
370
    25
100
AcDbPolyline
 90
       12
 70
   128
 43
0.0
 10
2.789893186
 20
0.3525693056
 10
2.7902200425
 20
0.3554845813
 10
2.7907171877
 20
0.3583755073
 10
2.7914353216
 20
0.361219446
 10
2.7924506425
 20
0.3639704627
 10
2.7938492837
 20
0.36654697
 10
2.795301162
 20
0.3685120657
 10
2.7970507455
 20
0.3702160303
 10
2.799082746
 20
0.3715694855
 10
2.8013303291
 20
0.3725232718
 10
2.8037207713
 20
0.3730152673
 10
2.8061621764
 20
0.3730324961
  0
LWPOLYLINE
  5
17F
330
23
100
AcDbEntity
  8
0
  6
Continuous
 62
     7
370
    25
100
AcDbPolyline
 90
       12
 70
   128
 43
0.0
 10
2.8023269882
 20
0.3295441677
 10
2.7999222979
 20
0.3299793422
 10
2.7976494553
 20
0.3308776687
 10
2.795600612
 20
0.3322098888
 10
2.7938473839
 20
0.3339119611
 10
2.7924356257
 20
0.3359079268
 10
2.7913513138
 20
0.3381000925
 10
2.7904310099
 20
0.3408866142
 10
2.7899045606
 20
0.3437743531
 10
2.7896934228
 20
0.3467025957
 10
2.7897073336
 20
0.3496388146
 10
2.789893186
 20
0.3525693056
  0
LINE
  5
180
330
23
100
AcDbEntity
  8
0
  6
Continuous
 62
     7
370
    25
100
AcDbLine
 10
2.7757168805
 20
0.3339664608
 30
0.0
 11
2.7677149786
 21
0.3357575385
 31
0.0
  0
ARC
  5
181
330
23
100
AcDbEntity
  8
0
  6
Continuous
 62
     7
370
    25
100
AcDbCircle
 10
2.7267409035
 20
0.3703302058
 30
0.0
 40
0.0216338148959698
100
AcDbArc
 50
245.8930710644
 51
338.0475129103
  0
ARC
  5
182
330
23
100
AcDbEntity
  8
0
  6
Continuous
 62
     7
370
    25
100
AcDbCircle
 10
2.7263639472
 20
0.3709190304
 30
0.0
 40
0.0222072616301834
100
AcDbArc
 50
337.0019915284
 51
18.5131856589
  0
LINE
  5
183
330
23
100
AcDbEntity
  8
0
  6
Continuous
 62
     7
370
    25
100
AcDbLine
 10
2.784803721
 20
0.3745421299
 30
0.0
 11
2.7757168805
 21
0.3339664608
 31
0.0
  0
LINE
  5
184
330
23
100
AcDbEntity
  8
0
  6
Continuous
 62
     7
370
    25
100
AcDbLine
 10
2.7736626728
 20
0.3770356037
 30
0.0
 11
2.784803721
 21
0.3745421299
 31
0.0
  0
ARC
  5
185
330
23
100
AcDbEntity
  8
0
  6
Continuous
 62
     7
370
    25
100
AcDbCircle
 10
2.7698716881
 20
0.3652587575
 30
0.0
 40
0.0123719712017677
100
AcDbArc
 50
72.1565541555
 51
165.5556146794
  0
LINE
  5
186
330
23
100
AcDbEntity
  8
0
  6
Continuous
 62
     7
370
    25
100
AcDbLine
 10
2.7042883326
 20
0.3655245895
 30
0.0
 11
2.7082654707
 21
0.3666326402
 31
0.0
  0
ARC
  5
187
330
23
100
AcDbEntity
  8
0
  6
Continuous
 62
     7
370
    25
100
AcDbCircle
 10
2.7253046304
 20
0.3710020335
 30
0.0
 40
0.021718360122556
100
AcDbArc
 50
194.6079357426
 51
250.0793069776
  0
ARC
  5
188
330
23
100
AcDbEntity
  8
0
  6
Continuous
 62
     7
370
    25
100
AcDbCircle
 10
2.7268984485
 20
0.3705677785
 30
0.0
 40
0.0218177450771662
100
AcDbArc
 50
19.8336871092
 51
70.5317332804
  0
ARC
  5
189
330
23
100
AcDbEntity
  8
0
  6
Continuous
 62
     7
370
    25
100
AcDbCircle
 10
2.7251243283
 20
0.370426347
 30
0.0
 40
0.0226009115067942
100
AcDbArc
 50
66.4072248479
 51
118.8030246768
  0
LINE
  5
18A
330
23
100
AcDbEntity
  8
0
  6
Continuous
 62
     7
370
    25
100
AcDbLine
 10
2.7582441785
 20
0.8836998483
 30
0.0
 11
2.7492424874
 21
0.8811196746
 31
0.0
  0
LINE
  5
18B
330
23
100
AcDbEntity
  8
0
  6
Continuous
 62
     7
370
    25
100
AcDbLine
 10
2.7594343759
 20
0.8743044742
 30
0.0
 11
2.7582441785
 21
0.8836998483
 31
0.0
  0
LINE
  5
18C
330
23
100
AcDbEntity
  8
0
  6
Continuous
 62
     7
370
    25
100
AcDbLine
 10
2.7504912923
 20
0.8717403485
 30
0.0
 11
2.7594343759
 21
0.8743044742
 31
0.0
  0
LINE
  5
18D
330
23
100
AcDbEntity
  8
0
  6
Continuous
 62
     7
370
    25
100
AcDbLine
 10
2.7492424874
 20
0.8811196746
 30
0.0
 11
2.7504912923
 21
0.8717403485
 31
0.0
  0
LINE
  5
18E
330
23
100
AcDbEntity
  8
0
  6
Continuous
 62
     7
370
    25
100
AcDbLine
 10
2.8114501166
 20
0.8922937052
 30
0.0
 11
2.8020261442
 21
0.8915378774
 31
0.0
  0
LINE
  5
18F
330
23
100
AcDbEntity
  8
0
  6
Continuous
 62
     7
370
    25
100
AcDbLine
 10
2.8107523284
 20
0.8827605563
 30
0.0
 11
2.8114501166
 21
0.8922937052
 31
0.0
  0
LINE
  5
190
330
23
100
AcDbEntity
  8
0
  6
Continuous
 62
     7
370
    25
100
AcDbLine
 10
2.8013952175
 20
0.8820123382
 30
0.0
 11
2.8107523284
 21
0.8827605563
 31
0.0
  0
LINE
  5
191
330
23
100
AcDbEntity
  8
0
  6
Continuous
 62
     7
370
    25
100
AcDbLine
 10
2.8020261442
 20
0.8915378774
 30
0.0
 11
2.8013952175
 21
0.8820123382
 31
0.0
  0
LINE
  5
192
330
23
100
AcDbEntity
  8
0
  6
Continuous
 62
     7
370
    25
100
AcDbLine
 10
2.9172083867
 20
0.8774741359
 30
0.0
 11
2.9082672624
 21
0.880385749
 31
0.0
  0
LINE
  5
193
330
23
100
AcDbEntity
  8
0
  6
Continuous
 62
     7
370
    25
100
AcDbLine
 10
2.9129244403
 20
0.8689822008
 30
0.0
 11
2.9172083867
 21
0.8774741359
 31
0.0
  0
LINE
  5
194
330
23
100
AcDbEntity
  8
0
  6
Continuous
 62
     7
370
    25
100
AcDbLine
 10
2.9040414631
 20
0.8718681309
 30
0.0
 11
2.9129244403
 21
0.8689822008
 31
0.0
  0
LINE
  5
195
330
23
100
AcDbEntity
  8
0
  6
Continuous
 62
     7
370
    25
100
AcDbLine
 10
2.9082672624
 20
0.880385749
 30
0.0
 11
2.9040414631
 21
0.8718681309
 31
0.0
  0
LINE
  5
196
330
23
100
AcDbEntity
  8
0
  6
Continuous
 62
     7
370
    25
100
AcDbLine
 10
2.7679440657
 20
0.3398785267
 30
0.0
 11
2.7726319197
 21
0.3388251627
 31
0.0
  0
LWPOLYLINE
  5
197
330
23
100
AcDbEntity
  8
0
  6
Continuous
 62
     7
370
    25
100
AcDbPolyline
 90
        9
 70
   128
 43
0.0
 10
2.7611350797
 20
0.3476580818
 10
2.7609602752
 20
0.3462019873
 10
2.7611396458
 20
0.3447477886
 10
2.761721446
 20
0.3434028639
 10
2.7626436497
 20
0.3422638044
 10
2.7638240111
 20
0.3413930151
 10
2.7651392835
 20
0.34074135
 10
2.7665217329
 20
0.3402456358
 10
2.7679440657
 20
0.3398785267
  0
LWPOLYLINE
  5
198
330
23
100
AcDbEntity
  8
0
  6
Continuous
 62
     7
370
    25
100
AcDbPolyline
 90
       10
 70
   128
 43
0.0
 10
2.7732316371
 20
0.3523326584
 10
2.7714299432
 20
0.3526990723
 10
2.7696087791
 20
0.3529496729
 10
2.7677728282
 20
0.3530263722
 10
2.7659595218
 20
0.3527430082
 10
2.7642745151
 20
0.3520172332
 10
2.7628479923
 20
0.3508633627
 10
2.7620785463
 20
0.3499088616
 10
2.7615062263
 20
0.3488261612
 10
2.7611350797
 20
0.3476580818
  0
LINE
  5
199
330
23
100
AcDbEntity
  8
0
  6
Continuous
 62
     7
370
    25
100
AcDbLine
 10
2.7726319197
 20
0.3388251627
 30
0.0
 11
2.7755464445
 21
0.3518146447
 31
0.0
  0
LINE
  5
19A
330
23
100
AcDbEntity
  8
0
  6
Continuous
 62
     7
370
    25
100
AcDbLine
 10
2.7755464445
 20
0.3518146447
 30
0.0
 11
2.7732316371
 21
0.3523326584
 31
0.0
  0
ARC
  5
19B
330
23
100
AcDbEntity
  8
0
  6
Continuous
 62
     7
370
    25
100
AcDbCircle
 10
2.7812354482
 20
0.393223056
 30
0.0
 40
0.0374825994181148
100
AcDbArc
 50
247.7997742885
 51
259.134434547
  0
LINE
  5
19C
330
23
100
AcDbEntity
  8
0
  6
Continuous
 62
     7
370
    25
100
AcDbLine
 10
2.7764596422
 20
0.3559030465
 30
0.0
 11
2.7799450191
 21
0.3714571691
 31
0.0
  0
LINE
  5
19D
330
23
100
AcDbEntity
  8
0
  6
Continuous
 62
     7
370
    25
100
AcDbLine
 10
2.7741697813
 20
0.3564124378
 30
0.0
 11
2.7764596422
 21
0.3559030465
 31
0.0
  0
ARC
  5
19E
330
23
100
AcDbEntity
  8
0
  6
Continuous
 62
     7
370
    25
100
AcDbCircle
 10
2.770151402
 20
0.3660609373
 30
0.0
 40
0.008145988062664
100
AcDbArc
 50
169.9673376525
 51
247.7949949903
  0
LWPOLYLINE
  5
19F
330
23
100
AcDbEntity
  8
0
  6
Continuous
 62
     7
370
    25
100
AcDbPolyline
 90
       10
 70
   128
 43
0.0
 10
2.7749240543
 20
0.3725809843
 10
2.7732129305
 20
0.372925576
 10
2.771486227
 20
0.3731811361
 10
2.7697441689
 20
0.3732866883
 10
2.7680081393
 20
0.3731257183
 10
2.7663489741
 20
0.3725894222
 10
2.7648839533
 20
0.3717029459
 10
2.7636418617
 20
0.3705236975
 10
2.7626980672
 20
0.3690941316
 10
2.7621299775
 20
0.3674800463
  0
LINE
  5
1A0
330
23
100
AcDbEntity
  8
0
  6
Continuous
 62
     7
370
    25
100
AcDbLine
 10
2.7799450191
 20
0.3714571691
 30
0.0
 11
2.7749240543
 21
0.3725809843
 31
0.0
  0
LINE
  5
1A1
330
23
100
AcDbEntity
  8
0
  6
Continuous
 62
     7
370
    25
100
AcDbLine
 10
2.8648689121
 20
0.8899630892
 30
0.0
 11
2.8555572741
 21
0.891067447
 31
0.0
  0
LINE
  5
1A2
330
23
100
AcDbEntity
  8
0
  6
Continuous
 62
     7
370
    25
100
AcDbLine
 10
2.8623557066
 20
0.8808172383
 30
0.0
 11
2.8648689121
 21
0.8899630892
 31
0.0
  0
LINE
  5
1A3
330
23
100
AcDbEntity
  8
0
  6
Continuous
 62
     7
370
    25
100
AcDbLine
 10
2.8530940536
 20
0.8819126977
 30
0.0
 11
2.8623557066
 21
0.8808172383
 31
0.0
  0
LINE
  5
1A4
330
23
100
AcDbEntity
  8
0
  6
Continuous
 62
     7
370
    25
100
AcDbLine
 10
2.8555572741
 20
0.891067447
 30
0.0
 11
2.8530940536
 21
0.8819126977
 31
0.0
  0
LWPOLYLINE
  5
1A5
330
23
100
AcDbEntity
  8
0
  6
Continuous
 62
     7
370
    25
100
AcDbPolyline
 90
        9
 70
   128
 43
0.0
 10
2.8674741242
 20
0.3434425807
 10
2.8679930532
 20
0.3417691472
 10
2.8689252742
 20
0.3402852693
 10
2.8702055909
 20
0.3390879499
 10
2.8717626455
 20
0.3382864665
 10
2.8734782799
 20
0.3379363528
 10
2.8752327699
 20
0.3379507932
 10
2.8769786057
 20
0.3381350439
 10
2.8787123829
 20
0.3384104874
  0
LINE
  5
1A6
330
23
100
AcDbEntity
  8
0
  6
Continuous
 62
     7
370
    25
100
AcDbLine
 10
2.8858885935
 20
0.3397086311
 30
0.0
 11
2.8833786833
 21
0.353567615
 31
0.0
  0
LINE
  5
1A7
330
23
100
AcDbEntity
  8
0
  6
Continuous
 62
     7
370
    25
100
AcDbLine
 10
2.8787123829
 20
0.3384104874
 30
0.0
 11
2.8858885935
 21
0.3397086311
 31
0.0
  0
LWPOLYLINE
  5
1A8
330
23
100
AcDbEntity
  8
0
  6
Continuous
 62
     7
370
    25
100
AcDbPolyline
 90
       10
 70
   128
 43
0.0
 10
2.8763619706
 20
0.3523511843
 10
2.8746059699
 20
0.3519893709
 10
2.8728756899
 20
0.3515198656
 10
2.8712038035
 20
0.3508747134
 10
2.869693053
 20
0.3499152233
 10
2.8684889496
 20
0.3485923587
 10
2.8677027939
 20
0.3469850554
 10
2.8674224031
 20
0.3458234659
 10
2.8673459356
 20
0.3446307177
 10
2.8674741242
 20
0.3434425807
  0
LINE
  5
1A9
330
23
100
AcDbEntity
  8
0
  6
Continuous
 62
     7
370
    25
100
AcDbLine
 10
2.8833786833
 20
0.353567615
 30
0.0
 11
2.8763619706
 21
0.3523511843
 31
0.0
  0
CIRCLE
  5
1AA
330
23
100
AcDbEntity
  8
0
  6
Continuous
 62
     7
370
    25
100
AcDbCircle
 10
0.6621259843
 20
0.6188188976
 30
0.0
 40
0.3925478037114749
  0
CIRCLE
  5
1AB
330
23
100
AcDbEntity
  8
0
  6
Continuous
 62
     7
370
    25
100
AcDbCircle
 10
0.6621259843
 20
0.6188188976
 30
0.0
 40
0.3232775590551183
  0
CIRCLE
  5
1AC
330
23
100
AcDbEntity
  8
0
  6
Continuous
 62
     7
370
    25
100
AcDbCircle
 10
0.6621259843
 20
0.6188188976
 30
0.0
 40
0.2239665354330704
  0
CIRCLE
  5
1AD
330
23
100
AcDbEntity
  8
0
  6
Continuous
 62
     7
370
    25
100
AcDbCircle
 10
0.6621259843
 20
0.6188188976
 30
0.0
 40
0.235777559055117
  0
LINE
  5
1AE
330
23
100
AcDbEntity
  8
0
  6
Continuous
 62
     7
370
    25
100
AcDbLine
 10
0.4330715116
 20
0.7884881343
 30
0.0
 11
0.4287204608
 21
0.7826356535
 31
0.0
  0
LWPOLYLINE
  5
1AF
330
23
100
AcDbEntity
  8
0
  6
Continuous
 62
     7
370
    25
100
AcDbPolyline
 90
       10
 70
   128
 43
0.0
 10
0.4443155843
 20
0.7799185196
 10
0.4453500919
 20
0.7813828425
 10
0.4462922177
 20
0.7829081959
 10
0.4470716652
 20
0.7845218523
 10
0.4475186427
 20
0.7862548265
 10
0.447493417
 20
0.7880434571
 10
0.4469686955
 20
0.7897540511
 10
0.44637943
 20
0.7907936065
 10
0.4456200125
 20
0.7917165262
 10
0.4447143567
 20
0.7924961987
  0
LINE
  5
1B0
330
23
100
AcDbEntity
  8
0
  6
Continuous
 62
     7
370
    25
100
AcDbLine
 10
0.4400251098
 20
0.7742347014
 30
0.0
 11
0.4443155843
 21
0.7799185196
 31
0.0
  0
LINE
  5
1B1
330
23
100
AcDbEntity
  8
0
  6
Continuous
 62
     7
370
    25
100
AcDbLine
 10
0.4287204608
 20
0.7826356535
 30
0.0
 11
0.4400251098
 21
0.7742347014
 31
0.0
  0
LWPOLYLINE
  5
1B2
330
23
100
AcDbEntity
  8
0
  6
Continuous
 62
     7
370
    25
100
AcDbPolyline
 90
        9
 70
   128
 43
0.0
 10
0.4447143567
 20
0.7924961987
 10
0.4431917803
 20
0.7933630483
 10
0.4414970786
 20
0.7938090482
 10
0.439744143
 20
0.7938079516
 10
0.438059752
 20
0.7933287634
 10
0.4365681126
 20
0.7924117065
 10
0.4352972807
 20
0.7912019835
 10
0.4341488302
 20
0.7898742213
 10
0.4330715116
 20
0.7884881343
  0
ARC
  5
1B3
330
23
100
AcDbEntity
  8
0
  6
Continuous
 62
     7
370
    25
100
AcDbCircle
 10
0.4247511893
 20
0.7426923407
 30
0.0
 40
0.0220523369754007
100
AcDbArc
 50
241.8728981544
 51
283.4521487927
  0
ARC
  5
1B4
330
23
100
AcDbEntity
  8
0
  6
Continuous
 62
     7
370
    25
100
AcDbCircle
 10
0.4247820817
 20
0.7425005166
 30
0.0
 40
0.0175289877667051
100
AcDbArc
 50
242.4074023659
 51
335.4552640039
  0
ARC
  5
1B5
330
23
100
AcDbEntity
  8
0
  6
Continuous
 62
     7
370
    25
100
AcDbCircle
 10
0.4244786012
 20
0.7427259362
 30
0.0
 40
0.0175921650686309
100
AcDbArc
 50
151.5621294192
 51
243.6235319666
  0
ARC
  5
1B6
330
23
100
AcDbEntity
  8
0
  6
Continuous
 62
     7
370
    25
100
AcDbCircle
 10
0.4253488922
 20
0.7431548721
 30
0.0
 40
0.0181704318451905
100
AcDbArc
 50
100.3014347943
 51
154.0590745216
  0
LINE
  5
1B7
330
23
100
AcDbEntity
  8
0
  6
Continuous
 62
     7
370
    25
100
AcDbLine
 10
0.4213496349
 20
0.7650766603
 30
0.0
 11
0.422099531
 21
0.7610324067
 31
0.0
  0
ARC
  5
1B8
330
23
100
AcDbEntity
  8
0
  6
Continuous
 62
     7
370
    25
100
AcDbCircle
 10
0.4642079595
 20
0.8134145341
 30
0.0
 40
0.0087216166488128
100
AcDbArc
 50
139.1115540285
 51
211.7333035131
  0
ARC
  5
1B9
330
23
100
AcDbEntity
  8
0
  6
Continuous
 62
     7
370
    25
100
AcDbCircle
 10
0.4630405959
 20
0.8144402571
 30
0.0
 40
0.0071676891824034
100
AcDbArc
 50
49.3642595964
 51
139.2017945595
  0
LWPOLYLINE
  5
1BA
330
23
100
AcDbEntity
  8
0
  6
Continuous
 62
     7
370
    25
100
AcDbPolyline
 90
        9
 70
   128
 43
0.0
 10
0.4658934519
 20
0.8081439029
 10
0.4673203308
 20
0.809819519
 10
0.4684451129
 20
0.8117109494
 10
0.469211599
 20
0.813772974
 10
0.4694765382
 20
0.8154007373
 10
0.4693166292
 20
0.8170408872
 10
0.4689617267
 20
0.8180832107
 10
0.4684240046
 20
0.819043314
 10
0.4677085371
 20
0.8198795671
  0
LINE
  5
1BB
330
23
100
AcDbEntity
  8
0
  6
Continuous
 62
     7
370
    25
100
AcDbLine
 10
0.4686061809
 20
0.8054785546
 30
0.0
 11
0.4658934519
 21
0.8081439029
 31
0.0
  0
ARC
  5
1BC
330
23
100
AcDbEntity
  8
0
  6
Continuous
 62
     7
370
    25
100
AcDbCircle
 10
0.47723239
 20
0.7992869579
 30
0.0
 40
0.010618255604947
100
AcDbArc
 50
53.2250850969
 51
144.3305132488
  0
ARC
  5
1BD
330
23
100
AcDbEntity
  8
0
  6
Continuous
 62
     7
370
    25
100
AcDbCircle
 10
0.4769035143
 20
0.8013224109
 30
0.0
 40
0.0093035548413055
100
AcDbArc
 50
311.262900712
 51
44.0591805976
  0
ARC
  5
1BE
330
23
100
AcDbEntity
  8
0
  6
Continuous
 62
     7
370
    25
100
AcDbCircle
 10
0.4759764936
 20
0.8008166485
 30
0.0
 40
0.009590275702262
100
AcDbArc
 50
275.0803237092
 51
317.4307368748
  0
ARC
  5
1BF
330
23
100
AcDbEntity
  8
0
  6
Continuous
 62
     7
370
    25
100
AcDbCircle
 10
0.4761212643
 20
0.8007927932
 30
0.0
 40
0.0135086606302482
100
AcDbArc
 50
231.1883989232
 51
316.2828335231
  0
ARC
  5
1C0
330
23
100
AcDbEntity
  8
0
  6
Continuous
 62
     7
370
    25
100
AcDbCircle
 10
0.476525861
 20
0.8013618809
 30
0.0
 40
0.0136270574887708
100
AcDbArc
 50
313.3765295992
 51
44.7167572409
  0
ARC
  5
1C1
330
23
100
AcDbEntity
  8
0
  6
Continuous
 62
     7
370
    25
100
AcDbCircle
 10
0.463808875
 20
0.8161394254
 30
0.0
 40
0.0097228456952161
100
AcDbArc
 50
342.3578815599
 51
44.4480567735
  0
ARC
  5
1C2
330
23
100
AcDbEntity
  8
0
  6
Continuous
 62
     7
370
    25
100
AcDbCircle
 10
0.4632408287
 20
0.8144323683
 30
0.0
 40
0.011353466891174
100
AcDbArc
 50
48.5941916001
 51
138.498259571
  0
LINE
  5
1C3
330
23
100
AcDbEntity
  8
0
  6
Continuous
 62
     7
370
    25
100
AcDbLine
 10
0.4567901763
 20
0.8088272594
 30
0.0
 11
0.4538216663
 21
0.8058029214
 31
0.0
  0
LINE
  5
1C4
330
23
100
AcDbEntity
  8
0
  6
Continuous
 62
     7
370
    25
100
AcDbLine
 10
0.5263165105
 20
0.826299542
 30
0.0
 11
0.5052163119
 21
0.8621288206
 31
0.0
  0
LINE
  5
1C5
330
23
100
AcDbEntity
  8
0
  6
Continuous
 62
     7
370
    25
100
AcDbLine
 10
0.5361532666
 20
0.8320942461
 30
0.0
 11
0.5263165105
 21
0.826299542
 31
0.0
  0
ARC
  5
1C6
330
23
100
AcDbEntity
  8
0
  6
Continuous
 62
     7
370
    25
100
AcDbCircle
 10
0.5308711257
 20
0.8432819473
 30
0.0
 40
0.0123719712017659
100
AcDbArc
 50
295.2737852747
 51
28.6728457986
  0
ARC
  5
1C7
330
23
100
AcDbEntity
  8
0
  6
Continuous
 62
     7
370
    25
100
AcDbCircle
 10
0.5321987527
 20
0.8434681006
 30
0.0
 40
0.0111279145122542
100
AcDbArc
 50
31.112481213
 51
107.9777826865
  0
ARC
  5
1C8
330
23
100
AcDbEntity
  8
0
  6
Continuous
 62
     7
370
    25
100
AcDbCircle
 10
0.5205909984
 20
0.8593142691
 30
0.0
 40
0.0097203032039167
100
AcDbArc
 50
327.2280999406
 51
30.781830261
  0
ARC
  5
1C9
330
23
100
AcDbEntity
  8
0
  6
Continuous
 62
     7
370
    25
100
AcDbCircle
 10
0.5197386541
 20
0.8580234414
 30
0.0
 40
0.0111335242847831
100
AcDbArc
 50
34.2461976326
 51
132.050768974
  0
LINE
  5
1CA
330
23
100
AcDbEntity
  8
0
  6
Continuous
 62
     7
370
    25
100
AcDbLine
 10
0.5052163119
 20
0.8621288206
 30
0.0
 11
0.5122815439
 21
0.8662906579
 31
0.0
  0
ARC
  5
1CB
330
23
100
AcDbEntity
  8
0
  6
Continuous
 62
     7
370
    25
100
AcDbCircle
 10
0.5673286414
 20
0.8695508909
 30
0.0
 40
0.0217183601225524
100
AcDbArc
 50
57.7251668617
 51
113.1965380968
  0
ARC
  5
1CC
330
23
100
AcDbEntity
  8
0
  6
Continuous
 62
     7
370
    25
100
AcDbCircle
 10
0.5658210344
 20
0.8690596131
 30
0.0
 40
0.0216338148959682
100
AcDbArc
 50
109.0103021835
 51
201.1647440295
  0
ARC
  5
1CD
330
23
100
AcDbEntity
  8
0
  6
Continuous
 62
     7
370
    25
100
AcDbCircle
 10
0.5664986539
 20
0.8688874437
 30
0.0
 40
0.0222072616301854
100
AcDbArc
 50
200.1192226476
 51
241.6304167781
  0
ARC
  5
1CE
330
23
100
AcDbEntity
  8
0
  6
Continuous
 62
     7
370
    25
100
AcDbCircle
 10
0.5658684127
 20
0.8687785142
 30
0.0
 40
0.0218177450771668
100
AcDbArc
 50
242.9509182284
 51
293.6489643995
  0
ARC
  5
1CF
330
23
100
AcDbEntity
  8
0
  6
Continuous
 62
     7
370
    25
100
AcDbCircle
 10
0.5670667762
 20
0.8700943524
 30
0.0
 40
0.022600911506798
100
AcDbArc
 50
289.5244559671
 51
341.9202557959
  0
LINE
  5
1D0
330
23
100
AcDbEntity
  8
0
  6
Continuous
 62
     7
370
    25
100
AcDbLine
 10
0.5845903889
 20
0.8642173022
 30
0.0
 11
0.5885517792
 21
0.8630803771
 31
0.0
  0
ARC
  5
1D1
330
23
100
AcDbEntity
  8
0
  6
Continuous
 62
     7
370
    25
100
AcDbCircle
 10
0.566793708
 20
0.8700719688
 30
0.0
 40
0.0187349665222455
100
AcDbArc
 50
290.7733154691
 51
341.7900769212
  0
ARC
  5
1D2
330
23
100
AcDbEntity
  8
0
  6
Continuous
 62
     7
370
    25
100
AcDbCircle
 10
0.5663727508
 20
0.8687109682
 30
0.0
 40
0.0176335321956466
100
AcDbArc
 50
200.648462731
 51
293.6218056566
  0
ARC
  5
1D3
330
23
100
AcDbEntity
  8
0
  6
Continuous
 62
     7
370
    25
100
AcDbCircle
 10
0.5663402795
 20
0.8690401861
 30
0.0
 40
0.0177221206111762
100
AcDbArc
 50
109.8788050318
 51
201.6815293506
  0
ARC
  5
1D4
330
23
100
AcDbEntity
  8
0
  6
Continuous
 62
     7
370
    25
100
AcDbCircle
 10
0.5672443209
 20
0.8687927544
 30
0.0
 40
0.0182782708491627
100
AcDbArc
 50
58.5538481507
 51
112.2807627873
  0
LINE
  5
1D5
330
23
100
AcDbEntity
  8
0
  6
Continuous
 62
     7
370
    25
100
AcDbLine
 10
0.5789258336
 20
0.8879136876
 30
0.0
 11
0.5767800399
 21
0.8843865111
 31
0.0
  0
LWPOLYLINE
  5
1D6
330
23
100
AcDbEntity
  8
0
  6
Continuous
 62
     7
370
    25
100
AcDbPolyline
 90
       12
 70
   128
 43
0.0
 10
0.4827694762
 20
0.8471690722
 10
0.4848222349
 20
0.8484950034
 10
0.4870953119
 20
0.8493927367
 10
0.4895014425
 20
0.8498206443
 10
0.4919445782
 20
0.8497765249
 10
0.4943393299
 20
0.8492844836
 10
0.4966291614
 20
0.8484254174
 10
0.4992055124
 20
0.8470203986
 10
0.501563548
 20
0.8452722987
 10
0.5037191037
 20
0.8432791195
 10
0.5057158354
 20
0.8411262987
 10
0.5075831423
 20
0.8388601381
  0
LINE
  5
1D7
330
23
100
AcDbEntity
  8
0
  6
Continuous
 62
     7
370
    25
100
AcDbLine
 10
0.4562419855
 20
0.7570223328
 30
0.0
 11
0.4229974507
 21
0.7817290833
 31
0.0
  0
LINE
  5
1D8
330
23
100
AcDbEntity
  8
0
  6
Continuous
 62
     7
370
    25
100
AcDbLine
 10
0.4587096865
 20
0.7603463261
 30
0.0
 11
0.4562419855
 21
0.7570223328
 31
0.0
  0
LINE
  5
1D9
330
23
100
AcDbEntity
  8
0
  6
Continuous
 62
     7
370
    25
100
AcDbLine
 10
0.4432517141
 20
0.771836262
 30
0.0
 11
0.4587096865
 21
0.7603463261
 31
0.0
  0
LINE
  5
1DA
330
23
100
AcDbEntity
  8
0
  6
Continuous
 62
     7
370
    25
100
AcDbLine
 10
0.4446646149
 20
0.7737414721
 30
0.0
 11
0.4432517141
 21
0.771836262
 31
0.0
  0
LINE
  5
1DB
330
23
100
AcDbEntity
  8
0
  6
Continuous
 62
     7
370
    25
100
AcDbLine
 10
0.4689939884
 20
0.7741794626
 30
0.0
 11
0.4446646149
 21
0.7737414721
 31
0.0
  0
LINE
  5
1DC
330
23
100
AcDbEntity
  8
0
  6
Continuous
 62
     7
370
    25
100
AcDbLine
 10
0.472051678
 20
0.7782928065
 30
0.0
 11
0.4689939884
 21
0.7741794626
 31
0.0
  0
LINE
  5
1DD
330
23
100
AcDbEntity
  8
0
  6
Continuous
 62
     7
370
    25
100
AcDbLine
 10
0.4477033208
 20
0.7778261113
 30
0.0
 11
0.472051678
 21
0.7782928065
 31
0.0
  0
ARC
  5
1DE
330
23
100
AcDbEntity
  8
0
  6
Continuous
 62
     7
370
    25
100
AcDbCircle
 10
0.4394867094
 20
0.7867060652
 30
0.0
 40
0.0120981934254911
100
AcDbArc
 50
312.7780519829
 51
49.8803594458
  0
ARC
  5
1DF
330
23
100
AcDbEntity
  8
0
  6
Continuous
 62
     7
370
    25
100
AcDbCircle
 10
0.4408780285
 20
0.7878020849
 30
0.0
 40
0.0103696909975891
100
AcDbArc
 50
51.8570614785
 51
131.8955198808
  0
ARC
  5
1E0
330
23
100
AcDbEntity
  8
0
  6
Continuous
 62
     7
370
    25
100
AcDbCircle
 10
0.4667573588
 20
0.7617821896
 30
0.0
 40
0.0470574096615176
100
AcDbArc
 50
134.1951772116
 51
145.6207608125
  0
LINE
  5
1E1
330
23
100
AcDbEntity
  8
0
  6
Continuous
 62
     7
370
    25
100
AcDbLine
 10
0.4229974507
 20
0.7817290833
 30
0.0
 11
0.4279200242
 21
0.7883540026
 31
0.0
  0
LINE
  5
1E2
330
23
100
AcDbEntity
  8
0
  6
Continuous
 62
     7
370
    25
100
AcDbLine
 10
0.881459564
 20
0.470556979
 30
0.0
 11
0.8788576123
 21
0.4721127246
 31
0.0
  0
LINE
  5
1E3
330
23
100
AcDbEntity
  8
0
  6
Continuous
 62
     7
370
    25
100
AcDbLine
 10
0.8847875847
 20
0.4761176499
 30
0.0
 11
0.881459564
 21
0.470556979
 31
0.0
  0
LINE
  5
1E4
330
23
100
AcDbEntity
  8
0
  6
Continuous
 62
     7
370
    25
100
AcDbLine
 10
0.8921226935
 20
0.4701477646
 30
0.0
 11
0.8847875847
 21
0.4761176499
 31
0.0
  0
LINE
  5
1E5
330
23
100
AcDbEntity
  8
0
  6
Continuous
 62
     7
370
    25
100
AcDbLine
 10
0.8886674243
 20
0.4643800053
 30
0.0
 11
0.8921226935
 21
0.4701477646
 31
0.0
  0
LINE
  5
1E6
330
23
100
AcDbEntity
  8
0
  6
Continuous
 62
     7
370
    25
100
AcDbLine
 10
0.8912862882
 20
0.4628057939
 30
0.0
 11
0.8886674243
 21
0.4643800053
 31
0.0
  0
LINE
  5
1E7
330
23
100
AcDbEntity
  8
0
  6
Continuous
 62
     7
370
    25
100
AcDbLine
 10
0.8945121994
 20
0.4681937184
 30
0.0
 11
0.8912862882
 21
0.4628057939
 31
0.0
  0
LINE
  5
1E8
330
23
100
AcDbEntity
  8
0
  6
Continuous
 62
     7
370
    25
100
AcDbLine
 10
0.9047770251
 20
0.4597911706
 30
0.0
 11
0.8945121994
 21
0.4681937184
 31
0.0
  0
LINE
  5
1E9
330
23
100
AcDbEntity
  8
0
  6
Continuous
 62
     7
370
    25
100
AcDbLine
 10
0.9063840844
 20
0.4624853918
 30
0.0
 11
0.9047770251
 21
0.4597911706
 31
0.0
  0
LINE
  5
1EA
330
23
100
AcDbEntity
  8
0
  6
Continuous
 62
     7
370
    25
100
AcDbLine
 10
0.8961120676
 20
0.470858717
 30
0.0
 11
0.9063840844
 21
0.4624853918
 31
0.0
  0
LINE
  5
1EB
330
23
100
AcDbEntity
  8
0
  6
Continuous
 62
     7
370
    25
100
AcDbLine
 10
0.9008937244
 20
0.4788485933
 30
0.0
 11
0.8961120676
 21
0.470858717
 31
0.0
  0
LINE
  5
1EC
330
23
100
AcDbEntity
  8
0
  6
Continuous
 62
     7
370
    25
100
AcDbLine
 10
0.9111713786
 20
0.4704691128
 30
0.0
 11
0.9008937244
 21
0.4788485933
 31
0.0
  0
LINE
  5
1ED
330
23
100
AcDbEntity
  8
0
  6
Continuous
 62
     7
370
    25
100
AcDbLine
 10
0.9127081405
 20
0.4730423598
 30
0.0
 11
0.9111713786
 21
0.4704691128
 31
0.0
  0
LINE
  5
1EE
330
23
100
AcDbEntity
  8
0
  6
Continuous
 62
     7
370
    25
100
AcDbLine
 10
0.9024679358
 20
0.4814674571
 30
0.0
 11
0.9127081405
 21
0.4730423598
 31
0.0
  0
LINE
  5
1EF
330
23
100
AcDbEntity
  8
0
  6
Continuous
 62
     7
370
    25
100
AcDbLine
 10
0.9063377982
 20
0.4879318391
 30
0.0
 11
0.9024679358
 21
0.4814674571
 31
0.0
  0
LINE
  5
1F0
330
23
100
AcDbEntity
  8
0
  6
Continuous
 62
     7
370
    25
100
AcDbLine
 10
0.9037189344
 20
0.4895060505
 30
0.0
 11
0.9063377982
 21
0.4879318391
 31
0.0
  0
LINE
  5
1F1
330
23
100
AcDbEntity
  8
0
  6
Continuous
 62
     7
370
    25
100
AcDbLine
 10
0.9000784299
 20
0.4834215032
 30
0.0
 11
0.9037189344
 21
0.4895060505
 31
0.0
  0
LINE
  5
1F2
330
23
100
AcDbEntity
  8
0
  6
Continuous
 62
     7
370
    25
100
AcDbLine
 10
0.8927818064
 20
0.4894605907
 30
0.0
 11
0.9000784299
 21
0.4834215032
 31
0.0
  0
LINE
  5
1F3
330
23
100
AcDbEntity
  8
0
  6
Continuous
 62
     7
370
    25
100
AcDbLine
 10
0.8965690609
 20
0.4957927237
 30
0.0
 11
0.8927818064
 21
0.4894605907
 31
0.0
  0
LINE
  5
1F4
330
23
100
AcDbEntity
  8
0
  6
Continuous
 62
     7
370
    25
100
AcDbLine
 10
0.8939671092
 20
0.4973484693
 30
0.0
 11
0.8965690609
 21
0.4957927237
 31
0.0
  0
LINE
  5
1F5
330
23
100
AcDbEntity
  8
0
  6
Continuous
 62
     7
370
    25
100
AcDbLine
 10
0.8904225589
 20
0.491431031
 30
0.0
 11
0.8939671092
 21
0.4973484693
 31
0.0
  0
LINE
  5
1F6
330
23
100
AcDbEntity
  8
0
  6
Continuous
 62
     7
370
    25
100
AcDbLine
 10
0.8796380595
 20
0.5003762779
 30
0.0
 11
0.8904225589
 21
0.491431031
 31
0.0
  0
LINE
  5
1F7
330
23
100
AcDbEntity
  8
0
  6
Continuous
 62
     7
370
    25
100
AcDbLine
 10
0.8780505018
 20
0.497722554
 30
0.0
 11
0.8796380595
 21
0.5003762779
 31
0.0
  0
LINE
  5
1F8
330
23
100
AcDbEntity
  8
0
  6
Continuous
 62
     7
370
    25
100
AcDbLine
 10
0.8888411565
 20
0.4887829445
 30
0.0
 11
0.8780505018
 21
0.497722554
 31
0.0
  0
LINE
  5
1F9
330
23
100
AcDbEntity
  8
0
  6
Continuous
 62
     7
370
    25
100
AcDbLine
 10
0.8840410339
 20
0.4807761562
 30
0.0
 11
0.8888411565
 21
0.4887829445
 31
0.0
  0
LINE
  5
1FA
330
23
100
AcDbEntity
  8
0
  6
Continuous
 62
     7
370
    25
100
AcDbLine
 10
0.8731990655
 20
0.4896234962
 30
0.0
 11
0.8840410339
 21
0.4807761562
 31
0.0
  0
LINE
  5
1FB
330
23
100
AcDbEntity
  8
0
  6
Continuous
 62
     7
370
    25
100
AcDbLine
 10
0.871585851
 20
0.4869236376
 30
0.0
 11
0.8731990655
 21
0.4896234962
 31
0.0
  0
LINE
  5
1FC
330
23
100
AcDbEntity
  8
0
  6
Continuous
 62
     7
370
    25
100
AcDbLine
 10
0.8824339746
 20
0.4780819349
 30
0.0
 11
0.871585851
 21
0.4869236376
 31
0.0
  0
LINE
  5
1FD
330
23
100
AcDbEntity
  8
0
  6
Continuous
 62
     7
370
    25
100
AcDbLine
 10
0.8788576123
 20
0.4721127246
 30
0.0
 11
0.8824339746
 21
0.4780819349
 31
0.0
  0
LINE
  5
1FE
330
23
100
AcDbEntity
  8
0
  6
Continuous
 62
     7
370
    25
100
AcDbLine
 10
0.8481903541
 20
0.4303889251
 30
0.0
 11
0.8459295908
 21
0.4324495633
 31
0.0
  0
LINE
  5
1FF
330
23
100
AcDbEntity
  8
0
  6
Continuous
 62
     7
370
    25
100
AcDbLine
 10
0.8525850517
 20
0.435217459
 30
0.0
 11
0.8481903541
 21
0.4303889251
 31
0.0
  0
LINE
  5
200
330
23
100
AcDbEntity
  8
0
  6
Continuous
 62
     7
370
    25
100
AcDbLine
 10
0.8586479734
 20
0.4278560604
 30
0.0
 11
0.8525850517
 21
0.435217459
 31
0.0
  0
LINE
  5
201
330
23
100
AcDbEntity
  8
0
  6
Continuous
 62
     7
370
    25
100
AcDbLine
 10
0.8540793747
 20
0.4228343024
 30
0.0
 11
0.8586479734
 21
0.4278560604
 31
0.0
  0
LINE
  5
202
330
23
100
AcDbEntity
  8
0
  6
Continuous
 62
     7
370
    25
100
AcDbLine
 10
0.8563632053
 20
0.4207608357
 30
0.0
 11
0.8540793747
 21
0.4228343024
 31
0.0
  0
LINE
  5
203
330
23
100
AcDbEntity
  8
0
  6
Continuous
 62
     7
370
    25
100
AcDbLine
 10
0.8606276066
 20
0.4254473996
 30
0.0
 11
0.8563632053
 21
0.4207608357
 31
0.0
  0
LINE
  5
204
330
23
100
AcDbEntity
  8
0
  6
Continuous
 62
     7
370
    25
100
AcDbLine
 10
0.8691052151
 20
0.4150910959
 30
0.0
 11
0.8606276066
 21
0.4254473996
 31
0.0
  0
LINE
  5
205
330
23
100
AcDbEntity
  8
0
  6
Continuous
 62
     7
370
    25
100
AcDbLine
 10
0.8712345971
 20
0.4174374554
 30
0.0
 11
0.8691052151
 21
0.4150910959
 31
0.0
  0
LINE
  5
206
330
23
100
AcDbEntity
  8
0
  6
Continuous
 62
     7
370
    25
100
AcDbLine
 10
0.8627441601
 20
0.4277706917
 30
0.0
 11
0.8712345971
 21
0.4174374554
 31
0.0
  0
LINE
  5
207
330
23
100
AcDbEntity
  8
0
  6
Continuous
 62
     7
370
    25
100
AcDbLine
 10
0.8690630443
 20
0.4347123815
 30
0.0
 11
0.8627441601
 21
0.4277706917
 31
0.0
  0
LINE
  5
208
330
23
100
AcDbEntity
  8
0
  6
Continuous
 62
     7
370
    25
100
AcDbLine
 10
0.8775596366
 20
0.4243847825
 30
0.0
 11
0.8690630443
 21
0.4347123815
 31
0.0
  0
LINE
  5
209
330
23
100
AcDbEntity
  8
0
  6
Continuous
 62
     7
370
    25
100
AcDbLine
 10
0.8795956538
 20
0.4266229963
 30
0.0
 11
0.8775596366
 21
0.4243847825
 31
0.0
  0
LINE
  5
20A
330
23
100
AcDbEntity
  8
0
  6
Continuous
 62
     7
370
    25
100
AcDbLine
 10
0.8711421484
 20
0.4369900568
 30
0.0
 11
0.8795956538
 21
0.4266229963
 31
0.0
  0
LINE
  5
20B
330
23
100
AcDbEntity
  8
0
  6
Continuous
 62
     7
370
    25
100
AcDbLine
 10
0.8762632266
 20
0.4426196744
 30
0.0
 11
0.8711421484
 21
0.4369900568
 31
0.0
  0
LINE
  5
20C
330
23
100
AcDbEntity
  8
0
  6
Continuous
 62
     7
370
    25
100
AcDbLine
 10
0.873979396
 20
0.4446931411
 30
0.0
 11
0.8762632266
 21
0.4426196744
 31
0.0
  0
LINE
  5
20D
330
23
100
AcDbEntity
  8
0
  6
Continuous
 62
     7
370
    25
100
AcDbLine
 10
0.8691625152
 20
0.4393987177
 30
0.0
 11
0.873979396
 21
0.4446931411
 31
0.0
  0
LINE
  5
20E
330
23
100
AcDbEntity
  8
0
  6
Continuous
 62
     7
370
    25
100
AcDbLine
 10
0.8631498714
 20
0.4468288005
 30
0.0
 11
0.8691625152
 21
0.4393987177
 31
0.0
  0
LINE
  5
20F
330
23
100
AcDbEntity
  8
0
  6
Continuous
 62
     7
370
    25
100
AcDbLine
 10
0.8681591191
 20
0.4523333602
 30
0.0
 11
0.8631498714
 21
0.4468288005
 31
0.0
  0
LINE
  5
210
330
23
100
AcDbEntity
  8
0
  6
Continuous
 62
     7
370
    25
100
AcDbLine
 10
0.8658983559
 20
0.4543939984
 30
0.0
 11
0.8681591191
 21
0.4523333602
 31
0.0
  0
LINE
  5
211
330
23
100
AcDbEntity
  8
0
  6
Continuous
 62
     7
370
    25
100
AcDbLine
 10
0.8612179266
 20
0.4492471824
 30
0.0
 11
0.8658983559
 21
0.4543939984
 31
0.0
  0
LINE
  5
212
330
23
100
AcDbEntity
  8
0
  6
Continuous
 62
     7
370
    25
100
AcDbLine
 10
0.8523309212
 20
0.4602358651
 30
0.0
 11
0.8612179266
 21
0.4492471824
 31
0.0
  0
LINE
  5
213
330
23
100
AcDbEntity
  8
0
  6
Continuous
 62
     7
370
    25
100
AcDbLine
 10
0.8502333514
 20
0.4579412777
 30
0.0
 11
0.8523309212
 21
0.4602358651
 31
0.0
  0
LINE
  5
214
330
23
100
AcDbEntity
  8
0
  6
Continuous
 62
     7
370
    25
100
AcDbLine
 10
0.8591198389
 20
0.4469408023
 30
0.0
 11
0.8502333514
 21
0.4579412777
 31
0.0
  0
LINE
  5
215
330
23
100
AcDbEntity
  8
0
  6
Continuous
 62
     7
370
    25
100
AcDbLine
 10
0.8527824889
 20
0.4399822005
 30
0.0
 11
0.8591198389
 21
0.4469408023
 31
0.0
  0
LINE
  5
216
330
23
100
AcDbEntity
  8
0
  6
Continuous
 62
     7
370
    25
100
AcDbLine
 10
0.8438211024
 20
0.4508914421
 30
0.0
 11
0.8527824889
 21
0.4399822005
 31
0.0
  0
LINE
  5
217
330
23
100
AcDbEntity
  8
0
  6
Continuous
 62
     7
370
    25
100
AcDbLine
 10
0.8416860831
 20
0.4485512378
 30
0.0
 11
0.8438211024
 21
0.4508914421
 31
0.0
  0
LINE
  5
218
330
23
100
AcDbEntity
  8
0
  6
Continuous
 62
     7
370
    25
100
AcDbLine
 10
0.8506474695
 20
0.4376419962
 30
0.0
 11
0.8416860831
 21
0.4485512378
 31
0.0
  0
LINE
  5
219
330
23
100
AcDbEntity
  8
0
  6
Continuous
 62
     7
370
    25
100
AcDbLine
 10
0.8459295908
 20
0.4324495633
 30
0.0
 11
0.8506474695
 21
0.4376419962
 31
0.0
  0
LINE
  5
21A
330
23
100
AcDbEntity
  8
0
  6
Continuous
 62
     7
370
    25
100
AcDbLine
 10
0.8079762626
 20
0.3980023095
 30
0.0
 11
0.8061812278
 21
0.4004442173
 31
0.0
  0
LINE
  5
21B
330
23
100
AcDbEntity
  8
0
  6
Continuous
 62
     7
370
    25
100
AcDbLine
 10
0.813196546
 20
0.4018552638
 30
0.0
 11
0.8079762626
 21
0.3980023095
 31
0.0
  0
LINE
  5
21C
330
23
100
AcDbEntity
  8
0
  6
Continuous
 62
     7
370
    25
100
AcDbLine
 10
0.8176741774
 20
0.39350601
 30
0.0
 11
0.813196546
 21
0.4018552638
 31
0.0
  0
LINE
  5
21D
330
23
100
AcDbEntity
  8
0
  6
Continuous
 62
     7
370
    25
100
AcDbLine
 10
0.8122528419
 20
0.3895141932
 30
0.0
 11
0.8176741774
 21
0.39350601
 31
0.0
  0
LINE
  5
21E
330
23
100
AcDbEntity
  8
0
  6
Continuous
 62
     7
370
    25
100
AcDbLine
 10
0.8140647888
 20
0.3870538196
 30
0.0
 11
0.8122528419
 21
0.3895141932
 31
0.0
  0
LINE
  5
21F
330
23
100
AcDbEntity
  8
0
  6
Continuous
 62
     7
370
    25
100
AcDbLine
 10
0.8191260711
 20
0.3907837876
 30
0.0
 11
0.8140647888
 21
0.3870538196
 31
0.0
  0
LINE
  5
220
330
23
100
AcDbEntity
  8
0
  6
Continuous
 62
     7
370
    25
100
AcDbLine
 10
0.8253634609
 20
0.3790548528
 30
0.0
 11
0.8191260711
 21
0.3907837876
 31
0.0
  0
LINE
  5
221
330
23
100
AcDbEntity
  8
0
  6
Continuous
 62
     7
370
    25
100
AcDbLine
 10
0.8278910245
 20
0.3809170181
 30
0.0
 11
0.8253634609
 21
0.3790548528
 31
0.0
  0
LINE
  5
222
330
23
100
AcDbEntity
  8
0
  6
Continuous
 62
     7
370
    25
100
AcDbLine
 10
0.8216351688
 20
0.3926290407
 30
0.0
 11
0.8278910245
 21
0.3809170181
 31
0.0
  0
LINE
  5
223
330
23
100
AcDbEntity
  8
0
  6
Continuous
 62
     7
370
    25
100
AcDbLine
 10
0.8291383589
 20
0.3981540434
 30
0.0
 11
0.8216351688
 21
0.3926290407
 31
0.0
  0
LINE
  5
224
330
23
100
AcDbEntity
  8
0
  6
Continuous
 62
     7
370
    25
100
AcDbLine
 10
0.8353885772
 20
0.3864481761
 30
0.0
 11
0.8291383589
 21
0.3981540434
 31
0.0
  0
LINE
  5
225
330
23
100
AcDbEntity
  8
0
  6
Continuous
 62
     7
370
    25
100
AcDbLine
 10
0.8378063817
 20
0.388232454
 30
0.0
 11
0.8353885772
 21
0.3864481761
 31
0.0
  0
LINE
  5
226
330
23
100
AcDbEntity
  8
0
  6
Continuous
 62
     7
370
    25
100
AcDbLine
 10
0.831593095
 20
0.3999721455
 30
0.0
 11
0.8378063817
 21
0.388232454
 31
0.0
  0
LINE
  5
227
330
23
100
AcDbEntity
  8
0
  6
Continuous
 62
     7
370
    25
100
AcDbLine
 10
0.8376796575
 20
0.4044487166
 30
0.0
 11
0.831593095
 21
0.3999721455
 31
0.0
  0
LINE
  5
228
330
23
100
AcDbEntity
  8
0
  6
Continuous
 62
     7
370
    25
100
AcDbLine
 10
0.8358677107
 20
0.4069090902
 30
0.0
 11
0.8376796575
 21
0.4044487166
 31
0.0
  0
LINE
  5
229
330
23
100
AcDbEntity
  8
0
  6
Continuous
 62
     7
370
    25
100
AcDbLine
 10
0.8301473567
 20
0.4027000054
 30
0.0
 11
0.8358677107
 21
0.4069090902
 31
0.0
  0
LINE
  5
22A
330
23
100
AcDbEntity
  8
0
  6
Continuous
 62
     7
370
    25
100
AcDbLine
 10
0.8257307599
 20
0.4110938402
 30
0.0
 11
0.8301473567
 21
0.4027000054
 31
0.0
  0
LINE
  5
22B
330
23
100
AcDbEntity
  8
0
  6
Continuous
 62
     7
370
    25
100
AcDbLine
 10
0.831677305
 20
0.4154761297
 30
0.0
 11
0.8257307599
 21
0.4110938402
 31
0.0
  0
LINE
  5
22C
330
23
100
AcDbEntity
  8
0
  6
Continuous
 62
     7
370
    25
100
AcDbLine
 10
0.8298822703
 20
0.4179180374
 30
0.0
 11
0.831677305
 21
0.4154761297
 31
0.0
  0
LINE
  5
22D
330
23
100
AcDbEntity
  8
0
  6
Continuous
 62
     7
370
    25
100
AcDbLine
 10
0.8243203994
 20
0.4138201464
 30
0.0
 11
0.8298822703
 21
0.4179180374
 31
0.0
  0
LINE
  5
22E
330
23
100
AcDbEntity
  8
0
  6
Continuous
 62
     7
370
    25
100
AcDbLine
 10
0.8178120765
 20
0.4262403638
 30
0.0
 11
0.8243203994
 21
0.4138201464
 31
0.0
  0
LINE
  5
22F
330
23
100
AcDbEntity
  8
0
  6
Continuous
 62
     7
370
    25
100
AcDbLine
 10
0.8153214445
 20
0.4244120227
 30
0.0
 11
0.8178120765
 21
0.4262403638
 31
0.0
  0
LINE
  5
230
330
23
100
AcDbEntity
  8
0
  6
Continuous
 62
     7
370
    25
100
AcDbLine
 10
0.8218354049
 20
0.41198565
 30
0.0
 11
0.8153214445
 21
0.4244120227
 31
0.0
  0
LINE
  5
231
330
23
100
AcDbEntity
  8
0
  6
Continuous
 62
     7
370
    25
100
AcDbLine
 10
0.814313749
 20
0.4064437352
 30
0.0
 11
0.8218354049
 21
0.41198565
 31
0.0
  0
LINE
  5
232
330
23
100
AcDbEntity
  8
0
  6
Continuous
 62
     7
370
    25
100
AcDbLine
 10
0.8077141329
 20
0.4188029774
 30
0.0
 11
0.814313749
 21
0.4064437352
 31
0.0
  0
LINE
  5
233
330
23
100
AcDbEntity
  8
0
  6
Continuous
 62
     7
370
    25
100
AcDbLine
 10
0.8051804141
 20
0.4169351748
 30
0.0
 11
0.8077141329
 21
0.4188029774
 31
0.0
  0
LINE
  5
234
330
23
100
AcDbEntity
  8
0
  6
Continuous
 62
     7
370
    25
100
AcDbLine
 10
0.8117800302
 20
0.4045759326
 30
0.0
 11
0.8051804141
 21
0.4169351748
 31
0.0
  0
LINE
  5
235
330
23
100
AcDbEntity
  8
0
  6
Continuous
 62
     7
370
    25
100
AcDbLine
 10
0.8061812278
 20
0.4004442173
 30
0.0
 11
0.8117800302
 21
0.4045759326
 31
0.0
  0
LINE
  5
236
330
23
100
AcDbEntity
  8
0
  6
Continuous
 62
     7
370
    25
100
AcDbLine
 10
0.7619585803
 20
0.3737058421
 30
0.0
 11
0.7606676998
 21
0.3764623472
 31
0.0
  0
LINE
  5
237
330
23
100
AcDbEntity
  8
0
  6
Continuous
 62
     7
370
    25
100
AcDbLine
 10
0.767857241
 20
0.3764597125
 30
0.0
 11
0.7619585803
 21
0.3737058421
 31
0.0
  0
LINE
  5
238
330
23
100
AcDbEntity
  8
0
  6
Continuous
 62
     7
370
    25
100
AcDbLine
 10
0.7706127912
 20
0.3673708261
 30
0.0
 11
0.767857241
 21
0.3764597125
 31
0.0
  0
LINE
  5
239
330
23
100
AcDbEntity
  8
0
  6
Continuous
 62
     7
370
    25
100
AcDbLine
 10
0.7644966841
 20
0.3645083515
 30
0.0
 11
0.7706127912
 21
0.3673708261
 31
0.0
  0
LINE
  5
23A
330
23
100
AcDbEntity
  8
0
  6
Continuous
 62
     7
370
    25
100
AcDbLine
 10
0.7657983214
 20
0.3617277433
 30
0.0
 11
0.7644966841
 21
0.3645083515
 31
0.0
  0
LINE
  5
23B
330
23
100
AcDbEntity
  8
0
  6
Continuous
 62
     7
370
    25
100
AcDbLine
 10
0.7715103122
 20
0.3644011963
 30
0.0
 11
0.7657983214
 21
0.3617277433
 31
0.0
  0
LINE
  5
23C
330
23
100
AcDbEntity
  8
0
  6
Continuous
 62
     7
370
    25
100
AcDbLine
 10
0.7753338201
 20
0.3516499032
 30
0.0
 11
0.7715103122
 21
0.3644011963
 31
0.0
  0
LINE
  5
23D
330
23
100
AcDbEntity
  8
0
  6
Continuous
 62
     7
370
    25
100
AcDbLine
 10
0.7781867379
 20
0.352983811
 30
0.0
 11
0.7753338201
 21
0.3516499032
 31
0.0
  0
LINE
  5
23E
330
23
100
AcDbEntity
  8
0
  6
Continuous
 62
     7
370
    25
100
AcDbLine
 10
0.7743391268
 20
0.3657243473
 30
0.0
 11
0.7781867379
 21
0.352983811
 31
0.0
  0
LINE
  5
23F
330
23
100
AcDbEntity
  8
0
  6
Continuous
 62
     7
370
    25
100
AcDbLine
 10
0.7828076226
 20
0.3696886808
 30
0.0
 11
0.7743391268
 21
0.3657243473
 31
0.0
  0
LINE
  5
240
330
23
100
AcDbEntity
  8
0
  6
Continuous
 62
     7
370
    25
100
AcDbLine
 10
0.7866552337
 20
0.3569481446
 30
0.0
 11
0.7828076226
 21
0.3696886808
 31
0.0
  0
LINE
  5
241
330
23
100
AcDbEntity
  8
0
  6
Continuous
 62
     7
370
    25
100
AcDbLine
 10
0.7893814804
 20
0.3582226308
 30
0.0
 11
0.7866552337
 21
0.3569481446
 31
0.0
  0
LINE
  5
242
330
23
100
AcDbEntity
  8
0
  6
Continuous
 62
     7
370
    25
100
AcDbLine
 10
0.7855882309
 20
0.3709903181
 30
0.0
 11
0.7893814804
 21
0.3582226308
 31
0.0
  0
LINE
  5
243
330
23
100
AcDbEntity
  8
0
  6
Continuous
 62
     7
370
    25
100
AcDbLine
 10
0.7924402612
 20
0.3741985654
 30
0.0
 11
0.7855882309
 21
0.3709903181
 31
0.0
  0
LINE
  5
244
330
23
100
AcDbEntity
  8
0
  6
Continuous
 62
     7
370
    25
100
AcDbLine
 10
0.7911386239
 20
0.3769791736
 30
0.0
 11
0.7924402612
 21
0.3741985654
 31
0.0
  0
LINE
  5
245
330
23
100
AcDbEntity
  8
0
  6
Continuous
 62
     7
370
    25
100
AcDbLine
 10
0.7846907099
 20
0.373959948
 30
0.0
 11
0.7911386239
 21
0.3769791736
 31
0.0
  0
LINE
  5
246
330
23
100
AcDbEntity
  8
0
  6
Continuous
 62
     7
370
    25
100
AcDbLine
 10
0.7820018318
 20
0.3830872601
 30
0.0
 11
0.7846907099
 21
0.373959948
 31
0.0
  0
LINE
  5
247
330
23
100
AcDbEntity
  8
0
  6
Continuous
 62
     7
370
    25
100
AcDbLine
 10
0.7887148806
 20
0.386224811
 30
0.0
 11
0.7820018318
 21
0.3830872601
 31
0.0
  0
LINE
  5
248
330
23
100
AcDbEntity
  8
0
  6
Continuous
 62
     7
370
    25
100
AcDbLine
 10
0.7874240001
 20
0.3889813161
 30
0.0
 11
0.7887148806
 21
0.386224811
 31
0.0
  0
LINE
  5
249
330
23
100
AcDbEntity
  8
0
  6
Continuous
 62
     7
370
    25
100
AcDbLine
 10
0.7811453262
 20
0.386049181
 30
0.0
 11
0.7874240001
 21
0.3889813161
 31
0.0
  0
LINE
  5
24A
330
23
100
AcDbEntity
  8
0
  6
Continuous
 62
     7
370
    25
100
AcDbLine
 10
0.7771893488
 20
0.3995506605
 30
0.0
 11
0.7811453262
 21
0.386049181
 31
0.0
  0
LINE
  5
24B
330
23
100
AcDbEntity
  8
0
  6
Continuous
 62
     7
370
    25
100
AcDbLine
 10
0.7743784821
 20
0.398232629
 30
0.0
 11
0.7771893488
 21
0.3995506605
 31
0.0
  0
LINE
  5
24C
330
23
100
AcDbEntity
  8
0
  6
Continuous
 62
     7
370
    25
100
AcDbLine
 10
0.7783406147
 20
0.3847367868
 30
0.0
 11
0.7743784821
 21
0.398232629
 31
0.0
  0
LINE
  5
24D
330
23
100
AcDbEntity
  8
0
  6
Continuous
 62
     7
370
    25
100
AcDbLine
 10
0.7698536531
 20
0.3807555412
 30
0.0
 11
0.7783406147
 21
0.3847367868
 31
0.0
  0
LINE
  5
24E
330
23
100
AcDbEntity
  8
0
  6
Continuous
 62
     7
370
    25
100
AcDbLine
 10
0.7657894704
 20
0.3942145112
 30
0.0
 11
0.7698536531
 21
0.3807555412
 31
0.0
  0
LINE
  5
24F
330
23
100
AcDbEntity
  8
0
  6
Continuous
 62
     7
370
    25
100
AcDbLine
 10
0.7629303974
 20
0.392874966
 30
0.0
 11
0.7657894704
 21
0.3942145112
 31
0.0
  0
LINE
  5
250
330
23
100
AcDbEntity
  8
0
  6
Continuous
 62
     7
370
    25
100
AcDbLine
 10
0.7670007354
 20
0.3794216334
 30
0.0
 11
0.7629303974
 21
0.392874966
 31
0.0
  0
LINE
  5
251
330
23
100
AcDbEntity
  8
0
  6
Continuous
 62
     7
370
    25
100
AcDbLine
 10
0.7606676998
 20
0.3764623472
 30
0.0
 11
0.7670007354
 21
0.3794216334
 31
0.0
  0
LINE
  5
252
330
23
100
AcDbEntity
  8
0
  6
Continuous
 62
     7
370
    25
100
AcDbLine
 10
0.4412663423
 20
0.7512641429
 30
0.0
 11
0.4449541854
 21
0.7530458139
 31
0.0
  0
ARC
  5
253
330
23
100
AcDbEntity
  8
0
  6
Continuous
 62
     7
370
    25
100
AcDbCircle
 10
0.4769468323
 20
0.8031497399
 30
0.0
 40
0.0118863089221368
100
AcDbArc
 50
237.1836984808
 51
269.4162577316
  0
LINE
  5
254
330
23
100
AcDbEntity
  8
0
  6
Continuous
 62
     7
370
    25
100
AcDbLine
 10
0.4676545546
 20
0.7902666952
 30
0.0
 11
0.4705050787
 21
0.7931603379
 31
0.0
  0
LWPOLYLINE
  5
255
330
23
100
AcDbEntity
  8
0
  6
Continuous
 62
     7
370
    25
100
AcDbPolyline
 90
       12
 70
   128
 43
0.0
 10
0.4852515989
 20
0.82136162
 10
0.4835027453
 20
0.8236955729
 10
0.4818637893
 20
0.8261079019
 10
0.4804018206
 20
0.8286308673
 10
0.4791914133
 20
0.8312828063
 10
0.4783812038
 20
0.8340819541
 10
0.4780512601
 20
0.8364880679
 10
0.4781281669
 20
0.8389147476
 10
0.4786466068
 20
0.8412854537
 10
0.4796167003
 20
0.843510186
 10
0.4810110931
 20
0.8454961361
 10
0.4827694762
 20
0.8471690722
  0
LWPOLYLINE
  5
256
330
23
100
AcDbEntity
  8
0
  6
Continuous
 62
     7
370
    25
100
AcDbPolyline
 90
       12
 70
   128
 43
0.0
 10
0.5096939371
 20
0.8128031475
 10
0.5076556701
 20
0.8114906465
 10
0.5054009661
 20
0.8106007293
 10
0.5030116066
 20
0.810191183
 10
0.5005881078
 20
0.8102603116
 10
0.4982213761
 20
0.8107879375
 10
0.4959662714
 20
0.8116812886
 10
0.4934456933
 20
0.8131366135
 10
0.4911569569
 20
0.8149358797
 10
0.4890514491
 20
0.8169482745
 10
0.4870965732
 20
0.819107663
 10
0.4852515989
 20
0.82136162
  0
ARC
  5
257
330
23
100
AcDbEntity
  8
0
  6
Continuous
 62
     7
370
    25
100
AcDbCircle
 10
0.4782424234
 20
0.8029120767
 30
0.0
 40
0.0113170557624426
100
AcDbArc
 50
45.2545250319
 51
85.9378021081
  0
ARC
  5
258
330
23
100
AcDbEntity
  8
0
  6
Continuous
 62
     7
370
    25
100
AcDbCircle
 10
0.4780201199
 20
0.8020838151
 30
0.0
 40
0.0121600778605673
100
AcDbArc
 50
85.1694196026
 51
113.9986253239
  0
ARC
  5
259
330
23
100
AcDbEntity
  8
0
  6
Continuous
 62
     7
370
    25
100
AcDbCircle
 10
0.4636548434
 20
0.8133475566
 30
0.0
 40
0.0123940668734361
100
AcDbArc
 50
136.0098805328
 51
217.4977007476
  0
LWPOLYLINE
  5
25A
330
23
100
AcDbEntity
  8
0
  6
Continuous
 62
     7
370
    25
100
AcDbPolyline
 90
       12
 70
   128
 43
0.0
 10
0.5075831423
 20
0.8388601381
 10
0.5093371227
 20
0.8365087087
 10
0.5109501568
 20
0.8340586623
 10
0.5123697632
 20
0.8314918703
 10
0.5135089245
 20
0.828789782
 10
0.5142490025
 20
0.8259530812
 10
0.5145323239
 20
0.8235262972
 10
0.514419852
 20
0.821086648
 10
0.5138616571
 20
0.8187098255
 10
0.5128729253
 20
0.8164773947
 10
0.5114642815
 20
0.8144844079
 10
0.5096939371
 20
0.8128031475
  0
ARC
  5
25B
330
23
100
AcDbEntity
  8
0
  6
Continuous
 62
     7
370
    25
100
AcDbCircle
 10
0.4244177103
 20
0.74215224
 30
0.0
 40
0.0216093179076961
100
AcDbArc
 50
284.6453166767
 51
335.5899415064
  0
ARC
  5
25C
330
23
100
AcDbEntity
  8
0
  6
Continuous
 62
     7
370
    25
100
AcDbCircle
 10
0.4243295953
 20
0.7440087203
 30
0.0
 40
0.0225176103594741
100
AcDbArc
 50
331.3772670987
 51
23.6616301063
  0
ARC
  5
25D
330
23
100
AcDbEntity
  8
0
  6
Continuous
 62
     7
370
    25
100
AcDbCircle
 10
0.4241085732
 20
0.7424021733
 30
0.0
 40
0.021497788815068
100
AcDbArc
 50
150.7678182836
 51
243.018827711
  0
ARC
  5
25E
330
23
100
AcDbEntity
  8
0
  6
Continuous
 62
     7
370
    25
100
AcDbCircle
 10
0.4241418532
 20
0.7438079785
 30
0.0
 40
0.0186773262045522
100
AcDbArc
 50
332.6215413969
 51
23.5287644565
  0
ARC
  5
25F
330
23
100
AcDbEntity
  8
0
  6
Continuous
 62
     7
370
    25
100
AcDbCircle
 10
0.4249357714
 20
0.7437621009
 30
0.0
 40
0.0216141347293153
100
AcDbArc
 50
99.5504663521
 51
154.9883377818
  0
ARC
  5
260
330
23
100
AcDbEntity
  8
0
  6
Continuous
 62
     7
370
    25
100
AcDbCircle
 10
0.5312152312
 20
0.8425052081
 30
0.0
 40
0.0081459880626671
100
AcDbArc
 50
33.0845687717
 51
110.9122261095
  0
LINE
  5
261
330
23
100
AcDbEntity
  8
0
  6
Continuous
 62
     7
370
    25
100
AcDbLine
 10
0.519667638
 20
0.8456083891
 30
0.0
 11
0.5277546026
 21
0.8318723203
 31
0.0
  0
LINE
  5
262
330
23
100
AcDbEntity
  8
0
  6
Continuous
 62
     7
370
    25
100
AcDbLine
 10
0.521687303
 20
0.8468016601
 30
0.0
 11
0.519667638
 21
0.8456083891
 31
0.0
  0
ARC
  5
263
330
23
100
AcDbEntity
  8
0
  6
Continuous
 62
     7
370
    25
100
AcDbCircle
 10
0.5416894837
 20
0.8151021644
 30
0.0
 40
0.0374825994181593
100
AcDbArc
 50
110.9170054077
 51
122.2516656662
  0
LWPOLYLINE
  5
264
330
23
100
AcDbEntity
  8
0
  6
Continuous
 62
     7
370
    25
100
AcDbPolyline
 90
       10
 70
   128
 43
0.0
 10
0.5321878101
 20
0.8344837798
 10
0.5336723826
 20
0.8354017844
 10
0.5351074751
 20
0.8363954269
 10
0.5364512463
 20
0.8375090635
 10
0.5376084509
 20
0.8388131293
 10
0.538453015
 20
0.8403386306
 10
0.5389165162
 20
0.841987052
 10
0.5390171809
 20
0.8436968136
 10
0.5387290114
 20
0.8453854121
 10
0.5380404757
 20
0.8469519101
  0
LINE
  5
265
330
23
100
AcDbEntity
  8
0
  6
Continuous
 62
     7
370
    25
100
AcDbLine
 10
0.5277546026
 20
0.8318723203
 30
0.0
 11
0.5321878101
 21
0.8344837798
 31
0.0
  0
LWPOLYLINE
  5
266
330
23
100
AcDbEntity
  8
0
  6
Continuous
 62
     7
370
    25
100
AcDbPolyline
 90
        9
 70
   128
 43
0.0
 10
0.5252185275
 20
0.862101093
 10
0.5243508964
 20
0.8632834568
 10
0.5232260285
 20
0.8642223603
 10
0.5218820925
 20
0.8648064406
 10
0.5204303841
 20
0.8650075847
 10
0.5189735926
 20
0.864836454
 10
0.5175680919
 20
0.8644131616
 10
0.5162201462
 20
0.8638301165
 10
0.5149309882
 20
0.8631259353
  0
LWPOLYLINE
  5
267
330
23
100
AcDbEntity
  8
0
  6
Continuous
 62
     7
370
    25
100
AcDbPolyline
 90
       10
 70
   128
 43
0.0
 10
0.5195836057
 20
0.850420938
 10
0.5211492057
 20
0.8513849174
 10
0.5226498607
 20
0.8524467433
 10
0.5240424489
 20
0.8536456164
 10
0.5251724067
 20
0.8550918426
 10
0.5259063264
 20
0.8567733178
 10
0.5261589635
 20
0.8585906122
 10
0.5260682307
 20
0.859813268
 10
0.5257459811
 20
0.8609947694
 10
0.5252185275
 20
0.862101093
  0
LINE
  5
268
330
23
100
AcDbEntity
  8
0
  6
Continuous
 62
     7
370
    25
100
AcDbLine
 10
0.5175398375
 20
0.8492169101
 30
0.0
 11
0.5195836057
 21
0.850420938
 31
0.0
  0
LINE
  5
269
330
23
100
AcDbEntity
  8
0
  6
Continuous
 62
     7
370
    25
100
AcDbLine
 10
0.5107890902
 20
0.8606907285
 30
0.0
 11
0.5175398375
 21
0.8492169101
 31
0.0
  0
LINE
  5
26A
330
23
100
AcDbEntity
  8
0
  6
Continuous
 62
     7
370
    25
100
AcDbLine
 10
0.5149309882
 20
0.8631259353
 30
0.0
 11
0.5107890902
 21
0.8606907285
 31
0.0
  0
LWPOLYLINE
  5
26B
330
23
100
AcDbEntity
  8
0
  6
Continuous
 62
     7
370
    25
100
AcDbPolyline
 90
       11
 70
   128
 43
0.0
 10
0.4853184836
 20
0.8441387296
 10
0.4839567655
 20
0.8427839664
 10
0.4829578382
 20
0.8411397851
 10
0.4823237028
 20
0.8393249471
 10
0.4820683336
 20
0.8374210061
 10
0.4821827073
 20
0.8355021079
 10
0.4825881748
 20
0.8336226535
 10
0.4836356603
 20
0.8309370388
 10
0.4850534297
 20
0.8284239601
 10
0.486665201
 20
0.8260303854
 10
0.4883977368
 20
0.8237224037
  0
LWPOLYLINE
  5
26C
330
23
100
AcDbEntity
  8
0
  6
Continuous
 62
     7
370
    25
100
AcDbPolyline
 90
       11
 70
   128
 43
0.0
 10
0.5045620624
 20
0.8363875239
 10
0.5027205757
 20
0.8386059845
 10
0.5007355015
 20
0.8406967913
 10
0.498568845
 20
0.8425978597
 10
0.4961725232
 20
0.8441978077
 10
0.4944487216
 20
0.8450468227
 10
0.4926189558
 20
0.8456308447
 10
0.4907130841
 20
0.8458589892
 10
0.4887995585
 20
0.8456926566
 10
0.4869620951
 20
0.8451296179
 10
0.4853184836
 20
0.8441387296
  0
ARC
  5
26D
330
23
100
AcDbEntity
  8
0
  6
Continuous
 62
     7
370
    25
100
AcDbCircle
 10
0.4788208866
 20
0.8154060898
 30
0.0
 40
0.0332088648725024
100
AcDbArc
 50
20.4894663783
 51
39.1832115851
  0
ARC
  5
26E
330
23
100
AcDbEntity
  8
0
  6
Continuous
 62
     7
370
    25
100
AcDbCircle
 10
0.5009442471
 20
0.8231374521
 30
0.0
 40
0.0097917171255186
100
AcDbArc
 50
311.9392819116
 51
23.4264531863
  0
LWPOLYLINE
  5
26F
330
23
100
AcDbEntity
  8
0
  6
Continuous
 62
     7
370
    25
100
AcDbPolyline
 90
       12
 70
   128
 43
0.0
 10
0.4883977368
 20
0.8237224037
 10
0.4902241068
 20
0.8214883946
 10
0.4921642607
 20
0.8193528834
 10
0.4942647491
 20
0.817375702
 10
0.4966213498
 20
0.8157167159
 10
0.4983466052
 20
0.8148691461
 10
0.5001844418
 20
0.8143078212
 10
0.5020950914
 20
0.8141093137
 10
0.5035345011
 20
0.8142122218
 10
0.5049434318
 20
0.8145216256
 10
0.5062793154
 20
0.8150672563
 10
0.5074884697
 20
0.815853849
  0
LINE
  5
270
330
23
100
AcDbEntity
  8
0
  6
Continuous
 62
     7
370
    25
100
AcDbLine
 10
0.8911947666
 20
0.4868186594
 30
0.0
 11
0.8864192651
 21
0.4788344205
 31
0.0
  0
LINE
  5
271
330
23
100
AcDbEntity
  8
0
  6
Continuous
 62
     7
370
    25
100
AcDbLine
 10
0.8937097333
 20
0.4727896958
 30
0.0
 11
0.8985170469
 21
0.4808257068
 31
0.0
  0
LINE
  5
272
330
23
100
AcDbEntity
  8
0
  6
Continuous
 62
     7
370
    25
100
AcDbLine
 10
0.8864192651
 20
0.4788344205
 30
0.0
 11
0.8937097333
 21
0.4727896958
 31
0.0
  0
LINE
  5
273
330
23
100
AcDbEntity
  8
0
  6
Continuous
 62
     7
370
    25
100
AcDbLine
 10
0.8985170469
 20
0.4808257068
 30
0.0
 11
0.8911947666
 21
0.4868186594
 31
0.0
  0
LINE
  5
274
330
23
100
AcDbEntity
  8
0
  6
Continuous
 62
     7
370
    25
100
AcDbLine
 10
0.7707404172
 20
0.3778100145
 30
0.0
 11
0.7734175027
 21
0.3686832203
 31
0.0
  0
LINE
  5
275
330
23
100
AcDbEntity
  8
0
  6
Continuous
 62
     7
370
    25
100
AcDbLine
 10
0.7791971204
 20
0.3817748659
 30
0.0
 11
0.7707404172
 21
0.3778100145
 31
0.0
  0
LINE
  5
276
330
23
100
AcDbEntity
  8
0
  6
Continuous
 62
     7
370
    25
100
AcDbLine
 10
0.7819342048
 20
0.3726690675
 30
0.0
 11
0.7791971204
 21
0.3817748659
 31
0.0
  0
LINE
  5
277
330
23
100
AcDbEntity
  8
0
  6
Continuous
 62
     7
370
    25
100
AcDbLine
 10
0.7734175027
 20
0.3686832203
 30
0.0
 11
0.7819342048
 21
0.3726690675
 31
0.0
  0
LINE
  5
278
330
23
100
AcDbEntity
  8
0
  6
Continuous
 62
     7
370
    25
100
AcDbLine
 10
0.8607455432
 20
0.4301506479
 30
0.0
 11
0.8671080322
 21
0.4371435919
 31
0.0
  0
LINE
  5
279
330
23
100
AcDbEntity
  8
0
  6
Continuous
 62
     7
370
    25
100
AcDbLine
 10
0.8547390547
 20
0.437586368
 30
0.0
 11
0.8607455432
 21
0.4301506479
 31
0.0
  0
LINE
  5
27A
330
23
100
AcDbEntity
  8
0
  6
Continuous
 62
     7
370
    25
100
AcDbLine
 10
0.8610579389
 20
0.4445280577
 30
0.0
 11
0.8547390547
 21
0.437586368
 31
0.0
  0
LINE
  5
27B
330
23
100
AcDbEntity
  8
0
  6
Continuous
 62
     7
370
    25
100
AcDbLine
 10
0.8671080322
 20
0.4371435919
 30
0.0
 11
0.8610579389
 21
0.4445280577
 31
0.0
  0
LINE
  5
27C
330
23
100
AcDbEntity
  8
0
  6
Continuous
 62
     7
370
    25
100
AcDbLine
 10
0.820159172
 20
0.3953405064
 30
0.0
 11
0.8277110863
 21
0.4008988154
 31
0.0
  0
LINE
  5
27D
330
23
100
AcDbEntity
  8
0
  6
Continuous
 62
     7
370
    25
100
AcDbLine
 10
0.8157425753
 20
0.4037343412
 30
0.0
 11
0.820159172
 21
0.3953405064
 31
0.0
  0
LINE
  5
27E
330
23
100
AcDbEntity
  8
0
  6
Continuous
 62
     7
370
    25
100
AcDbLine
 10
0.8232519206
 20
0.4092649812
 30
0.0
 11
0.8157425753
 21
0.4037343412
 31
0.0
  0
LINE
  5
27F
330
23
100
AcDbEntity
  8
0
  6
Continuous
 62
     7
370
    25
100
AcDbLine
 10
0.8277110863
 20
0.4008988154
 30
0.0
 11
0.8232519206
 21
0.4092649812
 31
0.0
  0
CIRCLE
  5
280
330
23
100
AcDbEntity
  8
0
  6
Continuous
 62
     7
370
    25
100
AcDbCircle
 10
1.7407385348
 20
0.6507500383
 30
0.0
 40
0.3925478037114737
  0
CIRCLE
  5
281
330
23
100
AcDbEntity
  8
0
  6
Continuous
 62
     7
370
    25
100
AcDbCircle
 10
1.7407385348
 20
0.6507500383
 30
0.0
 40
0.3232775590551177
  0
CIRCLE
  5
282
330
23
100
AcDbEntity
  8
0
  6
Continuous
 62
     7
370
    25
100
AcDbCircle
 10
1.7407385348
 20
0.6507500383
 30
0.0
 40
0.2239665354330711
  0
CIRCLE
  5
283
330
23
100
AcDbEntity
  8
0
  6
Continuous
 62
     7
370
    25
100
AcDbCircle
 10
1.7407385348
 20
0.6507500383
 30
0.0
 40
0.2357775590551183
  0
LINE
  5
284
330
23
100
AcDbEntity
  8
0
  6
Continuous
 62
     7
370
    25
100
AcDbLine
 10
1.8054649298
 20
0.3943216496
 30
0.0
 11
1.8065227347
 21
0.3848217082
 31
0.0
  0
LINE
  5
285
330
23
100
AcDbEntity
  8
0
  6
Continuous
 62
     7
370
    25
100
AcDbLine
 10
1.8145272975
 20
0.3967688619
 30
0.0
 11
1.8054649298
 21
0.3943216496
 31
0.0
  0
LINE
  5
286
330
23
100
AcDbEntity
  8
0
  6
Continuous
 62
     7
370
    25
100
AcDbLine
 10
1.8065227347
 20
0.3848217082
 30
0.0
 11
1.8156494437
 21
0.3872886323
 31
0.0
  0
LINE
  5
287
330
23
100
AcDbEntity
  8
0
  6
Continuous
 62
     7
370
    25
100
AcDbLine
 10
1.8156494437
 20
0.3872886323
 30
0.0
 11
1.8145272975
 21
0.3967688619
 31
0.0
  0
LINE
  5
288
330
23
100
AcDbEntity
  8
0
  6
Continuous
 62
     7
370
    25
100
AcDbLine
 10
1.7517790106
 20
0.9224840242
 30
0.0
 11
1.754147435
 21
0.9223130849
 31
0.0
  0
LINE
  5
289
330
23
100
AcDbEntity
  8
0
  6
Continuous
 62
     7
370
    25
100
AcDbLine
 10
1.7527009551
 20
0.9357359481
 30
0.0
 11
1.7517790106
 21
0.9224840242
 31
0.0
  0
LINE
  5
28A
330
23
100
AcDbEntity
  8
0
  6
Continuous
 62
     7
370
    25
100
AcDbLine
 10
1.7574885732
 20
0.9353944644
 30
0.0
 11
1.7527009551
 21
0.9357359481
 31
0.0
  0
LWPOLYLINE
  5
28B
330
23
100
AcDbEntity
  8
0
  6
Continuous
 62
     7
370
    25
100
AcDbPolyline
 90
       10
 70
   128
 43
0.0
 10
1.754147435
 20
0.9223130849
 10
1.7559789942
 20
0.9222276584
 10
1.7578121883
 20
0.9222509449
 10
1.7596335918
 20
0.9224517862
 10
1.7613798408
 20
0.9230000472
 10
1.7629339312
 20
0.923967191
 10
1.7641674371
 20
0.925319848
 10
1.764775365
 20
0.926378678
 10
1.7651849469
 20
0.9275311575
 10
1.7653702964
 20
0.9287387314
  0
LWPOLYLINE
  5
28C
330
23
100
AcDbEntity
  8
0
  6
Continuous
 62
     7
370
    25
100
AcDbPolyline
 90
        8
 70
   128
 43
0.0
 10
1.7653702964
 20
0.9287387314
 10
1.7653227774
 20
0.9302023474
 10
1.7649272258
 20
0.9316098607
 10
1.7641576037
 20
0.9328522087
 10
1.763078786
 20
0.9338398963
 10
1.7613235276
 20
0.9346900387
 10
1.7594296005
 20
0.9351665581
 10
1.7574885732
 20
0.9353944644
  0
LINE
  5
28D
330
23
100
AcDbEntity
  8
0
  6
Continuous
 62
     7
370
    25
100
AcDbLine
 10
1.751490342
 20
0.9183156922
 30
0.0
 11
1.7503815527
 21
0.9024468468
 31
0.0
  0
LINE
  5
28E
330
23
100
AcDbEntity
  8
0
  6
Continuous
 62
     7
370
    25
100
AcDbLine
 10
1.7538244414
 20
0.9181472302
 30
0.0
 11
1.751490342
 21
0.9183156922
 31
0.0
  0
ARC
  5
28F
330
23
100
AcDbEntity
  8
0
  6
Continuous
 62
     7
370
    25
100
AcDbCircle
 10
1.7523671653
 20
0.8809415769
 30
0.0
 40
0.0372341817332738
100
AcDbArc
 50
76.3774341509
 51
87.756977769
  0
ARC
  5
290
330
23
100
AcDbEntity
  8
0
  6
Continuous
 62
     7
370
    25
100
AcDbCircle
 10
1.7592263998
 20
0.909226017
 30
0.0
 40
0.0081299113881929
100
AcDbArc
 50
358.6747331646
 51
76.4097306136
  0
LWPOLYLINE
  5
291
330
23
100
AcDbEntity
  8
0
  6
Continuous
 62
     7
370
    25
100
AcDbPolyline
 90
       10
 70
   128
 43
0.0
 10
1.7555027623
 20
0.9020873753
 10
1.7572432617
 20
0.9019993365
 10
1.7589858084
 20
0.9020076551
 10
1.7607207142
 20
0.9021645858
 10
1.7624111124
 20
0.9025760608
 10
1.7639699774
 20
0.9033514406
 10
1.7652770598
 20
0.9044527785
 10
1.7663202787
 20
0.9058073801
 10
1.7670400727
 20
0.9073579955
 10
1.7673541365
 20
0.9090379867
  0
LINE
  5
292
330
23
100
AcDbEntity
  8
0
  6
Continuous
 62
     7
370
    25
100
AcDbLine
 10
1.7503815527
 20
0.9024468468
 30
0.0
 11
1.7555027623
 21
0.9020873753
 31
0.0
  0
LWPOLYLINE
  5
293
330
23
100
AcDbEntity
  8
0
  6
Continuous
 62
     7
370
    25
100
AcDbPolyline
 90
       11
 70
   128
 43
0.0
 10
1.7132256387
 20
0.9178440794
 10
1.713463573
 20
0.9149867848
 10
1.7138539337
 20
0.9121466008
 10
1.7144631076
 20
0.9093455876
 10
1.7154577488
 20
0.9066596945
 10
1.7164026786
 20
0.904999841
 10
1.7175908784
 20
0.9035051048
 10
1.7190411051
 20
0.9022647849
 10
1.7207083744
 20
0.901332207
 10
1.7225327738
 20
0.9007669
 10
1.7244387678
 20
0.900653596
  0
LWPOLYLINE
  5
294
330
23
100
AcDbEntity
  8
0
  6
Continuous
 62
     7
370
    25
100
AcDbPolyline
 90
       11
 70
   128
 43
0.0
 10
1.722195026
 20
0.9362976147
 10
1.7203174378
 20
0.9359516935
 10
1.7185727704
 20
0.9351704469
 10
1.7170356721
 20
0.934035903
 10
1.7157499264
 20
0.9326244009
 10
1.7147618521
 20
0.9309891635
 10
1.7140324013
 20
0.9292231439
 10
1.7133845871
 20
0.9264329559
 10
1.7131287154
 20
0.9235773443
 10
1.7131066144
 20
0.9207096028
 10
1.7132256387
 20
0.9178440794
  0
ARC
  5
295
330
23
100
AcDbEntity
  8
0
  6
Continuous
 62
     7
370
    25
100
AcDbCircle
 10
1.7008705003
 20
0.9164131095
 30
0.0
 40
0.0328416897596915
100
AcDbArc
 50
345.9490197929
 51
4.7343297491
  0
ARC
  5
296
330
23
100
AcDbEntity
  8
0
  6
Continuous
 62
     7
370
    25
100
AcDbCircle
 10
1.7231858193
 20
0.9102949355
 30
0.0
 40
0.0097224126464368
100
AcDbArc
 50
277.4044243561
 51
348.9989401965
  0
LWPOLYLINE
  5
297
330
23
100
AcDbEntity
  8
0
  6
Continuous
 62
     7
370
    25
100
AcDbPolyline
 90
       11
 70
   128
 43
0.0
 10
1.7336001379
 20
0.9191237196
 10
1.7333418585
 20
0.9219771881
 10
1.7328943151
 20
0.9248068872
 10
1.7321828431
 20
0.9275813134
 10
1.7311245746
 20
0.9302416463
 10
1.7301789845
 20
0.9319006509
 10
1.7290129281
 20
0.9334108561
 10
1.7275820029
 20
0.9346715207
 10
1.7259198065
 20
0.9356095121
 10
1.7240984115
 20
0.936183844
 10
1.722195026
 20
0.9362976147
  0
LINE
  5
298
330
23
100
AcDbEntity
  8
0
  6
Continuous
 62
     7
370
    25
100
AcDbLine
 10
1.6477192324
 20
0.9203153864
 30
0.0
 11
1.6407955699
 21
0.9179451931
 31
0.0
  0
LWPOLYLINE
  5
299
330
23
100
AcDbEntity
  8
0
  6
Continuous
 62
     7
370
    25
100
AcDbPolyline
 90
       10
 70
   128
 43
0.0
 10
1.6596310848
 20
0.9170241542
 10
1.6589617542
 20
0.918452119
 10
1.6579753664
 20
0.9196820334
 10
1.6567377279
 20
0.920658681
 10
1.6553057441
 20
0.9213175724
 10
1.6537552634
 20
0.9215996978
 10
1.6522102271
 20
0.9215040515
 10
1.6506902937
 20
0.9212000178
 10
1.6491937463
 20
0.9207949206
 10
1.6477192324
 20
0.9203153864
  0
LWPOLYLINE
  5
29A
330
23
100
AcDbEntity
  8
0
  6
Continuous
 62
     7
370
    25
100
AcDbPolyline
 90
        9
 70
   128
 43
0.0
 10
1.6521561512
 20
0.9068471797
 10
1.6538447283
 20
0.9074667728
 10
1.6554899038
 20
0.9081936881
 10
1.657050432
 20
0.9090864568
 10
1.6584057185
 20
0.9102639506
 10
1.659397492
 20
0.9117597392
 10
1.6599278309
 20
0.9134747381
 10
1.660009269
 20
0.9152683371
 10
1.6596310848
 20
0.9170241542
  0
LINE
  5
29B
330
23
100
AcDbEntity
  8
0
  6
Continuous
 62
     7
370
    25
100
AcDbLine
 10
1.6453757846
 20
0.904578274
 30
0.0
 11
1.6521561512
 21
0.9068471797
 31
0.0
  0
LINE
  5
29C
330
23
100
AcDbEntity
  8
0
  6
Continuous
 62
     7
370
    25
100
AcDbLine
 10
1.6407955699
 20
0.9179451931
 30
0.0
 11
1.6453757846
 21
0.904578274
 31
0.0
  0
LINE
  5
29D
330
23
100
AcDbEntity
  8
0
  6
Continuous
 62
     7
370
    25
100
AcDbLine
 10
1.8543702188
 20
0.4120222225
 30
0.0
 11
1.8572589523
 21
0.4030030848
 31
0.0
  0
LINE
  5
29E
330
23
100
AcDbEntity
  8
0
  6
Continuous
 62
     7
370
    25
100
AcDbLine
 10
1.862693376
 20
0.4161789688
 30
0.0
 11
1.8543702188
 21
0.4120222225
 31
0.0
  0
LINE
  5
29F
330
23
100
AcDbEntity
  8
0
  6
Continuous
 62
     7
370
    25
100
AcDbLine
 10
1.8656367925
 20
0.407186329
 30
0.0
 11
1.862693376
 21
0.4161789688
 31
0.0
  0
LINE
  5
2A0
330
23
100
AcDbEntity
  8
0
  6
Continuous
 62
     7
370
    25
100
AcDbLine
 10
1.8572589523
 20
0.4030030848
 30
0.0
 11
1.8656367925
 21
0.407186329
 31
0.0
  0
LINE
  5
2A1
330
23
100
AcDbEntity
  8
0
  6
Continuous
 62
     7
370
    25
100
AcDbLine
 10
1.7543767553
 20
0.3867928023
 30
0.0
 11
1.7535789283
 21
0.3773415452
 31
0.0
  0
LINE
  5
2A2
330
23
100
AcDbEntity
  8
0
  6
Continuous
 62
     7
370
    25
100
AcDbLine
 10
1.7636825241
 20
0.3874099832
 30
0.0
 11
1.7543767553
 21
0.3867928023
 31
0.0
  0
LINE
  5
2A3
330
23
100
AcDbEntity
  8
0
  6
Continuous
 62
     7
370
    25
100
AcDbLine
 10
1.7535789283
 20
0.3773415452
 30
0.0
 11
1.7629354665
 21
0.3779591211
 31
0.0
  0
LINE
  5
2A4
330
23
100
AcDbEntity
  8
0
  6
Continuous
 62
     7
370
    25
100
AcDbLine
 10
1.7629354665
 20
0.3779591211
 30
0.0
 11
1.7636825241
 21
0.3874099832
 31
0.0
  0
LINE
  5
2A5
330
23
100
AcDbEntity
  8
0
  6
Continuous
 62
     7
370
    25
100
AcDbLine
 10
1.7460417451
 20
0.8986723846
 30
0.0
 11
1.7489264929
 21
0.9400757557
 31
0.0
  0
LINE
  5
2A6
330
23
100
AcDbEntity
  8
0
  6
Continuous
 62
     7
370
    25
100
AcDbLine
 10
1.7574168891
 20
0.8978716879
 30
0.0
 11
1.7460417451
 21
0.8986723846
 31
0.0
  0
ARC
  5
2A7
330
23
100
AcDbEntity
  8
0
  6
Continuous
 62
     7
370
    25
100
AcDbCircle
 10
1.758542551
 20
0.9284639524
 30
0.0
 40
0.0111334028897127
100
AcDbArc
 50
359.877522498
 51
97.48122048
  0
LINE
  5
2A8
330
23
100
AcDbEntity
  8
0
  6
Continuous
 62
     7
370
    25
100
AcDbLine
 10
1.7489264929
 20
0.9400757557
 30
0.0
 11
1.7570929683
 21
0.9395025832
 31
0.0
  0
LINE
  5
2A9
330
23
100
AcDbEntity
  8
0
  6
Continuous
 62
     7
370
    25
100
AcDbLine
 10
1.7788252947
 20
0.8958100557
 30
0.0
 11
1.7870391772
 21
0.9365852441
 31
0.0
  0
LINE
  5
2AA
330
23
100
AcDbEntity
  8
0
  6
Continuous
 62
     7
370
    25
100
AcDbLine
 10
1.8020276284
 20
0.8911356432
 30
0.0
 11
1.7788252947
 21
0.8958100557
 31
0.0
  0
LINE
  5
2AB
330
23
100
AcDbEntity
  8
0
  6
Continuous
 62
     7
370
    25
100
AcDbLine
 10
1.7869285494
 20
0.915001972
 30
0.0
 11
1.7837143388
 21
0.8990110832
 31
0.0
  0
LINE
  5
2AC
330
23
100
AcDbEntity
  8
0
  6
Continuous
 62
     7
370
    25
100
AcDbLine
 10
1.806055831
 20
0.9111493786
 30
0.0
 11
1.7869285494
 21
0.915001972
 31
0.0
  0
LINE
  5
2AD
330
23
100
AcDbEntity
  8
0
  6
Continuous
 62
     7
370
    25
100
AcDbLine
 10
1.7903084596
 20
0.9317420146
 30
0.0
 11
1.7877318418
 21
0.9189890574
 31
0.0
  0
LINE
  5
2AE
330
23
100
AcDbEntity
  8
0
  6
Continuous
 62
     7
370
    25
100
AcDbLine
 10
1.8096034525
 20
0.9278509315
 30
0.0
 11
1.7903084596
 21
0.9317420146
 31
0.0
  0
LINE
  5
2AF
330
23
100
AcDbEntity
  8
0
  6
Continuous
 62
     7
370
    25
100
AcDbLine
 10
1.8104092223
 20
0.9318723419
 30
0.0
 11
1.8096034525
 21
0.9278509315
 31
0.0
  0
LINE
  5
2B0
330
23
100
AcDbEntity
  8
0
  6
Continuous
 62
     7
370
    25
100
AcDbLine
 10
1.8515324492
 20
0.4106114471
 30
0.0
 11
1.845733972
 21
0.4077175838
 31
0.0
  0
LINE
  5
2B1
330
23
100
AcDbEntity
  8
0
  6
Continuous
 62
     7
370
    25
100
AcDbLine
 10
1.854499096
 20
0.4016313381
 30
0.0
 11
1.8515324492
 21
0.4106114471
 31
0.0
  0
LINE
  5
2B2
330
23
100
AcDbEntity
  8
0
  6
Continuous
 62
     7
370
    25
100
AcDbLine
 10
1.855460523
 20
0.3986981328
 30
0.0
 11
1.8498411029
 21
0.3958948577
 31
0.0
  0
LINE
  5
2B3
330
23
100
AcDbEntity
  8
0
  6
Continuous
 62
     7
370
    25
100
AcDbLine
 10
1.8707238065
 20
0.3916456264
 30
0.0
 11
1.8665749891
 21
0.4042405929
 31
0.0
  0
LINE
  5
2B4
330
23
100
AcDbEntity
  8
0
  6
Continuous
 62
     7
370
    25
100
AcDbLine
 10
1.8693116149
 20
0.4055998089
 30
0.0
 11
1.8734043132
 21
0.3929865668
 31
0.0
  0
LINE
  5
2B5
330
23
100
AcDbEntity
  8
0
  6
Continuous
 62
     7
370
    25
100
AcDbLine
 10
1.7682387107
 20
0.4046435749
 30
0.0
 11
1.7670355609
 21
0.3906731597
 31
0.0
  0
LINE
  5
2B6
330
23
100
AcDbEntity
  8
0
  6
Continuous
 62
     7
370
    25
100
AcDbLine
 10
1.7651554941
 20
0.4044439398
 30
0.0
 11
1.7682387107
 21
0.4046435749
 31
0.0
  0
LINE
  5
2B7
330
23
100
AcDbEntity
  8
0
  6
Continuous
 62
     7
370
    25
100
AcDbLine
 10
1.7557249561
 20
0.403813438
 30
0.0
 11
1.7546315673
 21
0.3898452491
 31
0.0
  0
LINE
  5
2B8
330
23
100
AcDbEntity
  8
0
  6
Continuous
 62
     7
370
    25
100
AcDbLine
 10
1.6993397513
 20
0.3895925877
 30
0.0
 11
1.6928863652
 21
0.3904480462
 31
0.0
  0
LINE
  5
2B9
330
23
100
AcDbEntity
  8
0
  6
Continuous
 62
     7
370
    25
100
AcDbLine
 10
1.6900728782
 20
0.3813310239
 30
0.0
 11
1.6967679754
 21
0.3804500015
 31
0.0
  0
LINE
  5
2BA
330
23
100
AcDbEntity
  8
0
  6
Continuous
 62
     7
370
    25
100
AcDbLine
 10
1.6896725441
 20
0.3782870504
 30
0.0
 11
1.6900728782
 21
0.3813310239
 31
0.0
  0
LINE
  5
2BB
330
23
100
AcDbEntity
  8
0
  6
Continuous
 62
     7
370
    25
100
AcDbLine
 10
1.69592533
 20
0.3774643368
 30
0.0
 11
1.6896725441
 21
0.3782870504
 31
0.0
  0
LINE
  5
2BC
330
23
100
AcDbEntity
  8
0
  6
Continuous
 62
     7
370
    25
100
AcDbLine
 10
1.6922815139
 20
0.3646605369
 30
0.0
 11
1.69592533
 21
0.3774643368
 31
0.0
  0
LINE
  5
2BD
330
23
100
AcDbEntity
  8
0
  6
Continuous
 62
     7
370
    25
100
AcDbLine
 10
1.6954037958
 20
0.3642484619
 30
0.0
 11
1.6922815139
 21
0.3646605369
 31
0.0
  0
LINE
  5
2BE
330
23
100
AcDbEntity
  8
0
  6
Continuous
 62
     7
370
    25
100
AcDbLine
 10
1.7046744524
 20
0.3630293278
 30
0.0
 11
1.7082921657
 21
0.3758370413
 31
0.0
  0
LINE
  5
2BF
330
23
100
AcDbEntity
  8
0
  6
Continuous
 62
     7
370
    25
100
AcDbLine
 10
1.7113361391
 20
0.3754367072
 30
0.0
 11
1.7076579981
 21
0.3626353846
 31
0.0
  0
LINE
  5
2C0
330
23
100
AcDbEntity
  8
0
  6
Continuous
 62
     7
370
    25
100
AcDbLine
 10
1.7188375506
 20
0.374450808
 30
0.0
 11
1.7113361391
 21
0.3754367072
 31
0.0
  0
LINE
  5
2C1
330
23
100
AcDbEntity
  8
0
  6
Continuous
 62
     7
370
    25
100
AcDbLine
 10
1.7221736635
 20
0.3865907996
 30
0.0
 11
1.7148274326
 21
0.3875614394
 31
0.0
  0
LINE
  5
2C2
330
23
100
AcDbEntity
  8
0
  6
Continuous
 62
     7
370
    25
100
AcDbLine
 10
1.7157004894
 20
0.390518524
 30
0.0
 11
1.722570084
 21
0.3896086703
 31
0.0
  0
LINE
  5
2C3
330
23
100
AcDbEntity
  8
0
  6
Continuous
 62
     7
370
    25
100
AcDbLine
 10
1.699021509
 20
0.3770561755
 30
0.0
 11
1.6954037958
 21
0.3642484619
 31
0.0
  0
LINE
  5
2C4
330
23
100
AcDbEntity
  8
0
  6
Continuous
 62
     7
370
    25
100
AcDbLine
 10
1.70333509
 20
0.3921375973
 30
0.0
 11
1.7126304132
 21
0.3909227717
 31
0.0
  0
LINE
  5
2C5
330
23
100
AcDbEntity
  8
0
  6
Continuous
 62
     7
370
    25
100
AcDbLine
 10
1.7071571364
 20
0.4056673207
 30
0.0
 11
1.70333509
 21
0.3921375973
 31
0.0
  0
LINE
  5
2C6
330
23
100
AcDbEntity
  8
0
  6
Continuous
 62
     7
370
    25
100
AcDbLine
 10
1.7076579981
 20
0.3626353846
 30
0.0
 11
1.7046744524
 21
0.3630293278
 31
0.0
  0
LINE
  5
2C7
330
23
100
AcDbEntity
  8
0
  6
Continuous
 62
     7
370
    25
100
AcDbLine
 10
1.7148274326
 20
0.3875614394
 30
0.0
 11
1.7121787846
 21
0.3784223719
 31
0.0
  0
ARC
  5
2C8
330
23
100
AcDbEntity
  8
0
  6
Continuous
 62
     7
370
    25
100
AcDbCircle
 10
1.7605851361
 20
0.9094727845
 30
0.0
 40
0.0111057094901662
100
AcDbArc
 50
356.618459886
 51
73.4450972798
  0
ARC
  5
2C9
330
23
100
AcDbEntity
  8
0
  6
Continuous
 62
     7
370
    25
100
AcDbCircle
 10
1.759969567
 20
0.9290811794
 30
0.0
 40
0.0097275057038738
100
AcDbArc
 50
292.8664852312
 51
356.2215666548
  0
LINE
  5
2CA
330
23
100
AcDbEntity
  8
0
  6
Continuous
 62
     7
370
    25
100
AcDbLine
 10
1.7447460121
 20
0.3861442761
 30
0.0
 11
1.7445482082
 21
0.3891685011
 31
0.0
  0
LINE
  5
2CB
330
23
100
AcDbEntity
  8
0
  6
Continuous
 62
     7
370
    25
100
AcDbLine
 10
1.7512195389
 20
0.3865802414
 30
0.0
 11
1.7447460121
 21
0.3861442761
 31
0.0
  0
LINE
  5
2CC
330
23
100
AcDbEntity
  8
0
  6
Continuous
 62
     7
370
    25
100
AcDbLine
 10
1.7126304132
 20
0.3909227717
 30
0.0
 11
1.716558307
 21
0.4044286186
 31
0.0
  0
LINE
  5
2CD
330
23
100
AcDbEntity
  8
0
  6
Continuous
 62
     7
370
    25
100
AcDbLine
 10
1.7437794325
 20
0.3766889615
 30
0.0
 11
1.7504971479
 21
0.3771336879
 31
0.0
  0
LINE
  5
2CE
330
23
100
AcDbEntity
  8
0
  6
Continuous
 62
     7
370
    25
100
AcDbLine
 10
1.743981545
 20
0.3736400699
 30
0.0
 11
1.7437794325
 21
0.3766889615
 31
0.0
  0
LINE
  5
2CF
330
23
100
AcDbEntity
  8
0
  6
Continuous
 62
     7
370
    25
100
AcDbLine
 10
1.8734043132
 20
0.3929865668
 30
0.0
 11
1.8707238065
 21
0.3916456264
 31
0.0
  0
LINE
  5
2D0
330
23
100
AcDbEntity
  8
0
  6
Continuous
 62
     7
370
    25
100
AcDbLine
 10
1.7837143388
 20
0.8990110832
 30
0.0
 11
1.8028416204
 21
0.8951584898
 31
0.0
  0
LINE
  5
2D1
330
23
100
AcDbEntity
  8
0
  6
Continuous
 62
     7
370
    25
100
AcDbLine
 10
1.752328172
 20
0.3610242487
 30
0.0
 11
1.7491956223
 21
0.3608159964
 31
0.0
  0
LINE
  5
2D2
330
23
100
AcDbEntity
  8
0
  6
Continuous
 62
     7
370
    25
100
AcDbLine
 10
1.7533627499
 20
0.3742619544
 30
0.0
 11
1.752328172
 21
0.3610242487
 31
0.0
  0
LINE
  5
2D3
330
23
100
AcDbEntity
  8
0
  6
Continuous
 62
     7
370
    25
100
AcDbLine
 10
1.7877318418
 20
0.9189890574
 30
0.0
 11
1.8068591233
 21
0.915136464
 31
0.0
  0
LINE
  5
2D4
330
23
100
AcDbEntity
  8
0
  6
Continuous
 62
     7
370
    25
100
AcDbLine
 10
1.7196366055
 20
0.4040258071
 30
0.0
 11
1.7157004894
 21
0.390518524
 31
0.0
  0
LINE
  5
2D5
330
23
100
AcDbEntity
  8
0
  6
Continuous
 62
     7
370
    25
100
AcDbLine
 10
1.716558307
 20
0.4044286186
 30
0.0
 11
1.7196366055
 21
0.4040258071
 31
0.0
  0
LINE
  5
2D6
330
23
100
AcDbEntity
  8
0
  6
Continuous
 62
     7
370
    25
100
AcDbLine
 10
1.7082921657
 20
0.3758370413
 30
0.0
 11
1.699021509
 21
0.3770561755
 31
0.0
  0
LINE
  5
2D7
330
23
100
AcDbEntity
  8
0
  6
Continuous
 62
     7
370
    25
100
AcDbLine
 10
1.7502548667
 20
0.3740580107
 30
0.0
 11
1.743981545
 21
0.3736400699
 31
0.0
  0
LINE
  5
2D8
330
23
100
AcDbEntity
  8
0
  6
Continuous
 62
     7
370
    25
100
AcDbLine
 10
1.7040266324
 20
0.4060779594
 30
0.0
 11
1.7071571364
 21
0.4056673207
 31
0.0
  0
ARC
  5
2D9
330
23
100
AcDbEntity
  8
0
  6
Continuous
 62
     7
370
    25
100
AcDbCircle
 10
1.759367552
 20
0.9100860639
 30
0.0
 40
0.0123691579136867
100
AcDbArc
 50
260.9263595006
 51
354.1144831896
  0
LINE
  5
2DA
330
23
100
AcDbEntity
  8
0
  6
Continuous
 62
     7
370
    25
100
AcDbLine
 10
1.8034286725
 20
0.4114120077
 30
0.0
 11
1.8051062006
 21
0.3973940227
 31
0.0
  0
LINE
  5
2DB
330
23
100
AcDbEntity
  8
0
  6
Continuous
 62
     7
370
    25
100
AcDbLine
 10
1.800369513
 20
0.410589568
 30
0.0
 11
1.8034286725
 21
0.4114120077
 31
0.0
  0
LINE
  5
2DC
330
23
100
AcDbEntity
  8
0
  6
Continuous
 62
     7
370
    25
100
AcDbLine
 10
1.7870391772
 20
0.9365852441
 30
0.0
 11
1.8104092223
 21
0.9318723419
 31
0.0
  0
LINE
  5
2DD
330
23
100
AcDbEntity
  8
0
  6
Continuous
 62
     7
370
    25
100
AcDbLine
 10
1.7952756501
 20
0.3947363714
 30
0.0
 11
1.8020470412
 21
0.396571583
 31
0.0
  0
LINE
  5
2DE
330
23
100
AcDbEntity
  8
0
  6
Continuous
 62
     7
370
    25
100
AcDbLine
 10
1.8028416204
 20
0.8951584898
 30
0.0
 11
1.8020276284
 21
0.8911356432
 31
0.0
  0
LINE
  5
2DF
330
23
100
AcDbEntity
  8
0
  6
Continuous
 62
     7
370
    25
100
AcDbLine
 10
1.8068591233
 20
0.915136464
 30
0.0
 11
1.806055831
 21
0.9111493786
 31
0.0
  0
LINE
  5
2E0
330
23
100
AcDbEntity
  8
0
  6
Continuous
 62
     7
370
    25
100
AcDbLine
 10
1.845733972
 20
0.4077175838
 30
0.0
 11
1.8443790647
 21
0.4104295431
 31
0.0
  0
LINE
  5
2E1
330
23
100
AcDbEntity
  8
0
  6
Continuous
 62
     7
370
    25
100
AcDbLine
 10
1.8484818869
 20
0.3986314835
 30
0.0
 11
1.854499096
 21
0.4016313381
 31
0.0
  0
LINE
  5
2E2
330
23
100
AcDbEntity
  8
0
  6
Continuous
 62
     7
370
    25
100
AcDbLine
 10
1.8498411029
 20
0.3958948577
 30
0.0
 11
1.8484818869
 21
0.3986314835
 31
0.0
  0
LINE
  5
2E3
330
23
100
AcDbEntity
  8
0
  6
Continuous
 62
     7
370
    25
100
AcDbLine
 10
1.8595861101
 20
0.3860906355
 30
0.0
 11
1.855460523
 21
0.3986981328
 31
0.0
  0
LINE
  5
2E4
330
23
100
AcDbEntity
  8
0
  6
Continuous
 62
     7
370
    25
100
AcDbLine
 10
1.8623909909
 20
0.3874956661
 30
0.0
 11
1.8595861101
 21
0.3860906355
 31
0.0
  0
LINE
  5
2E5
330
23
100
AcDbEntity
  8
0
  6
Continuous
 62
     7
370
    25
100
AcDbLine
 10
1.8582436097
 20
0.4000824104
 30
0.0
 11
1.8623909909
 21
0.3874956661
 31
0.0
  0
LINE
  5
2E6
330
23
100
AcDbEntity
  8
0
  6
Continuous
 62
     7
370
    25
100
AcDbLine
 10
1.8665749891
 20
0.4042405929
 30
0.0
 11
1.8582436097
 21
0.4000824104
 31
0.0
  0
LINE
  5
2E7
330
23
100
AcDbEntity
  8
0
  6
Continuous
 62
     7
370
    25
100
AcDbLine
 10
1.8760532746
 20
0.4089634519
 30
0.0
 11
1.8693116149
 21
0.4055998089
 31
0.0
  0
LINE
  5
2E8
330
23
100
AcDbEntity
  8
0
  6
Continuous
 62
     7
370
    25
100
AcDbLine
 10
1.8746940587
 20
0.4117000778
 30
0.0
 11
1.8760532746
 21
0.4089634519
 31
0.0
  0
LINE
  5
2E9
330
23
100
AcDbEntity
  8
0
  6
Continuous
 62
     7
370
    25
100
AcDbLine
 10
1.868350188
 20
0.4085330141
 30
0.0
 11
1.8746940587
 21
0.4117000778
 31
0.0
  0
LINE
  5
2EA
330
23
100
AcDbEntity
  8
0
  6
Continuous
 62
     7
370
    25
100
AcDbLine
 10
1.6967679754
 20
0.3804500015
 30
0.0
 11
1.6993397513
 21
0.3895925877
 31
0.0
  0
LINE
  5
2EB
330
23
100
AcDbEntity
  8
0
  6
Continuous
 62
     7
370
    25
100
AcDbLine
 10
1.8720540735
 20
0.4208473959
 30
0.0
 11
1.8654532323
 21
0.4175507155
 31
0.0
  0
LINE
  5
2EC
330
23
100
AcDbEntity
  8
0
  6
Continuous
 62
     7
370
    25
100
AcDbLine
 10
1.8706991661
 20
0.4235593552
 30
0.0
 11
1.8720540735
 21
0.4208473959
 31
0.0
  0
LINE
  5
2ED
330
23
100
AcDbEntity
  8
0
  6
Continuous
 62
     7
370
    25
100
AcDbLine
 10
1.8645261303
 20
0.4204814434
 30
0.0
 11
1.8706991661
 21
0.4235593552
 31
0.0
  0
LINE
  5
2EE
330
23
100
AcDbEntity
  8
0
  6
Continuous
 62
     7
370
    25
100
AcDbLine
 10
1.8602548405
 20
0.433826066
 30
0.0
 11
1.8645261303
 21
0.4204814434
 31
0.0
  0
LINE
  5
2EF
330
23
100
AcDbEntity
  8
0
  6
Continuous
 62
     7
370
    25
100
AcDbLine
 10
1.8574881983
 20
0.4324446608
 30
0.0
 11
1.8602548405
 21
0.433826066
 31
0.0
  0
LINE
  5
2F0
330
23
100
AcDbEntity
  8
0
  6
Continuous
 62
     7
370
    25
100
AcDbLine
 10
1.8617677103
 20
0.4191014744
 30
0.0
 11
1.8574881983
 21
0.4324446608
 31
0.0
  0
LINE
  5
2F1
330
23
100
AcDbEntity
  8
0
  6
Continuous
 62
     7
370
    25
100
AcDbLine
 10
1.8534116643
 20
0.4149389833
 30
0.0
 11
1.8617677103
 21
0.4191014744
 31
0.0
  0
LINE
  5
2F2
330
23
100
AcDbEntity
  8
0
  6
Continuous
 62
     7
370
    25
100
AcDbLine
 10
1.8462261277
 20
0.4268255797
 30
0.0
 11
1.8490392307
 21
0.4282320465
 31
0.0
  0
LINE
  5
2F3
330
23
100
AcDbEntity
  8
0
  6
Continuous
 62
     7
370
    25
100
AcDbLine
 10
1.8506067834
 20
0.4135339527
 30
0.0
 11
1.8462261277
 21
0.4268255797
 31
0.0
  0
LINE
  5
2F4
330
23
100
AcDbEntity
  8
0
  6
Continuous
 62
     7
370
    25
100
AcDbLine
 10
1.8443790647
 20
0.4104295431
 30
0.0
 11
1.8506067834
 21
0.4135339527
 31
0.0
  0
LINE
  5
2F5
330
23
100
AcDbEntity
  8
0
  6
Continuous
 62
     7
370
    25
100
AcDbLine
 10
1.7121787846
 20
0.3784223719
 30
0.0
 11
1.7192378847
 21
0.3774947815
 31
0.0
  0
ARC
  5
2F6
330
23
100
AcDbEntity
  8
0
  6
Continuous
 62
     7
370
    25
100
AcDbCircle
 10
1.6157827528
 20
0.8878139835
 30
0.0
 40
0.0215379132202675
100
AcDbArc
 50
64.9814091091
 51
120.430878823
  0
ARC
  5
2F7
330
23
100
AcDbEntity
  8
0
  6
Continuous
 62
     7
370
    25
100
AcDbCircle
 10
1.6143489941
 20
0.8871324375
 30
0.0
 40
0.0214577295300543
100
AcDbArc
 50
116.2043139309
 51
208.3786987645
  0
ARC
  5
2F8
330
23
100
AcDbEntity
  8
0
  6
Continuous
 62
     7
370
    25
100
AcDbCircle
 10
1.6150629725
 20
0.8870541478
 30
0.0
 40
0.0220524738754577
100
AcDbArc
 50
207.3179846322
 51
248.7748523505
  0
ARC
  5
2F9
330
23
100
AcDbEntity
  8
0
  6
Continuous
 62
     7
370
    25
100
AcDbCircle
 10
1.6144191218
 20
0.8869307476
 30
0.0
 40
0.0217114564340336
100
AcDbArc
 50
250.2409577485
 51
300.7976505912
  0
ARC
  5
2FA
330
23
100
AcDbEntity
  8
0
  6
Continuous
 62
     7
370
    25
100
AcDbCircle
 10
1.6154112318
 20
0.8883318062
 30
0.0
 40
0.0224618757281083
100
AcDbArc
 50
296.790759556
 51
349.0967979592
  0
LINE
  5
2FB
330
23
100
AcDbEntity
  8
0
  6
Continuous
 62
     7
370
    25
100
AcDbLine
 10
1.6334352678
 20
0.8847090578
 30
0.0
 11
1.6374676289
 21
0.8840831352
 31
0.0
  0
ARC
  5
2FC
330
23
100
AcDbEntity
  8
0
  6
Continuous
 62
     7
370
    25
100
AcDbCircle
 10
1.615199393
 20
0.8882426852
 30
0.0
 40
0.0185750815215791
100
AcDbArc
 50
297.9533590888
 51
349.0335113609
  0
ARC
  5
2FD
330
23
100
AcDbEntity
  8
0
  6
Continuous
 62
     7
370
    25
100
AcDbCircle
 10
1.6149391078
 20
0.8868417368
 30
0.0
 40
0.0174820890167088
100
AcDbArc
 50
207.8152065616
 51
300.860400161
  0
ARC
  5
2FE
330
23
100
AcDbEntity
  8
0
  6
Continuous
 62
     7
370
    25
100
AcDbCircle
 10
1.6148162052
 20
0.8872004458
 30
0.0
 40
0.0175447679959438
100
AcDbArc
 50
117.0037040655
 51
209.0386655604
  0
ARC
  5
2FF
330
23
100
AcDbEntity
  8
0
  6
Continuous
 62
     7
370
    25
100
AcDbCircle
 10
1.615777809
 20
0.8870481681
 30
0.0
 40
0.0181341709718203
100
AcDbArc
 50
65.7547274443
 51
119.4930280729
  0
LINE
  5
300
330
23
100
AcDbEntity
  8
0
  6
Continuous
 62
     7
370
    25
100
AcDbLine
 10
1.6932827857
 20
0.3934659168
 30
0.0
 11
1.7002128081
 21
0.3925496722
 31
0.0
  0
LINE
  5
301
330
23
100
AcDbEntity
  8
0
  6
Continuous
 62
     7
370
    25
100
AcDbLine
 10
1.6355369136
 20
0.9204497607
 30
0.0
 11
1.6433720549
 21
0.9231316808
 31
0.0
  0
LINE
  5
302
330
23
100
AcDbEntity
  8
0
  6
Continuous
 62
     7
370
    25
100
AcDbLine
 10
1.6490149131
 20
0.8811250135
 30
0.0
 11
1.6355369136
 21
0.9204497607
 31
0.0
  0
LINE
  5
303
330
23
100
AcDbEntity
  8
0
  6
Continuous
 62
     7
370
    25
100
AcDbLine
 10
1.65294821
 20
0.8824729571
 30
0.0
 11
1.6490149131
 21
0.8811250135
 31
0.0
  0
LINE
  5
304
330
23
100
AcDbEntity
  8
0
  6
Continuous
 62
     7
370
    25
100
AcDbLine
 10
1.7504971479
 20
0.3771336879
 30
0.0
 11
1.7512195389
 21
0.3865802414
 31
0.0
  0
LINE
  5
305
330
23
100
AcDbEntity
  8
0
  6
Continuous
 62
     7
370
    25
100
AcDbLine
 10
1.6489247628
 20
0.9015293513
 30
0.0
 11
1.6466789547
 21
0.9007557792
 31
0.0
  0
LINE
  5
306
330
23
100
AcDbEntity
  8
0
  6
Continuous
 62
     7
370
    25
100
AcDbLine
 10
1.6693054946
 20
0.8880754216
 30
0.0
 11
1.6489247628
 21
0.9015293513
 31
0.0
  0
LINE
  5
307
330
23
100
AcDbEntity
  8
0
  6
Continuous
 62
     7
370
    25
100
AcDbLine
 10
1.6741735007
 20
0.8897476227
 30
0.0
 11
1.6693054946
 21
0.8880754216
 31
0.0
  0
LINE
  5
308
330
23
100
AcDbEntity
  8
0
  6
Continuous
 62
     7
370
    25
100
AcDbLine
 10
1.6537627526
 20
0.9031793632
 30
0.0
 11
1.6741735007
 21
0.8897476227
 31
0.0
  0
ARC
  5
309
330
23
100
AcDbEntity
  8
0
  6
Continuous
 62
     7
370
    25
100
AcDbCircle
 10
1.6519912567
 20
0.9152144059
 30
0.0
 40
0.0121647215339142
100
AcDbArc
 50
278.3735125978
 51
15.3055683677
  0
ARC
  5
30A
330
23
100
AcDbEntity
  8
0
  6
Continuous
 62
     7
370
    25
100
AcDbCircle
 10
1.6537711931
 20
0.9152879634
 30
0.0
 40
0.0104361258257272
100
AcDbArc
 50
17.4960937724
 51
97.3694117507
  0
ARC
  5
30B
330
23
100
AcDbEntity
  8
0
  6
Continuous
 62
     7
370
    25
100
AcDbCircle
 10
1.660504256
 20
0.8788257294
 30
0.0
 40
0.047502943493398
100
AcDbArc
 50
99.7831243326
 51
111.1404622072
  0
LINE
  5
30C
330
23
100
AcDbEntity
  8
0
  6
Continuous
 62
     7
370
    25
100
AcDbLine
 10
1.6788093281
 20
0.92353952
 30
0.0
 11
1.6746550364
 21
0.9227291428
 31
0.0
  0
ARC
  5
30D
330
23
100
AcDbEntity
  8
0
  6
Continuous
 62
     7
370
    25
100
AcDbCircle
 10
1.68749329
 20
0.9231507601
 30
0.0
 40
0.0086926594289675
100
AcDbArc
 50
104.6379906302
 51
177.4367184762
  0
ARC
  5
30E
330
23
100
AcDbEntity
  8
0
  6
Continuous
 62
     7
370
    25
100
AcDbCircle
 10
1.6871270473
 20
0.9246360046
 30
0.0
 40
0.0071631004847301
100
AcDbArc
 50
15.0600297312
 51
104.8058237311
  0
LWPOLYLINE
  5
30F
330
23
100
AcDbEntity
  8
0
  6
Continuous
 62
     7
370
    25
100
AcDbPolyline
 90
        9
 70
   128
 43
0.0
 10
1.685922005
 20
0.9178424799
 10
1.6880427392
 20
0.9184223505
 10
1.6900426317
 20
0.9193356206
 10
1.6918345302
 20
0.9206091557
 10
1.6929668836
 20
0.9218064696
 10
1.6937619568
 20
0.9232489371
 10
1.6940572856
 20
0.9243075596
 10
1.6941553546
 20
0.9254035442
 10
1.6940441248
 20
0.9264971996
  0
ARC
  5
310
330
23
100
AcDbEntity
  8
0
  6
Continuous
 62
     7
370
    25
100
AcDbCircle
 10
1.6902684869
 20
0.9041299246
 30
0.0
 40
0.0106200332323577
100
AcDbArc
 50
18.9050269341
 51
109.9239125137
  0
ARC
  5
311
330
23
100
AcDbEntity
  8
0
  6
Continuous
 62
     7
370
    25
100
AcDbCircle
 10
1.6911436318
 20
0.9060123638
 30
0.0
 40
0.0093034711339928
100
AcDbArc
 50
276.9572035916
 51
9.6432736794
  0
ARC
  5
312
330
23
100
AcDbEntity
  8
0
  6
Continuous
 62
     7
370
    25
100
AcDbCircle
 10
1.690108817
 20
0.9061286651
 30
0.0
 40
0.0095978803651931
100
AcDbArc
 50
240.7160285284
 51
283.0163696529
  0
ARC
  5
313
330
23
100
AcDbEntity
  8
0
  6
Continuous
 62
     7
370
    25
100
AcDbCircle
 10
1.692176557
 20
0.90745218
 30
0.0
 40
0.011820343275152
100
AcDbArc
 50
202.7096217944
 51
235.1031206801
  0
LINE
  5
314
330
23
100
AcDbEntity
  8
0
  6
Continuous
 62
     7
370
    25
100
AcDbLine
 10
1.6772909807
 20
0.9021085899
 30
0.0
 11
1.6812726063
 21
0.9028888069
 31
0.0
  0
ARC
  5
315
330
23
100
AcDbEntity
  8
0
  6
Continuous
 62
     7
370
    25
100
AcDbCircle
 10
1.6902009811
 20
0.90600391
 30
0.0
 40
0.0134848666818255
100
AcDbArc
 50
196.7900799383
 51
281.9316042601
  0
ARC
  5
316
330
23
100
AcDbEntity
  8
0
  6
Continuous
 62
     7
370
    25
100
AcDbCircle
 10
1.6908613551
 20
0.9062561071
 30
0.0
 40
0.0136130059884802
100
AcDbArc
 50
278.9914630889
 51
10.3037499021
  0
ARC
  5
317
330
23
100
AcDbEntity
  8
0
  6
Continuous
 62
     7
370
    25
100
AcDbCircle
 10
1.6930686128
 20
0.9065158599
 30
0.0
 40
0.0113957335243852
100
AcDbArc
 50
11.0038459158
 51
51.3763724178
  0
ARC
  5
318
330
23
100
AcDbEntity
  8
0
  6
Continuous
 62
     7
370
    25
100
AcDbCircle
 10
1.6925863193
 20
0.9061639839
 30
0.0
 40
0.0119727212514294
100
AcDbArc
 50
50.6242742725
 51
79.8816787013
  0
ARC
  5
319
330
23
100
AcDbEntity
  8
0
  6
Continuous
 62
     7
370
    25
100
AcDbCircle
 10
1.6887135567
 20
0.9256140803
 30
0.0
 40
0.0097182769300942
100
AcDbArc
 50
307.9474966582
 51
10.0230676969
  0
ARC
  5
31A
330
23
100
AcDbEntity
  8
0
  6
Continuous
 62
     7
370
    25
100
AcDbCircle
 10
1.6872884929
 20
0.9245183333
 30
0.0
 40
0.0113427813759226
100
AcDbArc
 50
14.2244549337
 51
104.123801169
  0
ARC
  5
31B
330
23
100
AcDbEntity
  8
0
  6
Continuous
 62
     7
370
    25
100
AcDbCircle
 10
1.6870059361
 20
0.9234013051
 30
0.0
 40
0.0123691764474981
100
AcDbArc
 50
101.591093272
 51
183.1150854846
  0
LINE
  5
31C
330
23
100
AcDbEntity
  8
0
  6
Continuous
 62
     7
370
    25
100
AcDbLine
 10
1.8490392307
 20
0.4282320465
 30
0.0
 11
1.8534116643
 21
0.4149389833
 31
0.0
  0
LWPOLYLINE
  5
31D
330
23
100
AcDbEntity
  8
0
  6
Continuous
 62
     7
370
    25
100
AcDbPolyline
 90
       12
 70
   128
 43
0.0
 10
1.709322931
 20
0.9176792349
 10
1.7092002833
 20
0.9205736866
 10
1.7092229174
 20
0.9234707973
 10
1.709442988
 20
0.9263593453
 10
1.7099478031
 20
0.9292107419
 10
1.7108498499
 20
0.9319612448
 10
1.7119381557
 20
0.9341146091
 10
1.7133533083
 20
0.9360680384
 10
1.7151138946
 20
0.9377155794
 10
1.7171586768
 20
0.9389934038
 10
1.7194182434
 20
0.9398330958
 10
1.7217995649
 20
0.9402108781
  0
LWPOLYLINE
  5
31E
330
23
100
AcDbEntity
  8
0
  6
Continuous
 62
     7
370
    25
100
AcDbPolyline
 90
       12
 70
   128
 43
0.0
 10
1.724532341
 20
0.8969163734
 10
1.7221251487
 20
0.8969879447
 10
1.7197800022
 20
0.897534765
 10
1.7175944518
 20
0.8985470359
 10
1.7156444301
 20
0.8999605906
 10
1.7140042176
 20
0.9017251333
 10
1.7126622567
 20
0.9037268184
 10
1.7114159575
 20
0.9063359571
 10
1.710551815
 20
0.909096469
 10
1.7099615791
 20
0.9119290055
 10
1.7095689089
 20
0.9147958354
 10
1.709322931
 20
0.9176792349
  0
LWPOLYLINE
  5
31F
330
23
100
AcDbEntity
  8
0
  6
Continuous
 62
     7
370
    25
100
AcDbPolyline
 90
       12
 70
   128
 43
0.0
 10
1.737456241
 20
0.9194583578
 10
1.7375731425
 20
0.9165446518
 10
1.7375132497
 20
0.9136293266
 10
1.7372347618
 20
0.9107272661
 10
1.7366453776
 20
0.9078726586
 10
1.7356583283
 20
0.9051307618
 10
1.7345260302
 20
0.902982606
 10
1.7330641407
 20
0.9010440887
 10
1.7312714911
 20
0.8994078733
 10
1.7292064062
 20
0.8981328372
 10
1.7269295876
 20
0.8972951286
 10
1.724532341
 20
0.8969163734
  0
LWPOLYLINE
  5
320
330
23
100
AcDbEntity
  8
0
  6
Continuous
 62
     7
370
    25
100
AcDbPolyline
 90
       12
 70
   128
 43
0.0
 10
1.7217995649
 20
0.9402108781
 10
1.7242268911
 20
0.9401409173
 10
1.7265932678
 20
0.9395979678
 10
1.7288069807
 20
0.9385991654
 10
1.7307869373
 20
0.937192889
 10
1.7324778118
 20
0.9354488932
 10
1.7338661918
 20
0.9334544723
 10
1.7351866968
 20
0.9308547005
 10
1.7361329021
 20
0.9280961716
 10
1.7367816528
 20
0.9252518832
 10
1.7372054909
 20
0.9223652094
 10
1.737456241
 20
0.9194583578
  0
LINE
  5
321
330
23
100
AcDbEntity
  8
0
  6
Continuous
 62
     7
370
    25
100
AcDbLine
 10
1.8020470412
 20
0.396571583
 30
0.0
 11
1.800369513
 21
0.410589568
 31
0.0
  0
LINE
  5
322
330
23
100
AcDbEntity
  8
0
  6
Continuous
 62
     7
370
    25
100
AcDbLine
 10
1.6928863652
 20
0.3904480462
 30
0.0
 11
1.6932827857
 21
0.3934659168
 31
0.0
  0
LINE
  5
323
330
23
100
AcDbEntity
  8
0
  6
Continuous
 62
     7
370
    25
100
AcDbLine
 10
1.7192378847
 20
0.3774947815
 30
0.0
 11
1.7188375506
 21
0.374450808
 31
0.0
  0
LINE
  5
324
330
23
100
AcDbEntity
  8
0
  6
Continuous
 62
     7
370
    25
100
AcDbLine
 10
1.6248914015
 20
0.9073310075
 30
0.0
 11
1.6232244906
 21
0.9035828314
 31
0.0
  0
LINE
  5
325
330
23
100
AcDbEntity
  8
0
  6
Continuous
 62
     7
370
    25
100
AcDbLine
 10
1.722570084
 20
0.3896086703
 30
0.0
 11
1.7221736635
 21
0.3865907996
 31
0.0
  0
LINE
  5
326
330
23
100
AcDbEntity
  8
0
  6
Continuous
 62
     7
370
    25
100
AcDbLine
 10
1.7002128081
 20
0.3925496722
 30
0.0
 11
1.7040266324
 21
0.4060779594
 31
0.0
  0
LINE
  5
327
330
23
100
AcDbEntity
  8
0
  6
Continuous
 62
     7
370
    25
100
AcDbLine
 10
1.7491956223
 20
0.3608159964
 30
0.0
 11
1.7502548667
 21
0.3740580107
 31
0.0
  0
LINE
  5
328
330
23
100
AcDbEntity
  8
0
  6
Continuous
 62
     7
370
    25
100
AcDbLine
 10
1.7626602965
 20
0.3748776991
 30
0.0
 11
1.7533627499
 21
0.3742619544
 31
0.0
  0
LINE
  5
329
330
23
100
AcDbEntity
  8
0
  6
Continuous
 62
     7
370
    25
100
AcDbLine
 10
1.7616242825
 20
0.3616482156
 30
0.0
 11
1.7626602965
 21
0.3748776991
 31
0.0
  0
LINE
  5
32A
330
23
100
AcDbEntity
  8
0
  6
Continuous
 62
     7
370
    25
100
AcDbLine
 10
1.7646224047
 20
0.361849933
 30
0.0
 11
1.7616242825
 21
0.3616482156
 31
0.0
  0
LINE
  5
32B
330
23
100
AcDbEntity
  8
0
  6
Continuous
 62
     7
370
    25
100
AcDbLine
 10
1.7657077519
 20
0.3750880337
 30
0.0
 11
1.7646224047
 21
0.361849933
 31
0.0
  0
LINE
  5
32C
330
23
100
AcDbEntity
  8
0
  6
Continuous
 62
     7
370
    25
100
AcDbLine
 10
1.7732470408
 20
0.375583064
 30
0.0
 11
1.7657077519
 21
0.3750880337
 31
0.0
  0
LINE
  5
32D
330
23
100
AcDbEntity
  8
0
  6
Continuous
 62
     7
370
    25
100
AcDbLine
 10
1.7730449283
 20
0.3786319556
 30
0.0
 11
1.7732470408
 21
0.375583064
 31
0.0
  0
LINE
  5
32E
330
23
100
AcDbEntity
  8
0
  6
Continuous
 62
     7
370
    25
100
AcDbLine
 10
1.7667560823
 20
0.3876164043
 30
0.0
 11
1.7659582553
 21
0.3781651471
 31
0.0
  0
LINE
  5
32F
330
23
100
AcDbEntity
  8
0
  6
Continuous
 62
     7
370
    25
100
AcDbLine
 10
1.7741266186
 20
0.388107377
 30
0.0
 11
1.7667560823
 21
0.3876164043
 31
0.0
  0
LINE
  5
330
330
23
100
AcDbEntity
  8
0
  6
Continuous
 62
     7
370
    25
100
AcDbLine
 10
1.7739288148
 20
0.391131602
 30
0.0
 11
1.7741266186
 21
0.388107377
 31
0.0
  0
LINE
  5
331
330
23
100
AcDbEntity
  8
0
  6
Continuous
 62
     7
370
    25
100
AcDbLine
 10
1.7670355609
 20
0.3906731597
 30
0.0
 11
1.7739288148
 21
0.391131602
 31
0.0
  0
LINE
  5
332
330
23
100
AcDbEntity
  8
0
  6
Continuous
 62
     7
370
    25
100
AcDbLine
 10
1.7639537805
 20
0.3904653024
 30
0.0
 11
1.7651554941
 21
0.4044439398
 31
0.0
  0
LINE
  5
333
330
23
100
AcDbEntity
  8
0
  6
Continuous
 62
     7
370
    25
100
AcDbLine
 10
1.7546315673
 20
0.3898452491
 30
0.0
 11
1.7639537805
 21
0.3904653024
 31
0.0
  0
LINE
  5
334
330
23
100
AcDbEntity
  8
0
  6
Continuous
 62
     7
370
    25
100
AcDbLine
 10
1.7525841842
 20
0.4036037495
 30
0.0
 11
1.7557249561
 21
0.403813438
 31
0.0
  0
LINE
  5
335
330
23
100
AcDbEntity
  8
0
  6
Continuous
 62
     7
370
    25
100
AcDbLine
 10
1.7514907953
 20
0.3896355606
 30
0.0
 11
1.7525841842
 21
0.4036037495
 31
0.0
  0
LINE
  5
336
330
23
100
AcDbEntity
  8
0
  6
Continuous
 62
     7
370
    25
100
AcDbLine
 10
1.7445482082
 20
0.3891685011
 30
0.0
 11
1.7514907953
 21
0.3896355606
 31
0.0
  0
LINE
  5
337
330
23
100
AcDbEntity
  8
0
  6
Continuous
 62
     7
370
    25
100
AcDbLine
 10
1.796071197
 20
0.3917826643
 30
0.0
 11
1.7952756501
 21
0.3947363714
 31
0.0
  0
LINE
  5
338
330
23
100
AcDbEntity
  8
0
  6
Continuous
 62
     7
370
    25
100
AcDbLine
 10
1.8023743178
 20
0.3934852429
 30
0.0
 11
1.796071197
 21
0.3917826643
 31
0.0
  0
LINE
  5
339
330
23
100
AcDbEntity
  8
0
  6
Continuous
 62
     7
370
    25
100
AcDbLine
 10
1.8035196944
 20
0.3840175442
 30
0.0
 11
1.8023743178
 21
0.3934852429
 31
0.0
  0
LINE
  5
33A
330
23
100
AcDbEntity
  8
0
  6
Continuous
 62
     7
370
    25
100
AcDbLine
 10
1.7969659941
 20
0.3822457766
 30
0.0
 11
1.8035196944
 21
0.3840175442
 31
0.0
  0
LINE
  5
33B
330
23
100
AcDbEntity
  8
0
  6
Continuous
 62
     7
370
    25
100
AcDbLine
 10
1.7977740717
 20
0.3792688391
 30
0.0
 11
1.7969659941
 21
0.3822457766
 31
0.0
  0
LINE
  5
33C
330
23
100
AcDbEntity
  8
0
  6
Continuous
 62
     7
370
    25
100
AcDbLine
 10
1.8038909544
 20
0.3809219407
 30
0.0
 11
1.7977740717
 21
0.3792688391
 31
0.0
  0
LINE
  5
33D
330
23
100
AcDbEntity
  8
0
  6
Continuous
 62
     7
370
    25
100
AcDbLine
 10
1.805458541
 20
0.3676303815
 30
0.0
 11
1.8038909544
 21
0.3809219407
 31
0.0
  0
LINE
  5
33E
330
23
100
AcDbEntity
  8
0
  6
Continuous
 62
     7
370
    25
100
AcDbLine
 10
1.8085162643
 20
0.3684610434
 30
0.0
 11
1.805458541
 21
0.3676303815
 31
0.0
  0
LINE
  5
33F
330
23
100
AcDbEntity
  8
0
  6
Continuous
 62
     7
370
    25
100
AcDbLine
 10
1.8069254473
 20
0.3817400718
 30
0.0
 11
1.8085162643
 21
0.3684610434
 31
0.0
  0
LINE
  5
340
330
23
100
AcDbEntity
  8
0
  6
Continuous
 62
     7
370
    25
100
AcDbLine
 10
1.815987815
 20
0.384187284
 30
0.0
 11
1.8069254473
 21
0.3817400718
 31
0.0
  0
LINE
  5
341
330
23
100
AcDbEntity
  8
0
  6
Continuous
 62
     7
370
    25
100
AcDbLine
 10
1.8175868541
 20
0.3709096918
 30
0.0
 11
1.815987815
 21
0.384187284
 31
0.0
  0
LINE
  5
342
330
23
100
AcDbEntity
  8
0
  6
Continuous
 62
     7
370
    25
100
AcDbLine
 10
1.8205076725
 20
0.3716994938
 30
0.0
 11
1.8175868541
 21
0.3709096918
 31
0.0
  0
LINE
  5
343
330
23
100
AcDbEntity
  8
0
  6
Continuous
 62
     7
370
    25
100
AcDbLine
 10
1.8189661886
 20
0.3849871394
 30
0.0
 11
1.8205076725
 21
0.3716994938
 31
0.0
  0
LINE
  5
344
330
23
100
AcDbEntity
  8
0
  6
Continuous
 62
     7
370
    25
100
AcDbLine
 10
1.8263127384
 20
0.3869736547
 30
0.0
 11
1.8189661886
 21
0.3849871394
 31
0.0
  0
LINE
  5
345
330
23
100
AcDbEntity
  8
0
  6
Continuous
 62
     7
370
    25
100
AcDbLine
 10
1.8185949286
 20
0.3880827429
 30
0.0
 11
1.8255046608
 21
0.3899505922
 31
0.0
  0
LINE
  5
346
330
23
100
AcDbEntity
  8
0
  6
Continuous
 62
     7
370
    25
100
AcDbLine
 10
1.8175289016
 20
0.3975812481
 30
0.0
 11
1.8185949286
 21
0.3880827429
 31
0.0
  0
LINE
  5
347
330
23
100
AcDbEntity
  8
0
  6
Continuous
 62
     7
370
    25
100
AcDbLine
 10
1.8247138798
 20
0.3995225949
 30
0.0
 11
1.8175289016
 21
0.3975812481
 31
0.0
  0
LINE
  5
348
330
23
100
AcDbEntity
  8
0
  6
Continuous
 62
     7
370
    25
100
AcDbLine
 10
1.823918333
 20
0.402476302
 30
0.0
 11
1.8247138798
 21
0.3995225949
 31
0.0
  0
LINE
  5
349
330
23
100
AcDbEntity
  8
0
  6
Continuous
 62
     7
370
    25
100
AcDbLine
 10
1.8172030611
 20
0.400659366
 30
0.0
 11
1.823918333
 21
0.402476302
 31
0.0
  0
LINE
  5
34A
330
23
100
AcDbEntity
  8
0
  6
Continuous
 62
     7
370
    25
100
AcDbLine
 10
1.8156309853
 20
0.4147042438
 30
0.0
 11
1.8172030611
 21
0.400659366
 31
0.0
  0
LINE
  5
34B
330
23
100
AcDbEntity
  8
0
  6
Continuous
 62
     7
370
    25
100
AcDbLine
 10
1.8126279451
 20
0.4139000797
 30
0.0
 11
1.8156309853
 21
0.4147042438
 31
0.0
  0
LINE
  5
34C
330
23
100
AcDbEntity
  8
0
  6
Continuous
 62
     7
370
    25
100
AcDbLine
 10
1.8141932348
 20
0.3998455436
 30
0.0
 11
1.8126279451
 21
0.4139000797
 31
0.0
  0
LINE
  5
34D
330
23
100
AcDbEntity
  8
0
  6
Continuous
 62
     7
370
    25
100
AcDbLine
 10
1.8051062006
 20
0.3973940227
 30
0.0
 11
1.8141932348
 21
0.3998455436
 31
0.0
  0
LINE
  5
34E
330
23
100
AcDbEntity
  8
0
  6
Continuous
 62
     7
370
    25
100
AcDbLine
 10
1.8654532323
 20
0.4175507155
 30
0.0
 11
1.868350188
 21
0.4085330141
 31
0.0
  0
LINE
  5
34F
330
23
100
AcDbEntity
  8
0
  6
Continuous
 62
     7
370
    25
100
AcDbLine
 10
1.6466789547
 20
0.9007557792
 30
0.0
 11
1.65294821
 21
0.8824729571
 31
0.0
  0
LINE
  5
350
330
23
100
AcDbEntity
  8
0
  6
Continuous
 62
     7
370
    25
100
AcDbLine
 10
1.6866494775
 20
0.9141143062
 30
0.0
 11
1.685922005
 21
0.9178424799
 31
0.0
  0
LINE
  5
351
330
23
100
AcDbEntity
  8
0
  6
Continuous
 62
     7
370
    25
100
AcDbLine
 10
1.8255046608
 20
0.3899505922
 30
0.0
 11
1.8263127384
 21
0.3869736547
 31
0.0
  0
LINE
  5
352
330
23
100
AcDbEntity
  8
0
  6
Continuous
 62
     7
370
    25
100
AcDbLine
 10
1.7659582553
 20
0.3781651471
 30
0.0
 11
1.7730449283
 21
0.3786319556
 31
0.0
  0
LINE
  5
353
330
23
100
AcDbEntity
  8
0
  6
Continuous
 62
     7
370
    25
100
AcDbLine
 10
1.6998380517
 20
0.3800457538
 30
0.0
 11
1.7091609139
 21
0.3788187924
 31
0.0
  0
LINE
  5
354
330
23
100
AcDbEntity
  8
0
  6
Continuous
 62
     7
370
    25
100
AcDbLine
 10
1.7117573563
 20
0.3879656872
 30
0.0
 11
1.7024963581
 21
0.3891780354
 31
0.0
  0
LINE
  5
355
330
23
100
AcDbEntity
  8
0
  6
Continuous
 62
     7
370
    25
100
AcDbLine
 10
1.7091609139
 20
0.3788187924
 30
0.0
 11
1.7117573563
 21
0.3879656872
 31
0.0
  0
LINE
  5
356
330
23
100
AcDbEntity
  8
0
  6
Continuous
 62
     7
370
    25
100
AcDbLine
 10
1.7024963581
 20
0.3891780354
 30
0.0
 11
1.6998380517
 21
0.3800457538
 31
0.0
  0
LINE
  5
357
330
23
100
AcDbEntity
  8
0
  6
Continuous
 62
     7
370
    25
100
AcDbLine
 10
0.17
 20
0.252480315
 30
0.0
 11
0.4028299262
 21
0.252480315
 31
0.0
  0
LINE
  5
358
330
23
100
AcDbEntity
  8
0
  6
Continuous
 62
     7
370
    25
100
AcDbLine
 10
0.9214220423
 20
0.252480315
 30
0.0
 11
1.5338094881
 21
0.252480315
 31
0.0
  0
LINE
  5
359
330
23
100
AcDbEntity
  8
0
  6
Continuous
 62
     7
370
    25
100
AcDbLine
 10
1.9476675816
 20
0.252480315
 30
0.0
 11
2.5681842569
 21
0.252480315
 31
0.0
  0
LINE
  5
35A
330
23
100
AcDbEntity
  8
0
  6
Continuous
 62
     7
370
    25
100
AcDbLine
 10
3.086776373
 20
0.252480315
 30
0.0
 11
3.3196062992
 21
0.252480315
 31
0.0
  0
LINE
  5
35B
330
23
100
AcDbEntity
  8
0
  6
Continuous
 62
     7
370
    25
100
AcDbLine
 10
0.17
 20
1.002480315
 30
0.0
 11
0.17
 21
0.252480315
 31
0.0
  0
LINE
  5
35C
330
23
100
AcDbEntity
  8
0
  6
Continuous
 62
     7
370
    25
100
AcDbLine
 10
0.17
 20
1.002480315
 30
0.0
 11
0.429226178
 21
1.002480315
 31
0.0
  0
LINE
  5
35D
330
23
100
AcDbEntity
  8
0
  6
Continuous
 62
     7
370
    25
100
AcDbLine
 10
0.8950257905
 20
1.002480315
 30
0.0
 11
1.4619479049
 21
1.002480315
 31
0.0
  0
LINE
  5
35E
330
23
100
AcDbEntity
  8
0
  6
Continuous
 62
     7
370
    25
100
AcDbLine
 10
2.0195291648
 20
1.002480315
 30
0.0
 11
2.5945805087
 21
1.002480315
 31
0.0
  0
LINE
  5
35F
330
23
100
AcDbEntity
  8
0
  6
Continuous
 62
     7
370
    25
100
AcDbLine
 10
3.0603801212
 20
1.002480315
 30
0.0
 11
3.3196062992
 21
1.002480315
 31
0.0
  0
LINE
  5
360
330
23
100
AcDbEntity
  8
0
  6
Continuous
 62
     7
370
    25
100
AcDbLine
 10
3.3196062992
 20
1.002480315
 30
0.0
 11
3.3196062992
 21
0.252480315
 31
0.0
  0
ARC
  5
361
330
23
100
AcDbEntity
  8
0
  6
Continuous
 62
     7
370
    25
100
AcDbCircle
 10
1.0558267717
 20
0.627480315
 30
0.0
 40
0.098425196850394
100
AcDbArc
 50
299.4971563585
 51
0.0
  0
ARC
  5
362
330
23
100
AcDbEntity
  8
0
  6
Continuous
 62
     7
370
    25
100
AcDbCircle
 10
1.0558267717
 20
0.627480315
 30
0.0
 40
0.0984251968503941
100
AcDbArc
 50
0.0
 51
63.0234513345
  0
ARC
  5
363
330
23
100
AcDbEntity
  8
0
  6
Continuous
 62
     7
370
    25
100
AcDbCircle
 10
2.4337795276
 20
0.627480315
 30
0.0
 40
0.0984251968503945
100
AcDbArc
 50
116.9765486655
 51
240.5028436415
  0
ENDBLK
  5
25
330
23
100
AcDbEntity
  8
0
100
AcDbBlockEnd
  0
BLOCK
  5
366
330
364
100
AcDbEntity
  8
0
100
AcDbBlockBegin
  2
*Paper_Space1
 70
     0
 10
0.0
 20
0.0
 30
0.0
  3
*Paper_Space1
  1

  0
ARC
  5
368
330
364
100
AcDbEntity
  8
0
  6
Continuous
 62
     7
370
    25
100
AcDbCircle
 10
0.3077952756
 20
0.4101574803
 30
0.0
 40
0.1968503937007877
100
AcDbArc
 50
225.5729959992
 51
314.4270040008
  0
ARC
  5
369
330
364
100
AcDbEntity
  8
0
  6
Continuous
 62
     7
370
    25
100
AcDbCircle
 10
0.3077952756
 20
0.9140944882
 30
0.0
 40
0.1968503937007878
100
AcDbArc
 50
45.5729959992
 51
134.4270040008
  0
LINE
  5
36A
330
364
100
AcDbEntity
  8
0
  6
Continuous
 62
     7
370
    25
100
AcDbLine
 10
0.4455905512
 20
0.4263484252
 30
0.0
 11
0.5637007874
 21
0.4263484252
 31
0.0
  0
LINE
  5
36B
330
364
100
AcDbEntity
  8
0
  6
Continuous
 62
     7
370
    25
100
AcDbLine
 10
0.5637007874
 20
0.8979035433
 30
0.0
 11
0.4455905512
 21
0.8979035433
 31
0.0
  0
ARC
  5
36C
330
364
100
AcDbEntity
  8
0
  6
Continuous
 62
     7
370
    25
100
AcDbCircle
 10
0.3077952756
 20
2.575511811
 30
0.0
 40
0.1968503937007868
100
AcDbArc
 50
225.5729959992
 51
314.4270040008
  0
ARC
  5
36D
330
364
100
AcDbEntity
  8
0
  6
Continuous
 62
     7
370
    25
100
AcDbCircle
 10
0.3077952756
 20
3.0794488189
 30
0.0
 40
0.1968503937007887
100
AcDbArc
 50
45.5729959992
 51
134.4270040008
  0
ARC
  5
36E
330
364
100
AcDbEntity
  8
0
  6
Continuous
 62
     7
370
    25
100
AcDbCircle
 10
0.3077952756
 20
1.4968992604
 30
0.0
 40
0.1968503937007869
100
AcDbArc
 50
225.5729959992
 51
314.4270040008
  0
ARC
  5
36F
330
364
100
AcDbEntity
  8
0
  6
Continuous
 62
     7
370
    25
100
AcDbCircle
 10
0.3077952756
 20
2.0008362683
 30
0.0
 40
0.1968503937007871
100
AcDbArc
 50
45.5729959992
 51
134.4270040008
  0
LINE
  5
370
330
364
100
AcDbEntity
  8
0
  6
Continuous
 62
     7
370
    25
100
AcDbLine
 10
0.4455905512
 20
1.5130902053
 30
0.0
 11
0.5637007874
 21
1.5130902053
 31
0.0
  0
LINE
  5
371
330
364
100
AcDbEntity
  8
0
  6
Continuous
 62
     7
370
    25
100
AcDbLine
 10
0.5637007874
 20
1.9846453234
 30
0.0
 11
0.4455905512
 21
1.9846453234
 31
0.0
  0
LINE
  5
372
330
364
100
AcDbEntity
  8
0
  6
Continuous
 62
     7
370
    25
100
AcDbLine
 10
0.4455905512
 20
0.6577969932
 30
0.0
 11
0.4455905512
 21
1.054673788
 31
0.0
  0
LINE
  5
373
330
364
100
AcDbEntity
  8
0
  6
Continuous
 62
     7
370
    25
100
AcDbLine
 10
0.4455905512
 20
0.2695781805
 30
0.0
 11
0.4455905512
 21
0.6577969932
 31
0.0
  0
LINE
  5
374
330
364
100
AcDbEntity
  8
0
  6
Continuous
 62
     7
370
    25
100
AcDbLine
 10
0.17
 20
0.6577969932
 30
0.0
 11
0.17
 21
1.054673788
 31
0.0
  0
LINE
  5
375
330
364
100
AcDbEntity
  8
0
  6
Continuous
 62
     7
370
    25
100
AcDbLine
 10
0.17
 20
0.2695781805
 30
0.0
 11
0.17
 21
0.6577969932
 31
0.0
  0
LINE
  5
376
330
364
100
AcDbEntity
  8
0
  6
Continuous
 62
     7
370
    25
100
AcDbLine
 10
0.5637007874
 20
0.8925463495
 30
0.0
 11
0.4455905512
 21
0.8925463495
 31
0.0
  0
LINE
  5
377
330
364
100
AcDbEntity
  8
0
  6
Continuous
 62
     7
370
    25
100
AcDbLine
 10
0.4455905512
 20
0.707007137
 30
0.0
 11
0.5637007874
 21
0.707007137
 31
0.0
  0
LINE
  5
378
330
364
100
AcDbEntity
  8
0
  6
Continuous
 62
     7
370
    25
100
AcDbLine
 10
0.5637007874
 20
0.6121508641
 30
0.0
 11
0.4455905512
 21
0.6121508641
 31
0.0
  0
LINE
  5
379
330
364
100
AcDbEntity
  8
0
  6
Continuous
 62
     7
370
    25
100
AcDbLine
 10
0.4455905512
 20
0.4306594867
 30
0.0
 11
0.5637007874
 21
0.4306594867
 31
0.0
  0
LINE
  5
37A
330
364
100
AcDbEntity
  8
0
  6
Continuous
 62
     7
370
    25
100
AcDbLine
 10
0.4455905512
 20
2.4349325112
 30
0.0
 11
0.4455905512
 21
3.2200281187
 31
0.0
  0
LINE
  5
37B
330
364
100
AcDbEntity
  8
0
  6
Continuous
 62
     7
370
    25
100
AcDbLine
 10
0.17
 20
2.4349325112
 30
0.0
 11
0.17
 21
3.2200281187
 31
0.0
  0
LINE
  5
37C
330
364
100
AcDbEntity
  8
0
  6
Continuous
 62
     7
370
    25
100
AcDbLine
 10
0.5637007874
 20
2.6251257513
 30
0.0
 11
0.4455905512
 21
2.6251257513
 31
0.0
  0
LINE
  5
37D
330
364
100
AcDbEntity
  8
0
  6
Continuous
 62
     7
370
    25
100
AcDbLine
 10
0.5637007874
 20
3.0298348787
 30
0.0
 11
0.4455905512
 21
3.0298348787
 31
0.0
  0
LINE
  5
37E
330
364
100
AcDbEntity
  8
0
  6
Continuous
 62
     7
370
    25
100
AcDbLine
 10
0.4455905512
 20
3.0184474232
 30
0.0
 11
0.5637007874
 21
3.0184474232
 31
0.0
  0
LINE
  5
37F
330
364
100
AcDbEntity
  8
0
  6
Continuous
 62
     7
370
    25
100
AcDbLine
 10
0.5637007874
 20
2.9484914215
 30
0.0
 11
0.4455905512
 21
2.9484914215
 31
0.0
  0
LINE
  5
380
330
364
100
AcDbEntity
  8
0
  6
Continuous
 62
     7
370
    25
100
AcDbLine
 10
0.4455905512
 20
2.6891957499
 30
0.0
 11
0.5637007874
 21
2.6891957499
 31
0.0
  0
LINE
  5
381
330
364
100
AcDbEntity
  8
0
  6
Continuous
 62
     7
370
    25
100
AcDbLine
 10
0.4455905512
 20
1.3563199607
 30
0.0
 11
0.4455905512
 21
2.1414155681
 31
0.0
  0
LINE
  5
382
330
364
100
AcDbEntity
  8
0
  6
Continuous
 62
     7
370
    25
100
AcDbLine
 10
0.17
 20
1.3563199607
 30
0.0
 11
0.17
 21
2.1414155681
 31
0.0
  0
LINE
  5
383
330
364
100
AcDbEntity
  8
0
  6
Continuous
 62
     7
370
    25
100
AcDbLine
 10
0.5637007874
 20
1.9845418923
 30
0.0
 11
0.4455905512
 21
1.9845418923
 31
0.0
  0
LINE
  5
384
330
364
100
AcDbEntity
  8
0
  6
Continuous
 62
     7
370
    25
100
AcDbLine
 10
0.4455905512
 20
1.8353319
 30
0.0
 11
0.5637007874
 21
1.8353319
 31
0.0
  0
LINE
  5
385
330
364
100
AcDbEntity
  8
0
  6
Continuous
 62
     7
370
    25
100
AcDbLine
 10
0.5637007874
 20
1.7418847303
 30
0.0
 11
0.4455905512
 21
1.7418847303
 31
0.0
  0
LINE
  5
386
330
364
100
AcDbEntity
  8
0
  6
Continuous
 62
     7
370
    25
100
AcDbLine
 10
0.4455905512
 20
1.5295164238
 30
0.0
 11
0.5637007874
 21
1.5295164238
 31
0.0
  0
LINE
  5
387
330
364
100
AcDbEntity
  8
0
  6
Continuous
 62
     7
370
    25
100
AcDbLine
 10
0.9574015748
 20
0.17
 30
0.0
 11
0.5637007874
 21
0.17
 31
0.0
  0
LINE
  5
388
330
364
100
AcDbEntity
  8
0
  6
Continuous
 62
     7
370
    25
100
AcDbLine
 10
0.9574015748
 20
3.3196062992
 30
0.0
 11
0.5637007874
 21
3.3196062992
 31
0.0
  0
LINE
  5
389
330
364
100
AcDbEntity
  8
0
  6
Continuous
 62
     7
370
    25
100
AcDbLine
 10
0.9574015748
 20
3.3196062992
 30
0.0
 11
0.9574015748
 21
0.17
 31
0.0
  0
LINE
  5
38A
330
364
100
AcDbEntity
  8
0
  6
Continuous
 62
     7
370
    25
100
AcDbLine
 10
0.5637007874
 20
3.3196062992
 30
0.0
 11
0.5637007874
 21
0.17
 31
0.0
  0
ENDBLK
  5
367
330
364
100
AcDbEntity
  8
0
100
AcDbBlockEnd
  0
BLOCK
  5
38D
330
38B
100
AcDbEntity
  8
0
100
AcDbBlockBegin
  2
*Paper_Space2
 70
     0
 10
0.0
 20
0.0
 30
0.0
  3
*Paper_Space2
  1

  0
LINE
  5
38F
330
38B
100
AcDbEntity
  8
0
  6
Continuous
 62
     7
370
    25
100
AcDbLine
 10
0.5637007874
 20
0.3830413386
 30
0.0
 11
0.6818110236
 21
0.3830413386
 31
0.0
  0
ARC
  5
390
330
38B
100
AcDbEntity
  8
0
  6
Continuous
 62
     7
370
    25
100
AcDbCircle
 10
0.8196062992
 20
0.8707874016
 30
0.0
 40
0.1968503937007876
100
AcDbArc
 50
45.5729959992
 51
134.4270040008
  0
ARC
  5
391
330
38B
100
AcDbEntity
  8
0
  6
Continuous
 62
     7
370
    25
100
AcDbCircle
 10
0.8196062992
 20
0.3668503937
 30
0.0
 40
0.1968503937007873
100
AcDbArc
 50
225.5729959992
 51
314.4270040008
  0
ARC
  5
392
330
38B
100
AcDbEntity
  8
0
  6
Continuous
 62
     7
370
    25
100
AcDbCircle
 10
0.8196062992
 20
0.9027185422
 30
0.0
 40
0.1968503937007876
100
AcDbArc
 50
45.5729959992
 51
134.4270040008
  0
LINE
  5
393
330
38B
100
AcDbEntity
  8
0
  6
Continuous
 62
     7
370
    25
100
AcDbLine
 10
0.6818110236
 20
0.8865275973
 30
0.0
 11
0.5637007874
 21
0.8865275973
 31
0.0
  0
LINE
  5
394
330
38B
100
AcDbEntity
  8
0
  6
Continuous
 62
     7
370
    25
100
AcDbLine
 10
0.5637007874
 20
0.4149724792
 30
0.0
 11
0.6818110236
 21
0.4149724792
 31
0.0
  0
LINE
  5
395
330
38B
100
AcDbEntity
  8
0
  6
Continuous
 62
     7
370
    25
100
AcDbLine
 10
0.5637007874
 20
0.3883985324
 30
0.0
 11
0.6818110236
 21
0.3883985324
 31
0.0
  0
LINE
  5
396
330
38B
100
AcDbEntity
  8
0
  6
Continuous
 62
     7
370
    25
100
AcDbLine
 10
0.6818110236
 20
1.0113667013
 30
0.0
 11
0.6818110236
 21
0.2262710939
 31
0.0
  0
LINE
  5
397
330
38B
100
AcDbEntity
  8
0
  6
Continuous
 62
     7
370
    25
100
AcDbLine
 10
0.9574015748
 20
1.0113667013
 30
0.0
 11
0.9574015748
 21
0.2262710939
 31
0.0
  0
LINE
  5
398
330
38B
100
AcDbEntity
  8
0
  6
Continuous
 62
     7
370
    25
100
AcDbLine
 10
0.5637007874
 20
0.4164643339
 30
0.0
 11
0.6818110236
 21
0.4164643339
 31
0.0
  0
LINE
  5
399
330
38B
100
AcDbEntity
  8
0
  6
Continuous
 62
     7
370
    25
100
AcDbLine
 10
0.6818110236
 20
0.4278517894
 30
0.0
 11
0.5637007874
 21
0.4278517894
 31
0.0
  0
LINE
  5
39A
330
38B
100
AcDbEntity
  8
0
  6
Continuous
 62
     7
370
    25
100
AcDbLine
 10
0.5637007874
 20
0.4978077911
 30
0.0
 11
0.6818110236
 21
0.4978077911
 31
0.0
  0
LINE
  5
39B
330
38B
100
AcDbEntity
  8
0
  6
Continuous
 62
     7
370
    25
100
AcDbLine
 10
0.6818110236
 20
0.7571034627
 30
0.0
 11
0.5637007874
 21
0.7571034627
 31
0.0
  0
LINE
  5
39C
330
38B
100
AcDbEntity
  8
0
  6
Continuous
 62
     7
370
    25
100
AcDbLine
 10
0.5637007874
 20
0.8211734613
 30
0.0
 11
0.6818110236
 21
0.8211734613
 31
0.0
  0
LINE
  5
39D
330
38B
100
AcDbEntity
  8
0
  6
Continuous
 62
     7
370
    25
100
AcDbLine
 10
0.6818110236
 20
1.043297842
 30
0.0
 11
0.6818110236
 21
1.0113667013
 31
0.0
  0
LINE
  5
39E
330
38B
100
AcDbEntity
  8
0
  6
Continuous
 62
     7
370
    25
100
AcDbLine
 10
0.9574015748
 20
1.043297842
 30
0.0
 11
0.9574015748
 21
1.0113667013
 31
0.0
  0
LINE
  5
39F
330
38B
100
AcDbEntity
  8
0
  6
Continuous
 62
     7
370
    25
100
AcDbLine
 10
0.5637007874
 20
0.4150759103
 30
0.0
 11
0.6818110236
 21
0.4150759103
 31
0.0
  0
LINE
  5
3A0
330
38B
100
AcDbEntity
  8
0
  6
Continuous
 62
     7
370
    25
100
AcDbLine
 10
0.6818110236
 20
0.8701013788
 30
0.0
 11
0.5637007874
 21
0.8701013788
 31
0.0
  0
LINE
  5
3A1
330
38B
100
AcDbEntity
  8
0
  6
Continuous
 62
     7
370
    25
100
AcDbLine
 10
0.17
 20
1.002480315
 30
0.0
 11
0.5637007874
 21
1.002480315
 31
0.0
  0
LINE
  5
3A2
330
38B
100
AcDbEntity
  8
0
  6
Continuous
 62
     7
370
    25
100
AcDbLine
 10
0.5637007874
 20
1.002480315
 30
0.0
 11
0.5637007874
 21
0.252480315
 31
0.0
  0
LINE
  5
3A3
330
38B
100
AcDbEntity
  8
0
  6
Continuous
 62
     7
370
    25
100
AcDbLine
 10
0.5637007874
 20
0.252480315
 30
0.0
 11
0.17
 21
0.252480315
 31
0.0
  0
LINE
  5
3A4
330
38B
100
AcDbEntity
  8
0
  6
Continuous
 62
     7
370
    25
100
AcDbLine
 10
0.17
 20
0.252480315
 30
0.0
 11
0.17
 21
1.002480315
 31
0.0
  0
ENDBLK
  5
38E
330
38B
100
AcDbEntity
  8
0
100
AcDbBlockEnd
  0
ENDSEC
  0
SECTION
  2
ENTITIES
  0
ARC
  5
74
330
1F
100
AcDbEntity
  8
0
  6
Continuous
 62
     7
370
    25
100
AcDbCircle
 10
0.3077952756
 20
0.3668503937
 30
0.0
 40
0.1968503937007877
100
AcDbArc
 50
225.5729959992
 51
314.4270040008
  0
ARC
  5
75
330
1F
100
AcDbEntity
  8
0
  6
Continuous
 62
     7
370
    25
100
AcDbCircle
 10
0.3077952756
 20
0.8707874016
 30
0.0
 40
0.1968503937007875
100
AcDbArc
 50
45.5729959992
 51
134.4270040008
  0
LINE
  5
76
330
1F
100
AcDbEntity
  8
0
  6
Continuous
 62
     7
370
    25
100
AcDbLine
 10
0.4455905512
 20
0.3830413386
 30
0.0
 11
0.5637007874
 21
0.3830413386
 31
0.0
  0
LINE
  5
77
330
1F
100
AcDbEntity
  8
0
  6
Continuous
 62
     7
370
    25
100
AcDbLine
 10
0.5637007874
 20
0.8545964567
 30
0.0
 11
0.4455905512
 21
0.8545964567
 31
0.0
  0
ARC
  5
78
330
1F
100
AcDbEntity
  8
0
  6
Continuous
 62
     7
370
    25
100
AcDbCircle
 10
0.3077952756
 20
0.9027185422
 30
0.0
 40
0.1968503937007873
100
AcDbArc
 50
45.5729959992
 51
134.4270040008
  0
LINE
  5
79
330
1F
100
AcDbEntity
  8
0
  6
Continuous
 62
     7
370
    25
100
AcDbLine
 10
0.5637007874
 20
0.8865275973
 30
0.0
 11
0.4455905512
 21
0.8865275973
 31
0.0
  0
LINE
  5
7A
330
1F
100
AcDbEntity
  8
0
  6
Continuous
 62
     7
370
    25
100
AcDbLine
 10
0.4455905512
 20
1.0113428307
 30
0.0
 11
0.4455905512
 21
1.0113667013
 31
0.0
  0
LINE
  5
7B
330
1F
100
AcDbEntity
  8
0
  6
Continuous
 62
     7
370
    25
100
AcDbLine
 10
0.4455905512
 20
0.2262710939
 30
0.0
 11
0.4455905512
 21
1.0113428307
 31
0.0
  0
LINE
  5
7C
330
1F
100
AcDbEntity
  8
0
  6
Continuous
 62
     7
370
    25
100
AcDbLine
 10
0.17
 20
1.0113428307
 30
0.0
 11
0.17
 21
1.0113667013
 31
0.0
  0
LINE
  5
7D
330
1F
100
AcDbEntity
  8
0
  6
Continuous
 62
     7
370
    25
100
AcDbLine
 10
0.17
 20
0.2262710939
 30
0.0
 11
0.17
 21
1.0113428307
 31
0.0
  0
LINE
  5
7E
330
1F
100
AcDbEntity
  8
0
  6
Continuous
 62
     7
370
    25
100
AcDbLine
 10
0.5637007874
 20
0.8545964567
 30
0.0
 11
0.4455905512
 21
0.8492392629
 31
0.0
  0
LINE
  5
7F
330
1F
100
AcDbEntity
  8
0
  6
Continuous
 62
     7
370
    25
100
AcDbLine
 10
0.4455905512
 20
0.5688437775
 30
0.0
 11
0.5637007874
 21
0.6637000504
 31
0.0
  0
LINE
  5
80
330
1F
100
AcDbEntity
  8
0
  6
Continuous
 62
     7
370
    25
100
AcDbLine
 10
0.5637007874
 20
0.6637000504
 30
0.0
 11
0.4455905512
 21
0.5688437775
 31
0.0
  0
LINE
  5
81
330
1F
100
AcDbEntity
  8
0
  6
Continuous
 62
     7
370
    25
100
AcDbLine
 10
0.4455905512
 20
0.3830413386
 30
0.0
 11
0.5637007874
 21
0.3873524001
 31
0.0
  0
LINE
  5
82
330
1F
100
AcDbEntity
  8
0
  6
Continuous
 62
     7
370
    25
100
AcDbLine
 10
0.4455905512
 20
1.0113667013
 30
0.0
 11
0.4455905512
 21
1.043297842
 31
0.0
  0
LINE
  5
83
330
1F
100
AcDbEntity
  8
0
  6
Continuous
 62
     7
370
    25
100
AcDbLine
 10
0.17
 20
1.0113667013
 30
0.0
 11
0.17
 21
1.043297842
 31
0.0
  0
LINE
  5
84
330
1F
100
AcDbEntity
  8
0
  6
Continuous
 62
     7
370
    25
100
AcDbLine
 10
0.5637007874
 20
0.8865275973
 30
0.0
 11
0.4455905512
 21
0.8864241662
 31
0.0
  0
LINE
  5
85
330
1F
100
AcDbEntity
  8
0
  6
Continuous
 62
     7
370
    25
100
AcDbLine
 10
0.9574015748
 20
1.002480315
 30
0.0
 11
0.5637007874
 21
1.002480315
 31
0.0
  0
LINE
  5
86
330
1F
100
AcDbEntity
  8
0
  6
Continuous
 62
     7
370
    25
100
AcDbLine
 10
0.5637007874
 20
0.252480315
 30
0.0
 11
0.9574015748
 21
0.252480315
 31
0.0
  0
LINE
  5
87
330
1F
100
AcDbEntity
  8
0
  6
Continuous
 62
     7
370
    25
100
AcDbLine
 10
0.5637007874
 20
1.002480315
 30
0.0
 11
0.5637007874
 21
0.252480315
 31
0.0
  0
LINE
  5
88
330
1F
100
AcDbEntity
  8
0
  6
Continuous
 62
     7
370
    25
100
AcDbLine
 10
0.9574015748
 20
0.252480315
 30
0.0
 11
0.9574015748
 21
1.002480315
 31
0.0
  0
ARC
  5
89
330
1B
100
AcDbEntity
 67
     1
  8
0
  6
Continuous
 62
     7
370
    25
100
AcDbCircle
 10
0.6621259843
 20
0.6188188976
 30
0.0
 40
0.448818897637795
100
AcDbArc
 50
0.0
 51
12.3999894165
  0
ARC
  5
8A
330
1B
100
AcDbEntity
 67
     1
  8
0
  6
Continuous
 62
     7
370
    25
100
AcDbCircle
 10
0.6621259843
 20
0.6188188976
 30
0.0
 40
0.4488188976377946
100
AcDbArc
 50
58.7403584869
 51
121.2596415131
  0
ARC
  5
8B
330
1B
100
AcDbEntity
 67
     1
  8
0
  6
Continuous
 62
     7
370
    25
100
AcDbCircle
 10
0.6621259843
 20
0.6188188976
 30
0.0
 40
0.4488188976377954
100
AcDbArc
 50
234.708972281
 51
305.291027719
  0
ARC
  5
8C
330
1B
100
AcDbEntity
 67
     1
  8
0
  6
Continuous
 62
     7
370
    25
100
AcDbCircle
 10
0.6621259843
 20
0.6188188976
 30
0.0
 40
0.4488188976377956
100
AcDbArc
 50
350.1206182765
 51
0.0
  0
ARC
  5
8D
330
1B
100
AcDbEntity
 67
     1
  8
0
  6
Continuous
 62
     7
370
    25
100
AcDbCircle
 10
2.827480315
 20
0.6188188976
 30
0.0
 40
0.4488188976377963
100
AcDbArc
 50
58.7403584869
 51
121.2596415131
  0
ARC
  5
8E
330
1B
100
AcDbEntity
 67
     1
  8
0
  6
Continuous
 62
     7
370
    25
100
AcDbCircle
 10
2.827480315
 20
0.6188188976
 30
0.0
 40
0.4488188976377972
100
AcDbArc
 50
167.6000105835
 51
189.8793817235
  0
ARC
  5
8F
330
1B
100
AcDbEntity
 67
     1
  8
0
  6
Continuous
 62
     7
370
    25
100
AcDbCircle
 10
2.827480315
 20
0.6188188976
 30
0.0
 40
0.4488188976377957
100
AcDbArc
 50
234.708972281
 51
305.291027719
  0
ARC
  5
90
330
1B
100
AcDbEntity
 67
     1
  8
0
  6
Continuous
 62
     7
370
    25
100
AcDbCircle
 10
1.7488677644
 20
0.6507500383
 30
0.0
 40
0.4488188976377955
100
AcDbArc
 50
51.5987346423
 51
128.4012653577
  0
ARC
  5
91
330
1B
100
AcDbEntity
 67
     1
  8
0
  6
Continuous
 62
     7
370
    25
100
AcDbCircle
 10
1.7488677644
 20
0.6507500383
 30
0.0
 40
0.4488188976377946
100
AcDbArc
 50
242.5449597612
 51
297.4550402388
  0
CIRCLE
  5
92
330
1B
100
AcDbEntity
 67
     1
  8
0
  6
Continuous
 62
     7
370
    25
100
AcDbCircle
 10
2.827480315
 20
0.6188188976
 30
0.0
 40
0.1476377952755903
  0
CIRCLE
  5
93
330
1B
100
AcDbEntity
 67
     1
  8
0
  6
Continuous
 62
     7
370
    25
100
AcDbCircle
 10
2.827480315
 20
0.6188188976
 30
0.0
 40
0.167322834645669
  0
LINE
  5
94
330
1B
100
AcDbEntity
 67
     1
  8
0
  6
Continuous
 62
     7
370
    25
100
AcDbLine
 10
2.7433546553
 20
0.6580668644
 30
0.0
 11
2.7514277489
 21
0.5655879227
 31
0.0
  0
LINE
  5
95
330
1B
100
AcDbEntity
 67
     1
  8
0
  6
Continuous
 62
     7
370
    25
100
AcDbLine
 10
2.7514277489
 20
0.5655879227
 30
0.0
 11
2.8355534085
 21
0.5263399559
 31
0.0
  0
LINE
  5
96
330
1B
100
AcDbEntity
 67
     1
  8
0
  6
Continuous
 62
     7
370
    25
100
AcDbLine
 10
2.9116059746
 20
0.5795709309
 30
0.0
 11
2.8355534085
 21
0.5263399559
 31
0.0
  0
LINE
  5
97
330
1B
100
AcDbEntity
 67
     1
  8
0
  6
Continuous
 62
     7
370
    25
100
AcDbLine
 10
2.903532881
 20
0.6720498726
 30
0.0
 11
2.9116059746
 21
0.5795709309
 31
0.0
  0
LINE
  5
98
330
1B
100
AcDbEntity
 67
     1
  8
0
  6
Continuous
 62
     7
370
    25
100
AcDbLine
 10
2.7433546553
 20
0.6580668644
 30
0.0
 11
2.8194072214
 21
0.7112978394
 31
0.0
  0
LINE
  5
99
330
1B
100
AcDbEntity
 67
     1
  8
0
  6
Continuous
 62
     7
370
    25
100
AcDbLine
 10
2.903532881
 20
0.6720498726
 30
0.0
 11
2.8194072214
 21
0.7112978394
 31
0.0
  0
ARC
  5
9A
330
1B
100
AcDbEntity
 67
     1
  8
0
  6
Continuous
 62
     7
370
    25
100
AcDbCircle
 10
2.827480315
 20
0.6188188976
 30
0.0
 40
0.080393700787401
100
AcDbArc
 50
4.9890767478
 51
64.9890767478
  0
ARC
  5
9B
330
1B
100
AcDbEntity
 67
     1
  8
0
  6
Continuous
 62
     7
370
    25
100
AcDbCircle
 10
2.827480315
 20
0.6188188976
 30
0.0
 40
0.0803937007874015
100
AcDbArc
 50
304.9890767478
 51
4.9890767478
  0
ARC
  5
9C
330
1B
100
AcDbEntity
 67
     1
  8
0
  6
Continuous
 62
     7
370
    25
100
AcDbCircle
 10
2.827480315
 20
0.6188188976
 30
0.0
 40
0.0803937007874023
100
AcDbArc
 50
244.9890767478
 51
304.9890767478
  0
ARC
  5
9D
330
1B
100
AcDbEntity
 67
     1
  8
0
  6
Continuous
 62
     7
370
    25
100
AcDbCircle
 10
2.827480315
 20
0.6188188976
 30
0.0
 40
0.0803937007874024
100
AcDbArc
 50
184.9890767478
 51
244.9890767478
  0
ARC
  5
9E
330
1B
100
AcDbEntity
 67
     1
  8
0
  6
Continuous
 62
     7
370
    25
100
AcDbCircle
 10
2.827480315
 20
0.6188188976
 30
0.0
 40
0.0803937007874024
100
AcDbArc
 50
124.9890767478
 51
184.9890767478
  0
ARC
  5
9F
330
1B
100
AcDbEntity
 67
     1
  8
0
  6
Continuous
 62
     7
370
    25
100
AcDbCircle
 10
2.827480315
 20
0.6188188976
 30
0.0
 40
0.0803937007874024
100
AcDbArc
 50
64.9890767478
 51
124.9890767478
  0
CIRCLE
  5
A0
330
1B
100
AcDbEntity
 67
     1
  8
0
  6
Continuous
 62
     7
370
    25
100
AcDbCircle
 10
0.6621259843
 20
0.6188188976
 30
0.0
 40
0.1476377952755907
  0
LINE
  5
A1
330
1B
100
AcDbEntity
 67
     1
  8
0
  6
Continuous
 62
     7
370
    25
100
AcDbLine
 10
0.6621259843
 20
0.5259882481
 30
0.0
 11
0.742519685
 21
0.5724035728
 31
0.0
  0
LINE
  5
A2
330
1B
100
AcDbEntity
 67
     1
  8
0
  6
Continuous
 62
     7
370
    25
100
AcDbLine
 10
0.742519685
 20
0.5724035728
 30
0.0
 11
0.742519685
 21
0.6652342224
 31
0.0
  0
LINE
  5
A3
330
1B
100
AcDbEntity
 67
     1
  8
0
  6
Continuous
 62
     7
370
    25
100
AcDbLine
 10
0.6621259843
 20
0.7116495472
 30
0.0
 11
0.742519685
 21
0.6652342224
 31
0.0
  0
LINE
  5
A4
330
1B
100
AcDbEntity
 67
     1
  8
0
  6
Continuous
 62
     7
370
    25
100
AcDbLine
 10
0.5817322835
 20
0.6652342224
 30
0.0
 11
0.6621259843
 21
0.7116495472
 31
0.0
  0
LINE
  5
A5
330
1B
100
AcDbEntity
 67
     1
  8
0
  6
Continuous
 62
     7
370
    25
100
AcDbLine
 10
0.5817322835
 20
0.6652342224
 30
0.0
 11
0.5817322835
 21
0.5724035728
 31
0.0
  0
LINE
  5
A6
330
1B
100
AcDbEntity
 67
     1
  8
0
  6
Continuous
 62
     7
370
    25
100
AcDbLine
 10
0.6621259843
 20
0.5259882481
 30
0.0
 11
0.5817322835
 21
0.5724035728
 31
0.0
  0
CIRCLE
  5
A7
330
1B
100
AcDbEntity
 67
     1
  8
0
  6
Continuous
 62
     7
370
    25
100
AcDbCircle
 10
0.6621259843
 20
0.6188188976
 30
0.0
 40
0.1673228346456695
  0
ARC
  5
A8
330
1B
100
AcDbEntity
 67
     1
  8
0
  6
Continuous
 62
     7
370
    25
100
AcDbCircle
 10
0.6621259843
 20
0.6188188976
 30
0.0
 40
0.0803937007874017
100
AcDbArc
 50
60.0
 51
120.0
  0
ARC
  5
A9
330
1B
100
AcDbEntity
 67
     1
  8
0
  6
Continuous
 62
     7
370
    25
100
AcDbCircle
 10
0.6621259843
 20
0.6188188976
 30
0.0
 40
0.0803937007874013
100
AcDbArc
 50
120.0
 51
180.0
  0
ARC
  5
AA
330
1B
100
AcDbEntity
 67
     1
  8
0
  6
Continuous
 62
     7
370
    25
100
AcDbCircle
 10
0.6621259843
 20
0.6188188976
 30
0.0
 40
0.0803937007874017
100
AcDbArc
 50
180.0
 51
240.0
  0
ARC
  5
AB
330
1B
100
AcDbEntity
 67
     1
  8
0
  6
Continuous
 62
     7
370
    25
100
AcDbCircle
 10
0.6621259843
 20
0.6188188976
 30
0.0
 40
0.0803937007874022
100
AcDbArc
 50
0.0
 51
60.0
  0
ARC
  5
AC
330
1B
100
AcDbEntity
 67
     1
  8
0
  6
Continuous
 62
     7
370
    25
100
AcDbCircle
 10
0.6621259843
 20
0.6188188976
 30
0.0
 40
0.0803937007874022
100
AcDbArc
 50
300.0
 51
0.0
  0
ARC
  5
AD
330
1B
100
AcDbEntity
 67
     1
  8
0
  6
Continuous
 62
     7
370
    25
100
AcDbCircle
 10
0.6621259843
 20
0.6188188976
 30
0.0
 40
0.0803937007874017
100
AcDbArc
 50
240.0
 51
300.0
  0
CIRCLE
  5
AE
330
1B
100
AcDbEntity
 67
     1
  8
0
  6
Continuous
 62
     7
370
    25
100
AcDbCircle
 10
1.7448031496
 20
0.627480315
 30
0.0
 40
0.147637795275591
  0
CIRCLE
  5
AF
330
1B
100
AcDbEntity
 67
     1
  8
0
  6
Continuous
 62
     7
370
    25
100
AcDbCircle
 10
1.7448031496
 20
0.627480315
 30
0.0
 40
0.1673228346456689
  0
LINE
  5
B0
330
1B
100
AcDbEntity
 67
     1
  8
0
  6
Continuous
 62
     7
370
    25
100
AcDbLine
 10
1.7955763293
 20
0.7051952667
 30
0.0
 11
1.8374928619
 21
0.6223669274
 31
0.0
  0
LINE
  5
B1
330
1B
100
AcDbEntity
 67
     1
  8
0
  6
Continuous
 62
     7
370
    25
100
AcDbLine
 10
1.6940299699
 20
0.5497653632
 30
0.0
 11
1.6521134373
 21
0.6325937025
 31
0.0
  0
LINE
  5
B2
330
1B
100
AcDbEntity
 67
     1
  8
0
  6
Continuous
 62
     7
370
    25
100
AcDbLine
 10
1.7867196823
 20
0.5446519757
 30
0.0
 11
1.8374928619
 21
0.6223669274
 31
0.0
  0
LINE
  5
B3
330
1B
100
AcDbEntity
 67
     1
  8
0
  6
Continuous
 62
     7
370
    25
100
AcDbLine
 10
1.702886617
 20
0.7103086543
 30
0.0
 11
1.6521134373
 21
0.6325937025
 31
0.0
  0
LINE
  5
B4
330
1B
100
AcDbEntity
 67
     1
  8
0
  6
Continuous
 62
     7
370
    25
100
AcDbLine
 10
1.702886617
 20
0.7103086543
 30
0.0
 11
1.7955763293
 21
0.7051952667
 31
0.0
  0
LINE
  5
B5
330
1B
100
AcDbEntity
 67
     1
  8
0
  6
Continuous
 62
     7
370
    25
100
AcDbLine
 10
1.6940299699
 20
0.5497653632
 30
0.0
 11
1.7867196823
 21
0.5446519757
 31
0.0
  0
ARC
  5
B6
330
1B
100
AcDbEntity
 67
     1
  8
0
  6
Continuous
 62
     7
370
    25
100
AcDbCircle
 10
1.7448031496
 20
0.627480315
 30
0.0
 40
0.0803937007874015
100
AcDbArc
 50
86.8423803591
 51
146.8423803591
  0
ARC
  5
B7
330
1B
100
AcDbEntity
 67
     1
  8
0
  6
Continuous
 62
     7
370
    25
100
AcDbCircle
 10
1.7448031496
 20
0.627480315
 30
0.0
 40
0.0803937007874015
100
AcDbArc
 50
26.8423803591
 51
86.8423803591
  0
ARC
  5
B8
330
1B
100
AcDbEntity
 67
     1
  8
0
  6
Continuous
 62
     7
370
    25
100
AcDbCircle
 10
1.7448031496
 20
0.627480315
 30
0.0
 40
0.0803937007874013
100
AcDbArc
 50
146.8423803591
 51
206.8423803591
  0
ARC
  5
B9
330
1B
100
AcDbEntity
 67
     1
  8
0
  6
Continuous
 62
     7
370
    25
100
AcDbCircle
 10
1.7448031496
 20
0.627480315
 30
0.0
 40
0.0803937007874019
100
AcDbArc
 50
326.8423803591
 51
26.8423803591
  0
ARC
  5
BA
330
1B
100
AcDbEntity
 67
     1
  8
0
  6
Continuous
 62
     7
370
    25
100
AcDbCircle
 10
1.7448031496
 20
0.627480315
 30
0.0
 40
0.0803937007874019
100
AcDbArc
 50
266.8423803591
 51
326.8423803591
  0
ARC
  5
BB
330
1B
100
AcDbEntity
 67
     1
  8
0
  6
Continuous
 62
     7
370
    25
100
AcDbCircle
 10
1.7448031496
 20
0.627480315
 30
0.0
 40
0.0803937007874015
100
AcDbArc
 50
206.8423803591
 51
266.8423803591
  0
ARC
  5
BC
330
1B
100
AcDbEntity
 67
     1
  8
0
  6
Continuous
 62
     7
370
    25
100
AcDbCircle
 10
0.6621259843
 20
0.6188188976
 30
0.0
 40
0.3232775590551182
100
AcDbArc
 50
350.2170544084
 51
12.3035532846
  0
ARC
  5
BD
330
1B
100
AcDbEntity
 67
     1
  8
0
  6
Continuous
 62
     7
370
    25
100
AcDbCircle
 10
0.6621259843
 20
0.6188188976
 30
0.0
 40
0.3925478037114736
100
AcDbArc
 50
77.7854728639
 51
90.631866855
  0
ARC
  5
BE
330
1B
100
AcDbEntity
 67
     1
  8
0
  6
Continuous
 62
     7
370
    25
100
AcDbCircle
 10
0.6621259843
 20
0.6188188976
 30
0.0
 40
0.3925478037114737
100
AcDbArc
 50
346.8805169137
 51
15.6400907793
  0
ARC
  5
BF
330
1B
100
AcDbEntity
 67
     1
  8
0
  6
Continuous
 62
     7
370
    25
100
AcDbCircle
 10
0.6621259843
 20
0.6188188976
 30
0.0
 40
0.3925478037114739
100
AcDbArc
 50
248.944530879
 51
291.055469121
  0
ARC
  5
C0
330
1B
100
AcDbEntity
 67
     1
  8
0
  6
Continuous
 62
     7
370
    25
100
AcDbCircle
 10
0.6621259843
 20
0.6188188976
 30
0.0
 40
0.3925478037114736
100
AcDbArc
 50
90.631866855
 51
102.2145271361
  0
ARC
  5
C1
330
1B
100
AcDbEntity
 67
     1
  8
0
  6
Continuous
 62
     7
370
    25
100
AcDbCircle
 10
2.827480315
 20
0.6188188976
 30
0.0
 40
0.3925478037114751
100
AcDbArc
 50
164.3599092207
 51
193.1194830863
  0
ARC
  5
C2
330
1B
100
AcDbEntity
 67
     1
  8
0
  6
Continuous
 62
     7
370
    25
100
AcDbCircle
 10
2.827480315
 20
0.6188188976
 30
0.0
 40
0.3925478037114739
100
AcDbArc
 50
77.7854728639
 51
102.2145271361
  0
ARC
  5
C3
330
1B
100
AcDbEntity
 67
     1
  8
0
  6
Continuous
 62
     7
370
    25
100
AcDbCircle
 10
2.827480315
 20
0.6188188976
 30
0.0
 40
0.3925478037114738
100
AcDbArc
 50
248.944530879
 51
291.055469121
  0
ARC
  5
C4
330
1B
100
AcDbEntity
 67
     1
  8
0
  6
Continuous
 62
     7
370
    25
100
AcDbCircle
 10
2.827480315
 20
0.6188188976
 30
0.0
 40
0.3232775590551188
100
AcDbArc
 50
167.6964467154
 51
189.7829455916
  0
ARC
  5
C5
330
1B
100
AcDbEntity
 67
     1
  8
0
  6
Continuous
 62
     7
370
    25
100
AcDbCircle
 10
1.7488677644
 20
0.6507500383
 30
0.0
 40
0.3925478037114739
100
AcDbArc
 50
63.639614025
 51
116.360385975
  0
CIRCLE
  5
C6
330
1B
100
AcDbEntity
 67
     1
  8
0
  6
Continuous
 62
     7
370
    25
100
AcDbCircle
 10
2.827480315
 20
0.3312204724
 30
0.0
 40
0.0196850393700765
  0
LINE
  5
C7
330
1B
100
AcDbEntity
 67
     1
  8
0
  6
Continuous
 62
     7
370
    25
100
AcDbLine
 10
3.3196062992
 20
1.002480315
 30
0.0
 11
0.17
 21
1.002480315
 31
0.0
  0
LINE
  5
C8
330
1B
100
AcDbEntity
 67
     1
  8
0
  6
Continuous
 62
     7
370
    25
100
AcDbLine
 10
0.17
 20
0.252480315
 30
0.0
 11
0.17
 21
1.002480315
 31
0.0
  0
CIRCLE
  5
C9
330
1B
100
AcDbEntity
 67
     1
  8
0
  6
Continuous
 62
     7
370
    25
100
AcDbCircle
 10
0.6621259843
 20
0.3312204724
 30
0.0
 40
0.0196850393700787
  0
CIRCLE
  5
CA
330
1B
100
AcDbEntity
 67
     1
  8
0
  6
Continuous
 62
     7
370
    25
100
AcDbCircle
 10
2.827480315
 20
0.6188188976
 30
0.0
 40
0.1968503937007875
  0
LINE
  5
CB
330
1B
100
AcDbEntity
 67
     1
  8
0
  6
Continuous
 62
     7
370
    25
100
AcDbLine
 10
3.3196062992
 20
0.252480315
 30
0.0
 11
0.17
 21
0.252480315
 31
0.0
  0
CIRCLE
  5
CC
330
1B
100
AcDbEntity
 67
     1
  8
0
  6
Continuous
 62
     7
370
    25
100
AcDbCircle
 10
1.7448031496
 20
0.627480315
 30
0.0
 40
0.1968503937007875
  0
CIRCLE
  5
CD
330
1B
100
AcDbEntity
 67
     1
  8
0
  6
Continuous
 62
     7
370
    25
100
AcDbCircle
 10
1.0558267717
 20
0.627480315
 30
0.0
 40
0.0984251968503937
  0
CIRCLE
  5
CE
330
1B
100
AcDbEntity
 67
     1
  8
0
  6
Continuous
 62
     7
370
    25
100
AcDbCircle
 10
2.4337795276
 20
0.627480315
 30
0.0
 40
0.0984251968503935
  0
CIRCLE
  5
CF
330
1B
100
AcDbEntity
 67
     1
  8
0
  6
Continuous
 62
     7
370
    25
100
AcDbCircle
 10
0.6621259843
 20
0.6188188976
 30
0.0
 40
0.1968503937007876
  0
LINE
  5
D0
330
1B
100
AcDbEntity
 67
     1
  8
0
  6
Continuous
 62
     7
370
    25
100
AcDbLine
 10
3.3196062992
 20
0.252480315
 30
0.0
 11
3.3196062992
 21
1.002480315
 31
0.0
  0
ENDSEC
  0
SECTION
  2
OBJECTS
  0
DICTIONARY
  5
C
330
0
100
AcDbDictionary
281
     1
  3
ACAD_DETAILVIEWSTYLE
350
3AC
  3
ACAD_GROUP
350
D
  3
ACAD_LAYOUT
350
1A
  3
ACAD_MATERIAL
350
43
  3
ACAD_MLEADERSTYLE
350
6B
  3
ACAD_MLINESTYLE
350
17
  3
ACAD_PLOTSETTINGS
350
19
  3
ACAD_PLOTSTYLENAME
350
E
  3
ACAD_SCALELIST
350
47
  3
ACAD_SECTIONVIEWSTYLE
350
3AD
  3
ACAD_TABLESTYLE
350
69
  3
ACAD_VISUALSTYLE
350
2A
  3
ACDB_RECOMPOSE_DATA
350
3A9
  3
AcDbVariableDictionary
350
3A5
  0
SUN
  5
6D
330
29
100
AcDbSun
 90
        1
290
     0
 63
     7
421
 16777215
 40
1.0
291
     1
 91
  2455826
 92
 54000000
292
     0
 70
     2
 71
   256
280
     1
  0
DICTIONARY
  5
3AC
102
{ACAD_REACTORS
330
C
102
}
330
C
100
AcDbDictionary
281
     1
  0
DICTIONARY
  5
D
102
{ACAD_REACTORS
330
C
102
}
330
C
100
AcDbDictionary
281
     1
  0
DICTIONARY
  5
1A
102
{ACAD_REACTORS
330
C
102
}
330
C
100
AcDbDictionary
281
     1
  3
Back
350
38C
  3
Left
350
26
  3
Model
350
22
  3
Right
350
1E
  3
Top
350
365
  0
DICTIONARY
  5
43
102
{ACAD_REACTORS
330
C
102
}
330
C
100
AcDbDictionary
281
     1
  3
ByBlock
350
45
  3
ByLayer
350
44
  3
Global
350
46
  0
DICTIONARY
  5
6B
102
{ACAD_REACTORS
330
C
102
}
330
C
100
AcDbDictionary
281
     1
  3
Standard
350
6C
  0
DICTIONARY
  5
17
102
{ACAD_REACTORS
330
C
102
}
330
C
100
AcDbDictionary
281
     1
  3
Standard
350
18
  0
DICTIONARY
  5
19
102
{ACAD_REACTORS
330
C
102
}
330
C
100
AcDbDictionary
281
     1
  0
ACDBDICTIONARYWDFLT
  5
E
102
{ACAD_REACTORS
330
C
102
}
330
C
100
AcDbDictionary
281
     1
  3
Normal
350
F
100
AcDbDictionaryWithDefault
340
F
  0
DICTIONARY
  5
47
102
{ACAD_REACTORS
330
C
102
}
330
C
100
AcDbDictionary
281
     1
  3
A0
350
48
  3
A1
350
49
  3
A2
350
4A
  3
A3
350
4B
  3
A4
350
4C
  3
A5
350
4D
  3
A6
350
4E
  3
A7
350
4F
  3
A8
350
50
  3
A9
350
51
  3
B0
350
52
  3
B1
350
53
  3
B2
350
54
  3
B3
350
55
  3
B4
350
56
  3
B5
350
57
  3
B6
350
58
  3
B7
350
59
  3
B8
350
5A
  3
B9
350
5B
  3
C0
350
5C
  3
C1
350
5D
  3
C2
350
5E
  3
C3
350
5F
  3
C4
350
60
  3
C5
350
61
  3
C6
350
62
  3
C7
350
63
  3
C8
350
64
  3
C9
350
65
  3
D0
350
66
  3
D1
350
67
  3
D2
350
68
  0
DICTIONARY
  5
3AD
102
{ACAD_REACTORS
330
C
102
}
330
C
100
AcDbDictionary
281
     1
  0
DICTIONARY
  5
69
102
{ACAD_REACTORS
330
C
102
}
330
C
100
AcDbDictionary
281
     1
  3
Standard
350
6A
  0
DICTIONARY
  5
2A
102
{ACAD_REACTORS
330
C
102
}
330
C
100
AcDbDictionary
281
     1
  3
2dWireframe
350
2F
  3
Basic
350
32
  3
Brighten
350
36
  3
ColorChange
350
3A
  3
Conceptual
350
34
  3
Dim
350
35
  3
EdgeColorOff
350
3D
  3
Facepattern
350
39
  3
Flat
350
2B
  3
FlatWithEdges
350
2C
  3
Gouraud
350
2D
  3
GouraudWithEdges
350
2E
  3
Hidden
350
31
  3
JitterOff
350
3B
  3
Linepattern
350
38
  3
OverhangOff
350
3C
  3
Realistic
350
33
  3
Shaded
350
42
  3
Shaded with edges
350
41
  3
Shades of Gray
350
3E
  3
Sketchy
350
3F
  3
Thicken
350
37
  3
Wireframe
350
30
  3
X-Ray
350
40
  0
XRECORD
  5
3A9
102
{ACAD_REACTORS
330
C
102
}
330
C
100
AcDbXrecord
280
     1
 90
        1
330
6A
  0
DICTIONARY
  5
3A5
102
{ACAD_REACTORS
330
C
102
}
330
C
100
AcDbDictionary
281
     1
  3
CANNOSCALE
350
3A6
  3
CMLEADERSTYLE
350
3AB
  3
CTABLESTYLE
350
3AA
  0
LAYOUT
  5
38C
102
{ACAD_REACTORS
330
1A
102
}
330
1A
100
AcDbPlotSettings
  1

  2
none_device
  4
ANSI_A_(11.00_x_8.50_Inches)
  6

 40
6.35
 41
19.05
 42
6.35000508
 43
19.05000254
 44
279.4
 45
215.9
 46
0.0
 47
0.0
 48
0.0
 49
0.0
140
0.0
141
0.0
142
1.0
143
1.0
 70
  4832
 72
     0
 73
     0
 74
     1
  7

 75
    16
 76
     0
 77
     2
 78
   300
147
1.0
148
0.0
149
0.0
100
AcDbLayout
  1
Back
 70
     1
 71
     4
 10
0.0
 20
0.0
 11
11.0
 21
8.5
 12
0.0
 22
0.0
 32
0.0
 14
0.0
 24
0.0
 34
0.0
 15
11.0
 25
8.5
 35
0.0
146
0.0
 13
0.0
 23
0.0
 33
0.0
 16
1.0
 26
0.0
 36
0.0
 17
0.0
 27
1.0
 37
0.0
 76
     0
330
38B
  0
LAYOUT
  5
26
102
{ACAD_REACTORS
330
1A
102
}
330
1A
100
AcDbPlotSettings
  1

  2
none_device
  4
ANSI_A_(11.00_x_8.50_Inches)
  6

 40
6.35
 41
19.05
 42
6.35000508
 43
19.05000254
 44
279.4
 45
215.9
 46
0.0
 47
0.0
 48
0.0
 49
0.0
140
0.0
141
0.0
142
1.0
143
1.0
 70
  4832
 72
     0
 73
     0
 74
     1
  7

 75
    16
 76
     0
 77
     2
 78
   300
147
1.0
148
0.0
149
0.0
100
AcDbLayout
  1
Left
 70
     1
 71
     2
 10
0.0
 20
0.0
 11
11.0
 21
8.5
 12
0.0
 22
0.0
 32
0.0
 14
0.0
 24
0.0
 34
0.0
 15
11.0
 25
8.5
 35
0.0
146
0.0
 13
0.0
 23
0.0
 33
0.0
 16
1.0
 26
0.0
 36
0.0
 17
0.0
 27
1.0
 37
0.0
 76
     0
330
23
  0
LAYOUT
  5
22
102
{ACAD_REACTORS
330
1A
102
}
330
1A
100
AcDbPlotSettings
  1

  2
none_device
  4
Letter_(8.50_x_11.00_Inches)
  6

 40
6.35
 41
6.35
 42
6.35000508
 43
6.35000508
 44
215.9
 45
279.4
 46
0.0
 47
0.0
 48
0.0
 49
0.0
140
0.0
141
0.0
142
1.0
143
1.0
 70
  1712
 72
     0
 73
     0
 74
     0
  7

 75
     0
 76
     0
 77
     2
 78
   300
147
1.0
148
0.0
149
0.0
100
AcDbLayout
  1
Model
 70
     1
 71
     0
 10
0.0
 20
0.0
 11
11.0
 21
8.5
 12
0.0
 22
0.0
 32
0.0
 14
0.0
 24
0.0
 34
0.0
 15
11.0
 25
8.5
 35
0.0
146
0.0
 13
0.0
 23
0.0
 33
0.0
 16
1.0
 26
0.0
 36
0.0
 17
0.0
 27
1.0
 37
0.0
 76
     0
330
1F
331
29
  0
LAYOUT
  5
1E
102
{ACAD_REACTORS
330
1A
102
}
330
1A
100
AcDbPlotSettings
  1

  2
none_device
  4
ANSI_A_(11.00_x_8.50_Inches)
  6

 40
6.35
 41
19.05
 42
6.35000508
 43
19.05000254
 44
279.4
 45
215.9
 46
0.0
 47
0.0
 48
0.0
 49
0.0
140
0.0
141
0.0
142
1.0
143
1.0
 70
  4832
 72
     0
 73
     0
 74
     1
  7

 75
     0
 76
     0
 77
     2
 78
   300
147
1.0
148
0.0
149
0.0
100
AcDbLayout
  1
Right
 70
     1
 71
     1
 10
0.0
 20
0.0
 11
11.0
 21
8.5
 12
0.0
 22
0.0
 32
0.0
 14
0.0
 24
0.0
 34
0.0
 15
11.0
 25
8.5
 35
0.0
146
0.0
 13
0.0
 23
0.0
 33
0.0
 16
1.0
 26
0.0
 36
0.0
 17
0.0
 27
1.0
 37
0.0
 76
     0
330
1B
  0
LAYOUT
  5
365
102
{ACAD_REACTORS
330
1A
102
}
330
1A
100
AcDbPlotSettings
  1

  2
none_device
  4
ANSI_A_(11.00_x_8.50_Inches)
  6

 40
6.35
 41
19.05
 42
6.35000508
 43
19.05000254
 44
279.4
 45
215.9
 46
0.0
 47
0.0
 48
0.0
 49
0.0
140
0.0
141
0.0
142
1.0
143
1.0
 70
  4832
 72
     0
 73
     0
 74
     1
  7

 75
    16
 76
     0
 77
     2
 78
   300
147
1.0
148
0.0
149
0.0
100
AcDbLayout
  1
Top
 70
     1
 71
     3
 10
0.0
 20
0.0
 11
11.0
 21
8.5
 12
0.0
 22
0.0
 32
0.0
 14
0.0
 24
0.0
 34
0.0
 15
11.0
 25
8.5
 35
0.0
146
0.0
 13
0.0
 23
0.0
 33
0.0
 16
1.0
 26
0.0
 36
0.0
 17
0.0
 27
1.0
 37
0.0
 76
     0
330
364
  0
MATERIAL
  5
45
102
{ACAD_REACTORS
330
43
102
}
330
43
100
AcDbMaterial
  1
ByBlock
 72
     1
 94
      127
  0
MATERIAL
  5
44
102
{ACAD_REACTORS
330
43
102
}
330
43
100
AcDbMaterial
  1
ByLayer
 72
     1
 94
      127
  0
MATERIAL
  5
46
102
{ACAD_REACTORS
330
43
102
}
330
43
100
AcDbMaterial
  1
Global
 72
     1
 94
      127
  0
MLEADERSTYLE
  5
6C
102
{ACAD_REACTORS
330
6B
102
}
330
6B
100
AcDbMLeaderStyle
179
     2
170
     2
171
     1
172
     0
 90
        2
 40
0.0
 41
0.0
173
     1
 91
-1056964608
340
14
 92
       -2
290
     1
 42
0.09
291
     1
 43
0.36
  3
Standard
341
0
 44
0.18
300

342
11
174
     1
178
     6
175
     1
176
     0
 93
-1056964608
 45
0.18
292
     0
297
     0
 46
0.18
343
0
 94
-1056964608
 47
1.0
 49
1.0
140
1.0
293
     1
141
0.0
294
     1
177
     0
142
1.0
295
     0
296
     0
143
0.125
271
     0
272
     9
273
     9
298
     0
  0
MLINESTYLE
  5
18
102
{ACAD_REACTORS
330
17
102
}
330
17
100
AcDbMlineStyle
  2
Standard
 70
     0
  3

 62
   256
 51
90.0
 52
90.0
 71
     2
 49
0.5
 62
   256
  6
BYLAYER
 49
-0.5
 62
   256
  6
BYLAYER
  0
ACDBPLACEHOLDER
  5
F
102
{ACAD_REACTORS
330
E
102
}
330
E
  0
SCALE
  5
48
102
{ACAD_REACTORS
330
47
102
}
330
47
100
AcDbScale
 70
     0
300
1:1
140
1.0
141
1.0
290
     1
  0
SCALE
  5
49
102
{ACAD_REACTORS
330
47
102
}
330
47
100
AcDbScale
 70
     0
300
1:2
140
1.0
141
2.0
290
     0
  0
SCALE
  5
4A
102
{ACAD_REACTORS
330
47
102
}
330
47
100
AcDbScale
 70
     0
300
1:4
140
1.0
141
4.0
290
     0
  0
SCALE
  5
4B
102
{ACAD_REACTORS
330
47
102
}
330
47
100
AcDbScale
 70
     0
300
1:5
140
1.0
141
5.0
290
     0
  0
SCALE
  5
4C
102
{ACAD_REACTORS
330
47
102
}
330
47
100
AcDbScale
 70
     0
300
1:8
140
1.0
141
8.0
290
     0
  0
SCALE
  5
4D
102
{ACAD_REACTORS
330
47
102
}
330
47
100
AcDbScale
 70
     0
300
1:10
140
1.0
141
10.0
290
     0
  0
SCALE
  5
4E
102
{ACAD_REACTORS
330
47
102
}
330
47
100
AcDbScale
 70
     0
300
1:16
140
1.0
141
16.0
290
     0
  0
SCALE
  5
4F
102
{ACAD_REACTORS
330
47
102
}
330
47
100
AcDbScale
 70
     0
300
1:20
140
1.0
141
20.0
290
     0
  0
SCALE
  5
50
102
{ACAD_REACTORS
330
47
102
}
330
47
100
AcDbScale
 70
     0
300
1:30
140
1.0
141
30.0
290
     0
  0
SCALE
  5
51
102
{ACAD_REACTORS
330
47
102
}
330
47
100
AcDbScale
 70
     0
300
1:40
140
1.0
141
40.0
290
     0
  0
SCALE
  5
52
102
{ACAD_REACTORS
330
47
102
}
330
47
100
AcDbScale
 70
     0
300
1:50
140
1.0
141
50.0
290
     0
  0
SCALE
  5
53
102
{ACAD_REACTORS
330
47
102
}
330
47
100
AcDbScale
 70
     0
300
1:100
140
1.0
141
100.0
290
     0
  0
SCALE
  5
54
102
{ACAD_REACTORS
330
47
102
}
330
47
100
AcDbScale
 70
     0
300
2:1
140
2.0
141
1.0
290
     0
  0
SCALE
  5
55
102
{ACAD_REACTORS
330
47
102
}
330
47
100
AcDbScale
 70
     0
300
4:1
140
4.0
141
1.0
290
     0
  0
SCALE
  5
56
102
{ACAD_REACTORS
330
47
102
}
330
47
100
AcDbScale
 70
     0
300
8:1
140
8.0
141
1.0
290
     0
  0
SCALE
  5
57
102
{ACAD_REACTORS
330
47
102
}
330
47
100
AcDbScale
 70
     0
300
10:1
140
10.0
141
1.0
290
     0
  0
SCALE
  5
58
102
{ACAD_REACTORS
330
47
102
}
330
47
100
AcDbScale
 70
     0
300
100:1
140
100.0
141
1.0
290
     0
  0
SCALE
  5
59
102
{ACAD_REACTORS
330
47
102
}
330
47
100
AcDbScale
 70
     0
300
1/128" = 1'-0"
140
0.0078125
141
12.0
290
     0
  0
SCALE
  5
5A
102
{ACAD_REACTORS
330
47
102
}
330
47
100
AcDbScale
 70
     0
300
1/64" = 1'-0"
140
0.015625
141
12.0
290
     0
  0
SCALE
  5
5B
102
{ACAD_REACTORS
330
47
102
}
330
47
100
AcDbScale
 70
     0
300
1/32" = 1'-0"
140
0.03125
141
12.0
290
     0
  0
SCALE
  5
5C
102
{ACAD_REACTORS
330
47
102
}
330
47
100
AcDbScale
 70
     0
300
1/16" = 1'-0"
140
0.0625
141
12.0
290
     0
  0
SCALE
  5
5D
102
{ACAD_REACTORS
330
47
102
}
330
47
100
AcDbScale
 70
     0
300
3/32" = 1'-0"
140
0.09375
141
12.0
290
     0
  0
SCALE
  5
5E
102
{ACAD_REACTORS
330
47
102
}
330
47
100
AcDbScale
 70
     0
300
1/8" = 1'-0"
140
0.125
141
12.0
290
     0
  0
SCALE
  5
5F
102
{ACAD_REACTORS
330
47
102
}
330
47
100
AcDbScale
 70
     0
300
3/16" = 1'-0"
140
0.1875
141
12.0
290
     0
  0
SCALE
  5
60
102
{ACAD_REACTORS
330
47
102
}
330
47
100
AcDbScale
 70
     0
300
1/4" = 1'-0"
140
0.25
141
12.0
290
     0
  0
SCALE
  5
61
102
{ACAD_REACTORS
330
47
102
}
330
47
100
AcDbScale
 70
     0
300
3/8" = 1'-0"
140
0.375
141
12.0
290
     0
  0
SCALE
  5
62
102
{ACAD_REACTORS
330
47
102
}
330
47
100
AcDbScale
 70
     0
300
1/2" = 1'-0"
140
0.5
141
12.0
290
     0
  0
SCALE
  5
63
102
{ACAD_REACTORS
330
47
102
}
330
47
100
AcDbScale
 70
     0
300
3/4" = 1'-0"
140
0.75
141
12.0
290
     0
  0
SCALE
  5
64
102
{ACAD_REACTORS
330
47
102
}
330
47
100
AcDbScale
 70
     0
300
1" = 1'-0"
140
1.0
141
12.0
290
     0
  0
SCALE
  5
65
102
{ACAD_REACTORS
330
47
102
}
330
47
100
AcDbScale
 70
     0
300
1-1/2" = 1'-0"
140
1.5
141
12.0
290
     0
  0
SCALE
  5
66
102
{ACAD_REACTORS
330
47
102
}
330
47
100
AcDbScale
 70
     0
300
3" = 1'-0"
140
3.0
141
12.0
290
     0
  0
SCALE
  5
67
102
{ACAD_REACTORS
330
47
102
}
330
47
100
AcDbScale
 70
     0
300
6" = 1'-0"
140
6.0
141
12.0
290
     0
  0
SCALE
  5
68
102
{ACAD_REACTORS
330
47
102
}
330
47
100
AcDbScale
 70
     0
300
1'-0" = 1'-0"
140
12.0
141
12.0
290
     0
  0
TABLESTYLE
  5
6A
102
{ACAD_REACTORS
330
69
102
}
102
{ACAD_XDICTIONARY
360
3A7
102
}
330
69
100
AcDbTableStyle
  3
Standard
 70
     0
 71
     0
 40
0.06
 41
0.06
280
     0
281
     0
  7
Standard
140
0.18
170
     2
 62
     0
 63
   257
283
     0
 90
        4
 91
        0
  1

274
    -2
284
     1
 64
     0
275
    -2
285
     1
 65
     0
276
    -2
286
     1
 66
     0
277
    -2
287
     1
 67
     0
278
    -2
288
     1
 68
     0
279
    -2
289
     1
 69
     0
  7
Standard
140
0.25
170
     5
 62
     0
 63
   257
283
     0
 90
        4
 91
        0
  1

274
    -2
284
     1
 64
     0
275
    -2
285
     1
 65
     0
276
    -2
286
     1
 66
     0
277
    -2
287
     1
 67
     0
278
    -2
288
     1
 68
     0
279
    -2
289
     1
 69
     0
  7
Standard
140
0.18
170
     5
 62
     0
 63
   257
283
     0
 90
        4
 91
        0
  1

274
    -2
284
     1
 64
     0
275
    -2
285
     1
 65
     0
276
    -2
286
     1
 66
     0
277
    -2
287
     1
 67
     0
278
    -2
288
     1
 68
     0
279
    -2
289
     1
 69
     0
  0
VISUALSTYLE
  5
2F
102
{ACAD_REACTORS
330
2A
102
}
330
2A
100
AcDbVisualStyle
  2
2dWireframe
 70
     4
177
     3
291
     0
 70
    58
 90
        0
176
     1
 90
        2
176
     1
 90
        0
176
     1
 90
        0
176
     1
 40
0.6
176
     1
 40
30.0
176
     1
 62
     7
420
 16777215
176
     1
 90
        1
176
     1
 90
        4
176
     1
 62
     7
176
     1
 62
   257
176
     1
 90
        1
176
     1
 90
        1
176
     1
 40
1.0
176
     1
 90
        0
176
     1
 62
   257
176
     1
 40
1.0
176
     1
 90
        1
176
     1
 90
        6
176
     1
 90
        2
176
     1
 62
     7
176
     1
 90
        5
176
     1
 90
        0
176
     1
 90
        0
176
     1
290
     0
176
     1
 90
        1
176
     1
 40
0.0
176
     1
 90
        0
176
     1
290
     1
176
     1
290
     1
176
     1
290
     0
176
     1
290
     0
176
     1
290
     0
176
     1
290
     0
176
     1
290
     0
176
     1
290
     0
176
     1
290
     0
176
     1
 90
       50
176
     1
 40
0.0
176
     1
 40
1.0
176
     1
 90
        0
176
     1
 62
    18
420
        0
176
     1
 90
       50
176
     1
 90
        3
176
     1
 62
     5
420
      255
176
     1
290
     0
176
     1
 90
       50
176
     1
 90
       50
176
     1
 90
       50
176
     1
290
     0
176
     1
 90
       50
176
     1
 62
   256
176
     0
 40
1.0
176
     0
 90
        2
176
     1
  1
strokes_ogs.tif
176
     1
290
     0
176
     1
 40
1.0
176
     1
 40
1.0
176
     1
  0
VISUALSTYLE
  5
32
102
{ACAD_REACTORS
330
2A
102
}
330
2A
100
AcDbVisualStyle
  2
Basic
 70
     7
177
     3
291
     1
 70
    58
 90
        1
176
     1
 90
        0
176
     1
 90
        1
176
     1
 90
        0
176
     1
 40
0.6
176
     1
 40
30.0
176
     1
 62
     7
420
 16777215
176
     1
 90
        0
176
     1
 90
        4
176
     1
 62
     7
176
     1
 62
   257
176
     1
 90
        1
176
     1
 90
        1
176
     1
 40
1.0
176
     1
 90
        8
176
     1
 62
     7
176
     1
 40
1.0
176
     1
 90
        1
176
     1
 90
        6
176
     1
 90
        2
176
     1
 62
     7
176
     1
 90
        5
176
     1
 90
        0
176
     1
 90
        0
176
     1
290
     0
176
     1
 90
        1
176
     1
 40
0.0
176
     1
 90
        0
176
     1
290
     0
176
     1
290
     1
176
     1
290
     1
176
     1
290
     0
176
     1
290
     0
176
     1
290
     0
176
     1
290
     0
176
     1
290
     0
176
     1
290
     0
176
     1
 90
       50
176
     1
 40
0.0
176
     1
 40
1.0
176
     1
 90
        0
176
     1
 62
    18
420
        0
176
     1
 90
       50
176
     1
 90
        3
176
     1
 62
     5
420
      255
176
     1
290
     0
176
     1
 90
       50
176
     1
 90
       50
176
     1
 90
       50
176
     1
290
     0
176
     1
 90
       50
176
     1
 62
   256
176
     0
 40
1.0
176
     0
 90
        2
176
     1
  1
strokes_ogs.tif
176
     1
290
     0
176
     1
 40
1.0
176
     1
 40
1.0
176
     1
  0
VISUALSTYLE
  5
36
102
{ACAD_REACTORS
330
2A
102
}
330
2A
100
AcDbVisualStyle
  2
Brighten
 70
    12
177
     3
291
     1
 70
    58
 90
        2
176
     1
 90
        2
176
     1
 90
        0
176
     1
 90
        0
176
     1
 40
0.6
176
     1
 40
30.0
176
     1
 62
     7
420
 16777215
176
     1
 90
        1
176
     1
 90
        4
176
     1
 62
     7
176
     1
 62
   257
176
     1
 90
        1
176
     1
 90
        1
176
     1
 40
1.0
176
     1
 90
        8
176
     1
 62
     7
176
     1
 40
1.0
176
     1
 90
        1
176
     1
 90
        6
176
     1
 90
        2
176
     1
 62
     7
176
     1
 90
        5
176
     1
 90
        0
176
     1
 90
        0
176
     1
290
     0
176
     1
 90
        1
176
     1
 40
50.0
176
     1
 90
        0
176
     1
290
     0
176
     1
290
     1
176
     1
290
     1
176
     1
290
     0
176
     1
290
     0
176
     1
290
     0
176
     1
290
     0
176
     1
290
     0
176
     1
290
     0
176
     1
 90
       50
176
     1
 40
0.0
176
     1
 40
1.0
176
     1
 90
        0
176
     1
 62
    18
420
        0
176
     1
 90
       50
176
     1
 90
        3
176
     1
 62
     5
420
      255
176
     1
290
     0
176
     1
 90
       50
176
     1
 90
       50
176
     1
 90
       50
176
     1
290
     0
176
     1
 90
       50
176
     1
 62
   256
176
     0
 40
1.0
176
     0
 90
        2
176
     1
  1
strokes_ogs.tif
176
     1
290
     0
176
     1
 40
1.0
176
     1
 40
1.0
176
     1
  0
VISUALSTYLE
  5
3A
102
{ACAD_REACTORS
330
2A
102
}
330
2A
100
AcDbVisualStyle
  2
ColorChange
 70
    16
177
     3
291
     1
 70
    58
 90
        2
176
     1
 90
        2
176
     1
 90
        3
176
     1
 90
        0
176
     1
 40
0.6
176
     1
 40
30.0
176
     1
 62
     8
420
  8421504
176
     1
 90
        1
176
     1
 90
        4
176
     1
 62
     7
176
     1
 62
   257
176
     1
 90
        1
176
     1
 90
        1
176
     1
 40
1.0
176
     1
 90
        8
176
     1
 62
     8
420
  8421504
176
     1
 40
1.0
176
     1
 90
        1
176
     1
 90
        6
176
     1
 90
        2
176
     1
 62
     7
176
     1
 90
        5
176
     1
 90
        0
176
     1
 90
        0
176
     1
290
     0
176
     1
 90
        1
176
     1
 40
0.0
176
     1
 90
        0
176
     1
290
     0
176
     1
290
     1
176
     1
290
     1
176
     1
290
     0
176
     1
290
     0
176
     1
290
     0
176
     1
290
     0
176
     1
290
     0
176
     1
290
     0
176
     1
 90
       50
176
     1
 40
0.0
176
     1
 40
1.0
176
     1
 90
        0
176
     1
 62
    18
420
        0
176
     1
 90
       50
176
     1
 90
        3
176
     1
 62
     5
420
      255
176
     1
290
     0
176
     1
 90
       50
176
     1
 90
       50
176
     1
 90
       50
176
     1
290
     0
176
     1
 90
       50
176
     1
 62
   256
176
     0
 40
1.0
176
     0
 90
        2
176
     1
  1
strokes_ogs.tif
176
     1
290
     0
176
     1
 40
1.0
176
     1
 40
1.0
176
     1
  0
VISUALSTYLE
  5
34
102
{ACAD_REACTORS
330
2A
102
}
330
2A
100
AcDbVisualStyle
  2
Conceptual
 70
     9
177
     3
291
     0
 70
    58
 90
        3
176
     1
 90
        2
176
     1
 90
        0
176
     1
 90
        0
176
     1
 40
0.6
176
     1
 40
30.0
176
     1
 62
     7
420
 16777215
176
     1
 90
        2
176
     1
 90
        2
176
     1
 62
     7
176
     1
 62
   257
176
     1
 90
        1
176
     1
 90
        1
176
     1
 40
179.0
176
     1
 90
        8
176
     1
 62
     7
176
     1
 40
1.0
176
     1
 90
        1
176
     1
 90
        6
176
     1
 90
        2
176
     1
 62
     7
176
     1
 90
        3
176
     1
 90
        0
176
     1
 90
        0
176
     1
290
     0
176
     1
 90
        1
176
     1
 40
0.0
176
     1
 90
        0
176
     1
290
     0
176
     1
290
     1
176
     1
290
     1
176
     1
290
     0
176
     1
290
     0
176
     1
290
     0
176
     1
290
     0
176
     1
290
     0
176
     1
290
     0
176
     1
 90
       50
176
     1
 40
0.0
176
     1
 40
1.0
176
     1
 90
        0
176
     1
 62
    18
420
        0
176
     1
 90
       50
176
     1
 90
        3
176
     1
 62
     5
420
      255
176
     1
290
     0
176
     1
 90
       50
176
     1
 90
       50
176
     1
 90
       50
176
     1
290
     0
176
     1
 90
       50
176
     1
 62
   256
176
     0
 40
1.0
176
     0
 90
        2
176
     1
  1
strokes_ogs.tif
176
     1
290
     0
176
     1
 40
1.0
176
     1
 40
1.0
176
     1
  0
VISUALSTYLE
  5
35
102
{ACAD_REACTORS
330
2A
102
}
330
2A
100
AcDbVisualStyle
  2
Dim
 70
    11
177
     3
291
     1
 70
    58
 90
        2
176
     1
 90
        2
176
     1
 90
        0
176
     1
 90
        0
176
     1
 40
0.6
176
     1
 40
30.0
176
     1
 62
     7
420
 16777215
176
     1
 90
        1
176
     1
 90
        4
176
     1
 62
     7
176
     1
 62
   257
176
     1
 90
        1
176
     1
 90
        1
176
     1
 40
1.0
176
     1
 90
        8
176
     1
 62
     7
176
     1
 40
1.0
176
     1
 90
        1
176
     1
 90
        6
176
     1
 90
        2
176
     1
 62
     7
176
     1
 90
        5
176
     1
 90
        0
176
     1
 90
        0
176
     1
290
     0
176
     1
 90
        1
176
     1
 40
-50.0
176
     1
 90
        0
176
     1
290
     0
176
     1
290
     1
176
     1
290
     1
176
     1
290
     0
176
     1
290
     0
176
     1
290
     0
176
     1
290
     0
176
     1
290
     0
176
     1
290
     0
176
     1
 90
       50
176
     1
 40
0.0
176
     1
 40
1.0
176
     1
 90
        0
176
     1
 62
    18
420
        0
176
     1
 90
       50
176
     1
 90
        3
176
     1
 62
     5
420
      255
176
     1
290
     0
176
     1
 90
       50
176
     1
 90
       50
176
     1
 90
       50
176
     1
290
     0
176
     1
 90
       50
176
     1
 62
   256
176
     0
 40
1.0
176
     0
 90
        2
176
     1
  1
strokes_ogs.tif
176
     1
290
     0
176
     1
 40
1.0
176
     1
 40
1.0
176
     1
  0
VISUALSTYLE
  5
3D
102
{ACAD_REACTORS
330
2A
102
}
330
2A
100
AcDbVisualStyle
  2
EdgeColorOff
 70
    22
177
     3
291
     1
 70
    58
 90
        2
176
     0
 90
        2
176
     0
 90
        0
176
     0
 90
        0
176
     0
 40
0.6
176
     0
 40
30.0
176
     0
 62
     7
420
 16777215
176
     0
 90
        1
176
     0
 90
        4
176
     0
 62
     7
176
     0
 62
   257
176
     0
 90
        1
176
     0
 90
        1
176
     0
 40
1.0
176
     0
 90
        8
176
     2
 62
     7
176
     0
 40
1.0
176
     0
 90
        1
176
     0
 90
        6
176
     0
 90
        2
176
     0
 62
     7
176
     0
 90
        5
176
     0
 90
        0
176
     0
 90
        0
176
     0
290
     0
176
     0
 90
        1
176
     0
 40
0.0
176
     0
 90
        0
176
     0
290
     0
176
     0
290
     1
176
     0
290
     1
176
     0
290
     0
176
     0
290
     0
176
     0
290
     0
176
     0
290
     0
176
     0
290
     0
176
     0
290
     0
176
     0
 90
       50
176
     0
 40
0.0
176
     0
 40
1.0
176
     0
 90
        0
176
     0
 62
    18
420
        0
176
     0
 90
       50
176
     0
 90
        3
176
     0
 62
     5
420
      255
176
     0
290
     0
176
     0
 90
       50
176
     0
 90
       50
176
     0
 90
       50
176
     0
290
     0
176
     0
 90
       50
176
     0
 62
   256
176
     0
 40
1.0
176
     0
 90
        2
176
     0
  1
strokes_ogs.tif
176
     0
290
     0
176
     0
 40
1.0
176
     0
 40
1.0
176
     0
  0
VISUALSTYLE
  5
39
102
{ACAD_REACTORS
330
2A
102
}
330
2A
100
AcDbVisualStyle
  2
Facepattern
 70
    15
177
     3
291
     1
 70
    58
 90
        2
176
     1
 90
        2
176
     1
 90
        0
176
     1
 90
        0
176
     1
 40
0.6
176
     1
 40
30.0
176
     1
 62
     7
420
 16777215
176
     1
 90
        1
176
     1
 90
        4
176
     1
 62
     7
176
     1
 62
   257
176
     1
 90
        1
176
     1
 90
        1
176
     1
 40
1.0
176
     1
 90
        8
176
     1
 62
     7
176
     1
 40
1.0
176
     1
 90
        1
176
     1
 90
        6
176
     1
 90
        2
176
     1
 62
     7
176
     1
 90
        5
176
     1
 90
        0
176
     1
 90
        0
176
     1
290
     0
176
     1
 90
        1
176
     1
 40
0.0
176
     1
 90
        0
176
     1
290
     0
176
     1
290
     1
176
     1
290
     1
176
     1
290
     0
176
     1
290
     0
176
     1
290
     0
176
     1
290
     0
176
     1
290
     0
176
     1
290
     0
176
     1
 90
       50
176
     1
 40
0.0
176
     1
 40
1.0
176
     1
 90
        0
176
     1
 62
    18
420
        0
176
     1
 90
       50
176
     1
 90
        3
176
     1
 62
     5
420
      255
176
     1
290
     0
176
     1
 90
       50
176
     1
 90
       50
176
     1
 90
       50
176
     1
290
     0
176
     1
 90
       50
176
     1
 62
   256
176
     0
 40
1.0
176
     0
 90
        2
176
     1
  1
strokes_ogs.tif
176
     1
290
     0
176
     1
 40
1.0
176
     1
 40
1.0
176
     1
  0
VISUALSTYLE
  5
2B
102
{ACAD_REACTORS
330
2A
102
}
330
2A
100
AcDbVisualStyle
  2
Flat
 70
     0
177
     3
291
     1
 70
    58
 90
        2
176
     1
 90
        1
176
     1
 90
        1
176
     1
 90
        2
176
     1
 40
0.6
176
     1
 40
30.0
176
     1
 62
     7
420
 16777215
176
     1
 90
        0
176
     1
 90
        0
176
     1
 62
     7
176
     1
 62
   257
176
     1
 90
        1
176
     1
 90
        1
176
     1
 40
1.0
176
     1
 90
        8
176
     1
 62
     7
176
     1
 40
1.0
176
     1
 90
        1
176
     1
 90
        6
176
     1
 90
        2
176
     1
 62
     7
176
     1
 90
        5
176
     1
 90
        0
176
     1
 90
        0
176
     1
290
     0
176
     1
 90
       13
176
     1
 40
0.0
176
     1
 90
        0
176
     1
290
     0
176
     1
290
     1
176
     1
290
     1
176
     1
290
     0
176
     1
290
     0
176
     1
290
     0
176
     1
290
     0
176
     1
290
     0
176
     1
290
     0
176
     1
 90
       50
176
     1
 40
0.0
176
     1
 40
1.0
176
     1
 90
        0
176
     1
 62
    18
420
        0
176
     1
 90
       50
176
     1
 90
        3
176
     1
 62
     5
420
      255
176
     1
290
     0
176
     1
 90
       50
176
     1
 90
       50
176
     1
 90
       50
176
     1
290
     0
176
     1
 90
       50
176
     1
 62
   256
176
     0
 40
1.0
176
     0
 90
        2
176
     1
  1
strokes_ogs.tif
176
     1
290
     0
176
     1
 40
1.0
176
     1
 40
1.0
176
     1
  0
VISUALSTYLE
  5
2C
102
{ACAD_REACTORS
330
2A
102
}
330
2A
100
AcDbVisualStyle
  2
FlatWithEdges
 70
     1
177
     3
291
     1
 70
    58
 90
        2
176
     1
 90
        1
176
     1
 90
        1
176
     1
 90
        2
176
     1
 40
0.6
176
     1
 40
30.0
176
     1
 62
     7
420
 16777215
176
     1
 90
        1
176
     1
 90
        0
176
     1
 62
     7
176
     1
 62
   257
176
     1
 90
        1
176
     1
 90
        1
176
     1
 40
1.0
176
     1
 90
        0
176
     1
 62
   257
176
     1
 40
1.0
176
     1
 90
        1
176
     1
 90
        6
176
     1
 90
        2
176
     1
 62
     7
176
     1
 90
        5
176
     1
 90
        0
176
     1
 90
        0
176
     1
290
     0
176
     1
 90
       13
176
     1
 40
0.0
176
     1
 90
        0
176
     1
290
     0
176
     1
290
     1
176
     1
290
     1
176
     1
290
     0
176
     1
290
     0
176
     1
290
     0
176
     1
290
     0
176
     1
290
     0
176
     1
290
     0
176
     1
 90
       50
176
     1
 40
0.0
176
     1
 40
1.0
176
     1
 90
        0
176
     1
 62
    18
420
        0
176
     1
 90
       50
176
     1
 90
        3
176
     1
 62
     5
420
      255
176
     1
290
     0
176
     1
 90
       50
176
     1
 90
       50
176
     1
 90
       50
176
     1
290
     0
176
     1
 90
       50
176
     1
 62
   256
176
     0
 40
1.0
176
     0
 90
        2
176
     1
  1
strokes_ogs.tif
176
     1
290
     0
176
     1
 40
1.0
176
     1
 40
1.0
176
     1
  0
VISUALSTYLE
  5
2D
102
{ACAD_REACTORS
330
2A
102
}
330
2A
100
AcDbVisualStyle
  2
Gouraud
 70
     2
177
     3
291
     1
 70
    58
 90
        2
176
     1
 90
        2
176
     1
 90
        1
176
     1
 90
        2
176
     1
 40
0.6
176
     1
 40
30.0
176
     1
 62
     7
420
 16777215
176
     1
 90
        0
176
     1
 90
        0
176
     1
 62
     7
176
     1
 62
   257
176
     1
 90
        1
176
     1
 90
        1
176
     1
 40
1.0
176
     1
 90
        0
176
     1
 62
     7
176
     1
 40
1.0
176
     1
 90
        1
176
     1
 90
        6
176
     1
 90
        2
176
     1
 62
     7
176
     1
 90
        5
176
     1
 90
        0
176
     1
 90
        0
176
     1
290
     0
176
     1
 90
       13
176
     1
 40
0.0
176
     1
 90
        0
176
     1
290
     0
176
     1
290
     1
176
     1
290
     1
176
     1
290
     0
176
     1
290
     0
176
     1
290
     0
176
     1
290
     0
176
     1
290
     0
176
     1
290
     0
176
     1
 90
       50
176
     1
 40
0.0
176
     1
 40
1.0
176
     1
 90
        0
176
     1
 62
    18
420
        0
176
     1
 90
       50
176
     1
 90
        3
176
     1
 62
     5
420
      255
176
     1
290
     0
176
     1
 90
       50
176
     1
 90
       50
176
     1
 90
       50
176
     1
290
     0
176
     1
 90
       50
176
     1
 62
   256
176
     0
 40
1.0
176
     0
 90
        2
176
     1
  1
strokes_ogs.tif
176
     1
290
     0
176
     1
 40
1.0
176
     1
 40
1.0
176
     1
  0
VISUALSTYLE
  5
2E
102
{ACAD_REACTORS
330
2A
102
}
330
2A
100
AcDbVisualStyle
  2
GouraudWithEdges
 70
     3
177
     3
291
     1
 70
    58
 90
        2
176
     1
 90
        2
176
     1
 90
        1
176
     1
 90
        2
176
     1
 40
0.6
176
     1
 40
30.0
176
     1
 62
     7
420
 16777215
176
     1
 90
        1
176
     1
 90
        0
176
     1
 62
     7
176
     1
 62
   257
176
     1
 90
        1
176
     1
 90
        1
176
     1
 40
1.0
176
     1
 90
        0
176
     1
 62
   257
176
     1
 40
1.0
176
     1
 90
        1
176
     1
 90
        6
176
     1
 90
        2
176
     1
 62
     7
176
     1
 90
        5
176
     1
 90
        0
176
     1
 90
        0
176
     1
290
     0
176
     1
 90
       13
176
     1
 40
0.0
176
     1
 90
        0
176
     1
290
     0
176
     1
290
     1
176
     1
290
     1
176
     1
290
     0
176
     1
290
     0
176
     1
290
     0
176
     1
290
     0
176
     1
290
     0
176
     1
290
     0
176
     1
 90
       50
176
     1
 40
0.0
176
     1
 40
1.0
176
     1
 90
        0
176
     1
 62
    18
420
        0
176
     1
 90
       50
176
     1
 90
        3
176
     1
 62
     5
420
      255
176
     1
290
     0
176
     1
 90
       50
176
     1
 90
       50
176
     1
 90
       50
176
     1
290
     0
176
     1
 90
       50
176
     1
 62
   256
176
     0
 40
1.0
176
     0
 90
        2
176
     1
  1
strokes_ogs.tif
176
     1
290
     0
176
     1
 40
1.0
176
     1
 40
1.0
176
     1
  0
VISUALSTYLE
  5
31
102
{ACAD_REACTORS
330
2A
102
}
330
2A
100
AcDbVisualStyle
  2
Hidden
 70
     6
177
     3
291
     0
 70
    58
 90
        1
176
     1
 90
        2
176
     1
 90
        2
176
     1
 90
        0
176
     1
 40
0.6
176
     1
 40
30.0
176
     1
 62
     7
420
 16777215
176
     1
 90
        2
176
     1
 90
        2
176
     1
 62
     7
176
     1
 62
   257
176
     1
 90
        2
176
     1
 90
        1
176
     1
 40
40.0
176
     1
 90
        0
176
     1
 62
   257
176
     1
 40
1.0
176
     1
 90
        1
176
     1
 90
        6
176
     1
 90
        2
176
     1
 62
     7
176
     1
 90
        3
176
     1
 90
        0
176
     1
 90
        0
176
     1
290
     0
176
     1
 90
        1
176
     1
 40
0.0
176
     1
 90
        0
176
     1
290
     0
176
     1
290
     1
176
     1
290
     1
176
     1
290
     0
176
     1
290
     0
176
     1
290
     0
176
     1
290
     0
176
     1
290
     0
176
     1
290
     0
176
     1
 90
       50
176
     1
 40
0.0
176
     1
 40
1.0
176
     1
 90
        0
176
     1
 62
    18
420
        0
176
     1
 90
       50
176
     1
 90
        3
176
     1
 62
     5
420
      255
176
     1
290
     0
176
     1
 90
       50
176
     1
 90
       50
176
     1
 90
       50
176
     1
290
     0
176
     1
 90
       50
176
     1
 62
   256
176
     0
 40
1.0
176
     0
 90
        2
176
     1
  1
strokes_ogs.tif
176
     1
290
     0
176
     1
 40
1.0
176
     1
 40
1.0
176
     1
  0
VISUALSTYLE
  5
3B
102
{ACAD_REACTORS
330
2A
102
}
330
2A
100
AcDbVisualStyle
  2
JitterOff
 70
    20
177
     3
291
     1
 70
    58
 90
        2
176
     0
 90
        2
176
     0
 90
        0
176
     0
 90
        0
176
     0
 40
0.6
176
     0
 40
30.0
176
     0
 62
     7
420
 16777215
176
     0
 90
        1
176
     0
 90
        4
176
     0
 62
     7
176
     0
 62
   257
176
     0
 90
        1
176
     0
 90
        1
176
     0
 40
1.0
176
     0
 90
       10
176
     2
 62
     7
176
     0
 40
1.0
176
     0
 90
        1
176
     0
 90
        6
176
     0
 90
        2
176
     0
 62
     7
176
     0
 90
        5
176
     0
 90
        0
176
     0
 90
        0
176
     0
290
     0
176
     0
 90
        1
176
     0
 40
0.0
176
     0
 90
        0
176
     0
290
     0
176
     0
290
     1
176
     0
290
     1
176
     0
290
     0
176
     0
290
     0
176
     0
290
     0
176
     0
290
     0
176
     0
290
     0
176
     0
290
     0
176
     0
 90
       50
176
     0
 40
0.0
176
     0
 40
1.0
176
     0
 90
        0
176
     0
 62
    18
420
        0
176
     0
 90
       50
176
     0
 90
        3
176
     0
 62
     5
420
      255
176
     0
290
     0
176
     0
 90
       50
176
     0
 90
       50
176
     0
 90
       50
176
     0
290
     0
176
     0
 90
       50
176
     0
 62
   256
176
     0
 40
1.0
176
     0
 90
        2
176
     0
  1
strokes_ogs.tif
176
     0
290
     0
176
     0
 40
1.0
176
     0
 40
1.0
176
     0
  0
VISUALSTYLE
  5
38
102
{ACAD_REACTORS
330
2A
102
}
330
2A
100
AcDbVisualStyle
  2
Linepattern
 70
    14
177
     3
291
     1
 70
    58
 90
        2
176
     1
 90
        2
176
     1
 90
        0
176
     1
 90
        0
176
     1
 40
0.6
176
     1
 40
30.0
176
     1
 62
     7
420
 16777215
176
     1
 90
        1
176
     1
 90
        4
176
     1
 62
     7
176
     1
 62
   257
176
     1
 90
        7
176
     1
 90
        7
176
     1
 40
1.0
176
     1
 90
        8
176
     1
 62
     7
176
     1
 40
1.0
176
     1
 90
        1
176
     1
 90
        6
176
     1
 90
        2
176
     1
 62
     7
176
     1
 90
        5
176
     1
 90
        0
176
     1
 90
        0
176
     1
290
     0
176
     1
 90
        1
176
     1
 40
0.0
176
     1
 90
        0
176
     1
290
     0
176
     1
290
     1
176
     1
290
     1
176
     1
290
     0
176
     1
290
     0
176
     1
290
     0
176
     1
290
     0
176
     1
290
     0
176
     1
290
     0
176
     1
 90
       50
176
     1
 40
0.0
176
     1
 40
1.0
176
     1
 90
        0
176
     1
 62
    18
420
        0
176
     1
 90
       50
176
     1
 90
        3
176
     1
 62
     5
420
      255
176
     1
290
     0
176
     1
 90
       50
176
     1
 90
       50
176
     1
 90
       50
176
     1
290
     0
176
     1
 90
       50
176
     1
 62
   256
176
     0
 40
1.0
176
     0
 90
        2
176
     1
  1
strokes_ogs.tif
176
     1
290
     0
176
     1
 40
1.0
176
     1
 40
1.0
176
     1
  0
VISUALSTYLE
  5
3C
102
{ACAD_REACTORS
330
2A
102
}
330
2A
100
AcDbVisualStyle
  2
OverhangOff
 70
    21
177
     3
291
     1
 70
    58
 90
        2
176
     0
 90
        2
176
     0
 90
        0
176
     0
 90
        0
176
     0
 40
0.6
176
     0
 40
30.0
176
     0
 62
     7
420
 16777215
176
     0
 90
        1
176
     0
 90
        4
176
     0
 62
     7
176
     0
 62
   257
176
     0
 90
        1
176
     0
 90
        1
176
     0
 40
1.0
176
     0
 90
        9
176
     2
 62
     7
176
     0
 40
1.0
176
     0
 90
        1
176
     0
 90
        6
176
     0
 90
        2
176
     0
 62
     7
176
     0
 90
        5
176
     0
 90
        0
176
     0
 90
        0
176
     0
290
     0
176
     0
 90
        1
176
     0
 40
0.0
176
     0
 90
        0
176
     0
290
     0
176
     0
290
     1
176
     0
290
     1
176
     0
290
     0
176
     0
290
     0
176
     0
290
     0
176
     0
290
     0
176
     0
290
     0
176
     0
290
     0
176
     0
 90
       50
176
     0
 40
0.0
176
     0
 40
1.0
176
     0
 90
        0
176
     0
 62
    18
420
        0
176
     0
 90
       50
176
     0
 90
        3
176
     0
 62
     5
420
      255
176
     0
290
     0
176
     0
 90
       50
176
     0
 90
       50
176
     0
 90
       50
176
     0
290
     0
176
     0
 90
       50
176
     0
 62
   256
176
     0
 40
1.0
176
     0
 90
        2
176
     0
  1
strokes_ogs.tif
176
     0
290
     0
176
     0
 40
1.0
176
     0
 40
1.0
176
     0
  0
VISUALSTYLE
  5
33
102
{ACAD_REACTORS
330
2A
102
}
330
2A
100
AcDbVisualStyle
  2
Realistic
 70
     8
177
     3
291
     0
 70
    58
 90
        2
176
     1
 90
        3
176
     1
 90
        0
176
     1
 90
        2
176
     1
 40
0.6
176
     1
 40
30.0
176
     1
 62
     7
420
 16777215
176
     1
 90
        0
176
     1
 90
        0
176
     1
 62
     7
176
     1
 62
   257
176
     1
 90
        1
176
     1
 90
        1
176
     1
 40
1.0
176
     1
 90
        8
176
     1
 62
   257
176
     1
 40
1.0
176
     1
 90
        1
176
     1
 90
        6
176
     1
 90
        2
176
     1
 62
     7
176
     1
 90
        3
176
     1
 90
        0
176
     1
 90
        0
176
     1
290
     0
176
     1
 90
       13
176
     1
 40
0.0
176
     1
 90
        0
176
     1
290
     0
176
     1
290
     1
176
     1
290
     1
176
     1
290
     0
176
     1
290
     0
176
     1
290
     0
176
     1
290
     0
176
     1
290
     0
176
     1
290
     0
176
     1
 90
       50
176
     1
 40
0.0
176
     1
 40
1.0
176
     1
 90
        0
176
     1
 62
    18
420
        0
176
     1
 90
       50
176
     1
 90
        3
176
     1
 62
     5
420
      255
176
     1
290
     0
176
     1
 90
       50
176
     1
 90
       50
176
     1
 90
       50
176
     1
290
     0
176
     1
 90
       50
176
     1
 62
   256
176
     0
 40
1.0
176
     0
 90
        2
176
     1
  1
strokes_ogs.tif
176
     1
290
     0
176
     1
 40
1.0
176
     1
 40
1.0
176
     1
  0
VISUALSTYLE
  5
42
102
{ACAD_REACTORS
330
2A
102
}
330
2A
100
AcDbVisualStyle
  2
Shaded
 70
    27
177
     3
291
     0
 70
    58
 90
        2
176
     1
 90
        2
176
     1
 90
        1
176
     1
 90
        2
176
     1
 40
0.6
176
     1
 40
30.0
176
     1
 62
     7
420
 16777215
176
     1
 90
        0
176
     1
 90
        4
176
     1
 62
     7
176
     1
 62
   257
176
     1
 90
        1
176
     1
 90
        1
176
     1
 40
1.0
176
     1
 90
        8
176
     1
 62
   257
176
     1
 40
1.0
176
     1
 90
        1
176
     1
 90
        6
176
     1
 90
        2
176
     1
 62
     8
420
  7895160
176
     1
 90
        3
176
     1
 90
        0
176
     1
 90
        0
176
     1
290
     0
176
     1
 90
        5
176
     1
 40
0.0
176
     1
 90
        0
176
     1
290
     0
176
     1
290
     1
176
     1
290
     1
176
     1
290
     0
176
     1
290
     0
176
     1
290
     0
176
     1
290
     0
176
     1
290
     0
176
     1
290
     0
176
     1
 90
       50
176
     1
 40
0.0
176
     1
 40
1.0
176
     1
 90
        0
176
     1
 62
    18
420
        0
176
     1
 90
       50
176
     1
 90
        3
176
     1
 62
     5
420
      255
176
     1
290
     0
176
     1
 90
       50
176
     1
 90
       50
176
     1
 90
       50
176
     1
290
     0
176
     1
 90
       50
176
     1
 62
   256
176
     0
 40
1.0
176
     0
 90
        2
176
     1
  1
strokes_ogs.tif
176
     1
290
     0
176
     1
 40
1.0
176
     1
 40
1.0
176
     1
  0
VISUALSTYLE
  5
41
102
{ACAD_REACTORS
330
2A
102
}
330
2A
100
AcDbVisualStyle
  2
Shaded with edges
 70
    26
177
     3
291
     0
 70
    58
 90
        2
176
     1
 90
        2
176
     1
 90
        1
176
     1
 90
        2
176
     1
 40
0.6
176
     1
 40
30.0
176
     1
 62
     7
420
 16777215
176
     1
 90
        1
176
     1
 90
       10
176
     1
 62
     7
176
     1
 62
   257
176
     1
 90
        2
176
     1
 90
        1
176
     1
 40
1.0
176
     1
 90
        8
176
     1
 62
   257
176
     1
 40
1.0
176
     1
 90
        1
176
     1
 90
        6
176
     1
 90
        2
176
     1
 62
     7
176
     1
 90
        3
176
     1
 90
        0
176
     1
 90
        0
176
     1
290
     0
176
     1
 90
        5
176
     1
 40
0.0
176
     1
 90
        0
176
     1
290
     0
176
     1
290
     1
176
     1
290
     1
176
     1
290
     0
176
     1
290
     0
176
     1
290
     0
176
     1
290
     0
176
     1
290
     0
176
     1
290
     0
176
     1
 90
       50
176
     1
 40
0.0
176
     1
 40
1.0
176
     1
 90
        0
176
     1
 62
    18
420
        0
176
     1
 90
       50
176
     1
 90
        3
176
     1
 62
     5
420
      255
176
     1
290
     0
176
     1
 90
       50
176
     1
 90
       50
176
     1
 90
       50
176
     1
290
     0
176
     1
 90
       50
176
     1
 62
   256
176
     0
 40
1.0
176
     0
 90
        2
176
     1
  1
strokes_ogs.tif
176
     1
290
     0
176
     1
 40
1.0
176
     1
 40
1.0
176
     1
  0
VISUALSTYLE
  5
3E
102
{ACAD_REACTORS
330
2A
102
}
330
2A
100
AcDbVisualStyle
  2
Shades of Gray
 70
    23
177
     3
291
     0
 70
    58
 90
        2
176
     1
 90
        2
176
     1
 90
        3
176
     1
 90
        0
176
     1
 40
0.6
176
     1
 40
30.0
176
     1
 62
     7
420
 16777215
176
     1
 90
        2
176
     1
 90
        2
176
     1
 62
     7
176
     1
 62
     7
176
     1
 90
        1
176
     1
 90
        1
176
     1
 40
40.0
176
     1
 90
        8
176
     1
 62
     7
176
     1
 40
1.0
176
     1
 90
        1
176
     1
 90
        6
176
     1
 90
        2
176
     1
 62
     7
176
     1
 90
        3
176
     1
 90
        0
176
     1
 90
        0
176
     1
290
     0
176
     1
 90
        1
176
     1
 40
0.0
176
     1
 90
        0
176
     1
290
     0
176
     1
290
     1
176
     1
290
     1
176
     1
290
     0
176
     1
290
     0
176
     1
290
     0
176
     1
290
     0
176
     1
290
     0
176
     1
290
     0
176
     1
 90
       50
176
     1
 40
0.0
176
     1
 40
1.0
176
     1
 90
        0
176
     1
 62
    18
420
        0
176
     1
 90
       50
176
     1
 90
        3
176
     1
 62
     5
420
      255
176
     1
290
     0
176
     1
 90
       50
176
     1
 90
       50
176
     1
 90
       50
176
     1
290
     0
176
     1
 90
       50
176
     1
 62
   256
176
     0
 40
1.0
176
     0
 90
        2
176
     1
  1
strokes_ogs.tif
176
     1
290
     0
176
     1
 40
1.0
176
     1
 40
1.0
176
     1
  0
VISUALSTYLE
  5
3F
102
{ACAD_REACTORS
330
2A
102
}
330
2A
100
AcDbVisualStyle
  2
Sketchy
 70
    24
177
     3
291
     0
 70
    58
 90
        1
176
     1
 90
        2
176
     1
 90
        2
176
     1
 90
        0
176
     1
 40
0.6
176
     1
 40
30.0
176
     1
 62
     7
420
 16777215
176
     1
 90
        2
176
     1
 90
        2
176
     1
 62
     7
176
     1
 62
     7
176
     1
 90
        1
176
     1
 90
        1
176
     1
 40
40.0
176
     1
 90
       11
176
     1
 62
     7
176
     1
 40
1.0
176
     1
 90
        1
176
     1
 90
        6
176
     1
 90
        2
176
     1
 62
     7
176
     1
 90
        6
176
     1
 90
        0
176
     1
 90
        0
176
     1
290
     0
176
     1
 90
        1
176
     1
 40
0.0
176
     1
 90
        0
176
     1
290
     0
176
     1
290
     1
176
     1
290
     1
176
     1
290
     0
176
     1
290
     0
176
     1
290
     0
176
     1
290
     0
176
     1
290
     0
176
     1
290
     0
176
     1
 90
       50
176
     1
 40
0.0
176
     1
 40
1.0
176
     1
 90
        0
176
     1
 62
    18
420
        0
176
     1
 90
       50
176
     1
 90
        3
176
     1
 62
     5
420
      255
176
     1
290
     0
176
     1
 90
       50
176
     1
 90
       50
176
     1
 90
       50
176
     1
290
     0
176
     1
 90
       50
176
     1
 62
   256
176
     0
 40
1.0
176
     0
 90
        2
176
     1
  1
strokes_ogs.tif
176
     1
290
     0
176
     1
 40
1.0
176
     1
 40
1.0
176
     1
  0
VISUALSTYLE
  5
37
102
{ACAD_REACTORS
330
2A
102
}
330
2A
100
AcDbVisualStyle
  2
Thicken
 70
    13
177
     3
291
     1
 70
    58
 90
        2
176
     1
 90
        2
176
     1
 90
        0
176
     1
 90
        0
176
     1
 40
0.6
176
     1
 40
30.0
176
     1
 62
     7
420
 16777215
176
     1
 90
        1
176
     1
 90
        4
176
     1
 62
     7
176
     1
 62
   257
176
     1
 90
        1
176
     1
 90
        1
176
     1
 40
1.0
176
     1
 90
       12
176
     1
 62
     7
176
     1
 40
1.0
176
     1
 90
        1
176
     1
 90
        6
176
     1
 90
        2
176
     1
 62
     7
176
     1
 90
        5
176
     1
 90
        0
176
     1
 90
        0
176
     1
290
     0
176
     1
 90
        1
176
     1
 40
0.0
176
     1
 90
        0
176
     1
290
     0
176
     1
290
     1
176
     1
290
     1
176
     1
290
     0
176
     1
290
     0
176
     1
290
     0
176
     1
290
     0
176
     1
290
     0
176
     1
290
     0
176
     1
 90
       50
176
     1
 40
0.0
176
     1
 40
1.0
176
     1
 90
        0
176
     1
 62
    18
420
        0
176
     1
 90
       50
176
     1
 90
        3
176
     1
 62
     5
420
      255
176
     1
290
     0
176
     1
 90
       50
176
     1
 90
       50
176
     1
 90
       50
176
     1
290
     0
176
     1
 90
       50
176
     1
 62
   256
176
     0
 40
1.0
176
     0
 90
        2
176
     1
  1
strokes_ogs.tif
176
     1
290
     0
176
     1
 40
1.0
176
     1
 40
1.0
176
     1
  0
VISUALSTYLE
  5
30
102
{ACAD_REACTORS
330
2A
102
}
330
2A
100
AcDbVisualStyle
  2
Wireframe
 70
     5
177
     3
291
     0
 70
    58
 90
        0
176
     1
 90
        2
176
     1
 90
        0
176
     1
 90
        0
176
     1
 40
0.6
176
     1
 40
30.0
176
     1
 62
     7
420
 16777215
176
     1
 90
        1
176
     1
 90
        4
176
     1
 62
     7
176
     1
 62
   257
176
     1
 90
        1
176
     1
 90
        1
176
     1
 40
1.0
176
     1
 90
        0
176
     1
 62
   257
176
     1
 40
1.0
176
     1
 90
        1
176
     1
 90
        6
176
     1
 90
        2
176
     1
 62
     7
176
     1
 90
        3
176
     1
 90
        0
176
     1
 90
        0
176
     1
290
     0
176
     1
 90
        1
176
     1
 40
0.0
176
     1
 90
        0
176
     1
290
     0
176
     1
290
     1
176
     1
290
     1
176
     1
290
     0
176
     1
290
     0
176
     1
290
     0
176
     1
290
     0
176
     1
290
     0
176
     1
290
     0
176
     1
 90
       50
176
     1
 40
0.0
176
     1
 40
1.0
176
     1
 90
        0
176
     1
 62
    18
420
        0
176
     1
 90
       50
176
     1
 90
        3
176
     1
 62
     5
420
      255
176
     1
290
     0
176
     1
 90
       50
176
     1
 90
       50
176
     1
 90
       50
176
     1
290
     0
176
     1
 90
       50
176
     1
 62
   256
176
     0
 40
1.0
176
     0
 90
        2
176
     1
  1
strokes_ogs.tif
176
     1
290
     0
176
     1
 40
1.0
176
     1
 40
1.0
176
     1
  0
VISUALSTYLE
  5
40
102
{ACAD_REACTORS
330
2A
102
}
330
2A
100
AcDbVisualStyle
  2
X-Ray
 70
    25
177
     3
291
     0
 70
    58
 90
        2
176
     1
 90
        2
176
     1
 90
        1
176
     1
 90
        1
176
     1
 40
0.5
176
     1
 40
30.0
176
     1
 62
     7
420
 16777215
176
     1
 90
        1
176
     1
 90
        0
176
     1
 62
     7
176
     1
 62
   257
176
     1
 90
        1
176
     1
 90
        1
176
     1
 40
1.0
176
     1
 90
        8
176
     1
 62
     7
176
     1
 40
1.0
176
     1
 90
        1
176
     1
 90
        6
176
     1
 90
        2
176
     1
 62
     7
176
     1
 90
        3
176
     1
 90
        0
176
     1
 90
        0
176
     1
290
     0
176
     1
 90
       13
176
     1
 40
0.0
176
     1
 90
        0
176
     1
290
     0
176
     1
290
     1
176
     1
290
     1
176
     1
290
     0
176
     1
290
     0
176
     1
290
     0
176
     1
290
     0
176
     1
290
     0
176
     1
290
     0
176
     1
 90
       50
176
     1
 40
0.0
176
     1
 40
1.0
176
     1
 90
        0
176
     1
 62
    18
420
        0
176
     1
 90
       50
176
     1
 90
        3
176
     1
 62
     5
420
      255
176
     1
290
     0
176
     1
 90
       50
176
     1
 90
       50
176
     1
 90
       50
176
     1
290
     0
176
     1
 90
       50
176
     1
 62
   256
176
     0
 40
1.0
176
     0
 90
        2
176
     1
  1
strokes_ogs.tif
176
     1
290
     0
176
     1
 40
1.0
176
     1
 40
1.0
176
     1
  0
DICTIONARYVAR
  5
3A6
102
{ACAD_REACTORS
330
3A5
102
}
330
3A5
100
DictionaryVariables
280
     0
  1
1:1
  0
DICTIONARYVAR
  5
3AB
102
{ACAD_REACTORS
330
3A5
102
}
330
3A5
100
DictionaryVariables
280
     0
  1
Standard
  0
DICTIONARYVAR
  5
3AA
102
{ACAD_REACTORS
330
3A5
102
}
330
3A5
100
DictionaryVariables
280
     0
  1
Standard
  0
DICTIONARY
  5
3A7
330
6A
100
AcDbDictionary
280
     1
281
     1
  3
ACAD_ROUNDTRIP_2008_TABLESTYLE_CELLSTYLEMAP
360
3A8
  0
CELLSTYLEMAP
  5
3A8
102
{ACAD_REACTORS
330
3A7
102
}
330
3A7
100
AcDbCellStyleMap
 90
        3
300
CELLSTYLE
  1
TABLEFORMAT_BEGIN
 90
        5
170
     1
 91
        0
 92
    32768
 62
   257
 93
        1
300
CONTENTFORMAT
  1
CONTENTFORMAT_BEGIN
 90
        0
 91
        0
 92
        4
 93
        0
300

 40
0.0
140
1.0
 94
        5
 62
     0
340
11
144
0.25
309
CONTENTFORMAT_END
171
     1
301
MARGIN
  1
CELLMARGIN_BEGIN
 40
0.06
 40
0.06
 40
0.06
 40
0.06
 40
0.06
 40
0.06
309
CELLMARGIN_END
 94
        6
 95
        1
302
GRIDFORMAT
  1
GRIDFORMAT_BEGIN
 90
        0
 91
        1
 62
     0
 92
       -2
340
14
 93
        0
 40
0.045
309
GRIDFORMAT_END
 95
        2
302
GRIDFORMAT
  1
GRIDFORMAT_BEGIN
 90
        0
 91
        1
 62
     0
 92
       -2
340
14
 93
        0
 40
0.045
309
GRIDFORMAT_END
 95
        4
302
GRIDFORMAT
  1
GRIDFORMAT_BEGIN
 90
        0
 91
        1
 62
     0
 92
       -2
340
14
 93
        0
 40
0.045
309
GRIDFORMAT_END
 95
        8
302
GRIDFORMAT
  1
GRIDFORMAT_BEGIN
 90
        0
 91
        1
 62
     0
 92
       -2
340
14
 93
        0
 40
0.045
309
GRIDFORMAT_END
 95
       16
302
GRIDFORMAT
  1
GRIDFORMAT_BEGIN
 90
        0
 91
        1
 62
     0
 92
       -2
340
14
 93
        0
 40
0.045
309
GRIDFORMAT_END
 95
       32
302
GRIDFORMAT
  1
GRIDFORMAT_BEGIN
 90
        0
 91
        1
 62
     0
 92
       -2
340
14
 93
        0
 40
0.045
309
GRIDFORMAT_END
309
TABLEFORMAT_END
  1
CELLSTYLE_BEGIN
 90
        1
 91
        1
300
_TITLE
309
CELLSTYLE_END
300
CELLSTYLE
  1
TABLEFORMAT_BEGIN
 90
        5
170
     1
 91
        0
 92
        0
 62
   257
 93
        1
300
CONTENTFORMAT
  1
CONTENTFORMAT_BEGIN
 90
        0
 91
        0
 92
        4
 93
        0
300

 40
0.0
140
1.0
 94
        5
 62
     0
340
11
144
0.18
309
CONTENTFORMAT_END
171
     1
301
MARGIN
  1
CELLMARGIN_BEGIN
 40
0.06
 40
0.06
 40
0.06
 40
0.06
 40
0.06
 40
0.06
309
CELLMARGIN_END
 94
        6
 95
        1
302
GRIDFORMAT
  1
GRIDFORMAT_BEGIN
 90
        0
 91
        1
 62
     0
 92
       -2
340
14
 93
        0
 40
0.045
309
GRIDFORMAT_END
 95
        2
302
GRIDFORMAT
  1
GRIDFORMAT_BEGIN
 90
        0
 91
        1
 62
     0
 92
       -2
340
14
 93
        0
 40
0.045
309
GRIDFORMAT_END
 95
        4
302
GRIDFORMAT
  1
GRIDFORMAT_BEGIN
 90
        0
 91
        1
 62
     0
 92
       -2
340
14
 93
        0
 40
0.045
309
GRIDFORMAT_END
 95
        8
302
GRIDFORMAT
  1
GRIDFORMAT_BEGIN
 90
        0
 91
        1
 62
     0
 92
       -2
340
14
 93
        0
 40
0.045
309
GRIDFORMAT_END
 95
       16
302
GRIDFORMAT
  1
GRIDFORMAT_BEGIN
 90
        0
 91
        1
 62
     0
 92
       -2
340
14
 93
        0
 40
0.045
309
GRIDFORMAT_END
 95
       32
302
GRIDFORMAT
  1
GRIDFORMAT_BEGIN
 90
        0
 91
        1
 62
     0
 92
       -2
340
14
 93
        0
 40
0.045
309
GRIDFORMAT_END
309
TABLEFORMAT_END
  1
CELLSTYLE_BEGIN
 90
        2
 91
        1
300
_HEADER
309
CELLSTYLE_END
300
CELLSTYLE
  1
TABLEFORMAT_BEGIN
 90
        5
170
     1
 91
        0
 92
        0
 62
   257
 93
        1
300
CONTENTFORMAT
  1
CONTENTFORMAT_BEGIN
 90
        0
 91
        0
 92
        4
 93
        0
300

 40
0.0
140
1.0
 94
        2
 62
     0
340
11
144
0.18
309
CONTENTFORMAT_END
171
     1
301
MARGIN
  1
CELLMARGIN_BEGIN
 40
0.06
 40
0.06
 40
0.06
 40
0.06
 40
0.06
 40
0.06
309
CELLMARGIN_END
 94
        6
 95
        1
302
GRIDFORMAT
  1
GRIDFORMAT_BEGIN
 90
        0
 91
        1
 62
     0
 92
       -2
340
14
 93
        0
 40
0.045
309
GRIDFORMAT_END
 95
        2
302
GRIDFORMAT
  1
GRIDFORMAT_BEGIN
 90
        0
 91
        1
 62
     0
 92
       -2
340
14
 93
        0
 40
0.045
309
GRIDFORMAT_END
 95
        4
302
GRIDFORMAT
  1
GRIDFORMAT_BEGIN
 90
        0
 91
        1
 62
     0
 92
       -2
340
14
 93
        0
 40
0.045
309
GRIDFORMAT_END
 95
        8
302
GRIDFORMAT
  1
GRIDFORMAT_BEGIN
 90
        0
 91
        1
 62
     0
 92
       -2
340
14
 93
        0
 40
0.045
309
GRIDFORMAT_END
 95
       16
302
GRIDFORMAT
  1
GRIDFORMAT_BEGIN
 90
        0
 91
        1
 62
     0
 92
       -2
340
14
 93
        0
 40
0.045
309
GRIDFORMAT_END
 95
       32
302
GRIDFORMAT
  1
GRIDFORMAT_BEGIN
 90
        0
 91
        1
 62
     0
 92
       -2
340
14
 93
        0
 40
0.045
309
GRIDFORMAT_END
309
TABLEFORMAT_END
  1
CELLSTYLE_BEGIN
 90
        3
 91
        2
300
_DATA
309
CELLSTYLE_END
  0
ENDSEC
  0
EOF
