  0
SECTION
  2
HEADER
  9
$ACADVER
  1
AC1027
  9
$ACADMAINTVER
 70
   105
  9
$DWGCODEPAGE
  3
ANSI_1252
  9
$REQUIREDVERSIONS
160
                 0
  9
$INSBASE
 10
0.0
 20
0.0
 30
0.0
  9
$EXTMIN
 10
0.0
 20
0.0
 30
0.0
  9
$EXTMAX
 10
11.0
 20
8.5
 30
0.0
  9
$LIMMIN
 10
0.0
 20
0.0
  9
$LIMMAX
 10
11.0
 20
8.5
  9
$ORTHOMODE
 70
     0
  9
$REGENMODE
 70
     1
  9
$FILLMODE
 70
     1
  9
$QTEXTMODE
 70
     0
  9
$MIRRTEXT
 70
     1
  9
$LTSCALE
 40
1.0
  9
$ATTMODE
 70
     1
  9
$TEXTSIZE
 40
0.1377952756
  9
$TRACEWID
 40
0.05
  9
$TEXTSTYLE
  7
Standard
  9
$CLAYER
  8
0
  9
$CELTYPE
  6
ByLayer
  9
$CECOLOR
 62
   256
  9
$CELTSCALE
 40
1.0
  9
$DISPSILH
 70
     0
  9
$DIMSCALE
 40
1.0
  9
$DIMASZ
 40
0.13
  9
$DIMEXO
 40
0.0393700787
  9
$DIMDLI
 40
0.38
  9
$DIMRND
 40
0.0
  9
$DIMDLE
 40
0.0
  9
$DIMEXE
 40
0.0393700787
  9
$DIMTP
 40
0.0
  9
$DIMTM
 40
0.0
  9
$DIMTXT
 40
0.1377952756
  9
$DIMCEN
 40
0.09
  9
$DIMTSZ
 40
0.0
  9
$DIMTOL
 70
     0
  9
$DIMLIM
 70
     0
  9
$DIMTIH
 70
     1
  9
$DIMTOH
 70
     1
  9
$DIMSE1
 70
     0
  9
$DIMSE2
 70
     0
  9
$DIMTAD
 70
     1
  9
$DIMZIN
 70
     0
  9
$DIMBLK
  1

  9
$DIMASO
 70
     1
  9
$DIMSHO
 70
     1
  9
$DIMPOST
  1

  9
$DIMAPOST
  1

  9
$DIMALT
 70
     0
  9
$DIMALTD
 70
     2
  9
$DIMALTF
 40
25.4
  9
$DIMLFAC
 40
1.0
  9
$DIMTOFL
 70
     0
  9
$DIMTVP
 40
0.0
  9
$DIMTIX
 70
     0
  9
$DIMSOXD
 70
     0
  9
$DIMSAH
 70
     0
  9
$DIMBLK1
  1

  9
$DIMBLK2
  1

  9
$DIMSTYLE
  2
Standard
  9
$DIMCLRD
 70
     0
  9
$DIMCLRE
 70
     0
  9
$DIMCLRT
 70
     0
  9
$DIMTFAC
 40
1.0
  9
$DIMGAP
 40
0.06
  9
$DIMJUST
 70
     0
  9
$DIMSD1
 70
     0
  9
$DIMSD2
 70
     0
  9
$DIMTOLJ
 70
     1
  9
$DIMTZIN
 70
     0
  9
$DIMALTZ
 70
     0
  9
$DIMALTTZ
 70
     0
  9
$DIMUPT
 70
     0
  9
$DIMDEC
 70
     2
  9
$DIMTDEC
 70
     2
  9
$DIMALTU
 70
     2
  9
$DIMALTTD
 70
     2
  9
$DIMTXSTY
  7
Standard
  9
$DIMAUNIT
 70
     0
  9
$DIMADEC
 70
     2
  9
$DIMALTRND
 40
0.0
  9
$DIMAZIN
 70
     0
  9
$DIMDSEP
 70
    46
  9
$DIMATFIT
 70
     3
  9
$DIMFRAC
 70
     0
  9
$DIMLDRBLK
  1

  9
$DIMLUNIT
 70
     2
  9
$DIMLWD
 70
    -2
  9
$DIMLWE
 70
    -2
  9
$DIMTMOVE
 70
     0
  9
$DIMFXL
 40
1.0
  9
$DIMFXLON
 70
     0
  9
$DIMJOGANG
 40
0.7853981634
  9
$DIMTFILL
 70
     0
  9
$DIMTFILLCLR
 70
     0
  9
$DIMARCSYM
 70
     0
  9
$DIMLTYPE
  6

  9
$DIMLTEX1
  6

  9
$DIMLTEX2
  6

  9
$DIMTXTDIRECTION
 70
     0
  9
$LUNITS
 70
     2
  9
$LUPREC
 70
     2
  9
$SKETCHINC
 40
0.1
  9
$FILLETRAD
 40
0.5
  9
$AUNITS
 70
     0
  9
$AUPREC
 70
     2
  9
$MENU
  1
.
  9
$ELEVATION
 40
0.0
  9
$PELEVATION
 40
0.0
  9
$THICKNESS
 40
0.0
  9
$LIMCHECK
 70
     0
  9
$CHAMFERA
 40
0.0
  9
$CHAMFERB
 40
0.0
  9
$CHAMFERC
 40
0.0
  9
$CHAMFERD
 40
0.0
  9
$SKPOLY
 70
     0
  9
$TDCREATE
 40
2459918.489663206
  9
$TDUCREATE
 40
2459918.739663206
  9
$TDUPDATE
 40
2459918.489666644
  9
$TDUUPDATE
 40
2459918.739666644
  9
$TDINDWG
 40
0.0000000116
  9
$TDUSRTIMER
 40
0.0000000116
  9
$USRTIMER
 70
     1
  9
$ANGBASE
 50
0.0
  9
$ANGDIR
 70
     0
  9
$PDMODE
 70
     0
  9
$PDSIZE
 40
-1.0
  9
$PLINEWID
 40
0.0
  9
$SPLFRAME
 70
     0
  9
$SPLINETYPE
 70
     6
  9
$SPLINESEGS
 70
     8
  9
$HANDSEED
  5
2EE
  9
$SURFTAB1
 70
     6
  9
$SURFTAB2
 70
     6
  9
$SURFTYPE
 70
     6
  9
$SURFU
 70
     6
  9
$SURFV
 70
     6
  9
$UCSBASE
  2

  9
$UCSNAME
  2

  9
$UCSORG
 10
0.0
 20
0.0
 30
0.0
  9
$UCSXDIR
 10
1.0
 20
0.0
 30
0.0
  9
$UCSYDIR
 10
0.0
 20
1.0
 30
0.0
  9
$UCSORTHOREF
  2

  9
$UCSORTHOVIEW
 70
     0
  9
$UCSORGTOP
 10
0.0
 20
0.0
 30
0.0
  9
$UCSORGBOTTOM
 10
0.0
 20
0.0
 30
0.0
  9
$UCSORGLEFT
 10
0.0
 20
0.0
 30
0.0
  9
$UCSORGRIGHT
 10
0.0
 20
0.0
 30
0.0
  9
$UCSORGFRONT
 10
0.0
 20
0.0
 30
0.0
  9
$UCSORGBACK
 10
0.0
 20
0.0
 30
0.0
  9
$PUCSBASE
  2

  9
$PUCSNAME
  2

  9
$PUCSORG
 10
0.0
 20
0.0
 30
0.0
  9
$PUCSXDIR
 10
1.0
 20
0.0
 30
0.0
  9
$PUCSYDIR
 10
0.0
 20
1.0
 30
0.0
  9
$PUCSORTHOREF
  2

  9
$PUCSORTHOVIEW
 70
     0
  9
$PUCSORGTOP
 10
0.0
 20
0.0
 30
0.0
  9
$PUCSORGBOTTOM
 10
0.0
 20
0.0
 30
0.0
  9
$PUCSORGLEFT
 10
0.0
 20
0.0
 30
0.0
  9
$PUCSORGRIGHT
 10
0.0
 20
0.0
 30
0.0
  9
$PUCSORGFRONT
 10
0.0
 20
0.0
 30
0.0
  9
$PUCSORGBACK
 10
0.0
 20
0.0
 30
0.0
  9
$USERI1
 70
     0
  9
$USERI2
 70
     0
  9
$USERI3
 70
     0
  9
$USERI4
 70
     0
  9
$USERI5
 70
     0
  9
$USERR1
 40
0.0
  9
$USERR2
 40
0.0
  9
$USERR3
 40
0.0
  9
$USERR4
 40
0.0
  9
$USERR5
 40
0.0
  9
$WORLDVIEW
 70
     1
  9
$SHADEDGE
 70
     3
  9
$SHADEDIF
 70
    70
  9
$TILEMODE
 70
     1
  9
$MAXACTVP
 70
    64
  9
$PINSBASE
 10
0.0
 20
0.0
 30
0.0
  9
$PLIMCHECK
 70
     0
  9
$PEXTMIN
 10
0.0
 20
0.0
 30
0.0
  9
$PEXTMAX
 10
11.0
 20
8.5
 30
0.0
  9
$PLIMMIN
 10
0.0
 20
0.0
  9
$PLIMMAX
 10
11.0
 20
8.5
  9
$UNITMODE
 70
     0
  9
$VISRETAIN
 70
     1
  9
$PLINEGEN
 70
     0
  9
$PSLTSCALE
 70
     1
  9
$TREEDEPTH
 70
  3020
  9
$CMLSTYLE
  2
Standard
  9
$CMLJUST
 70
     0
  9
$CMLSCALE
 40
1.0
  9
$PROXYGRAPHICS
 70
     1
  9
$MEASUREMENT
 70
     0
  9
$CELWEIGHT
370
    -1
  9
$ENDCAPS
280
     0
  9
$JOINSTYLE
280
     0
  9
$LWDISPLAY
290
     1
  9
$INSUNITS
 70
     1
  9
$HYPERLINKBASE
  1

  9
$STYLESHEET
  1

  9
$XEDIT
290
     1
  9
$CEPSNTYPE
380
     0
  9
$PSTYLEMODE
290
     1
  9
$FINGERPRINTGUID
  2
{2d447198-0e96-4eee-bc10-aa71d2f3b7dc}
  9
$VERSIONGUID
  2
{FAEB1C32-E019-11D5-929B-00C0DF256EC4}
  9
$EXTNAMES
290
     1
  9
$PSVPSCALE
 40
0.0
  9
$OLESTARTUP
290
     0
  9
$SORTENTS
280
   127
  9
$INDEXCTL
280
     0
  9
$HIDETEXT
280
     1
  9
$XCLIPFRAME
280
     2
  9
$HALOGAP
280
     0
  9
$OBSCOLOR
 70
   257
  9
$OBSLTYPE
280
     0
  9
$INTERSECTIONDISPLAY
280
     0
  9
$INTERSECTIONCOLOR
 70
   257
  9
$DIMASSOC
280
     2
  9
$PROJECTNAME
  1

  9
$CAMERADISPLAY
290
     0
  9
$LENSLENGTH
 40
50.0
  9
$CAMERAHEIGHT
 40
0.0
  9
$STEPSPERSEC
 40
2.0
  9
$STEPSIZE
 40
6.0
  9
$3DDWFPREC
 40
2.0
  9
$PSOLWIDTH
 40
0.25
  9
$PSOLHEIGHT
 40
4.0
  9
$LOFTANG1
 40
1.5707963268
  9
$LOFTANG2
 40
1.5707963268
  9
$LOFTMAG1
 40
0.0
  9
$LOFTMAG2
 40
0.0
  9
$LOFTPARAM
 70
     7
  9
$LOFTNORMALS
280
     1
  9
$LATITUDE
 40
37.795
  9
$LONGITUDE
 40
-122.394
  9
$NORTHDIRECTION
 40
0.0
  9
$TIMEZONE
 70
 -8000
  9
$LIGHTGLYPHDISPLAY
280
     1
  9
$TILEMODELIGHTSYNCH
280
     1
  9
$CMATERIAL
347
44
  9
$SOLIDHIST
280
     0
  9
$SHOWHIST
280
     1
  9
$DWFFRAME
280
     2
  9
$DGNFRAME
280
     2
  9
$REALWORLDSCALE
290
     1
  9
$INTERFERECOLOR
 62
   256
  9
$CSHADOW
280
     0
  9
$SHADOWPLANELOCATION
 40
0.0
  0
ENDSEC
  0
SECTION
  2
CLASSES
  0
CLASS
  1
ACDBDICTIONARYWDFLT
  2
AcDbDictionaryWithDefault
  3
ObjectDBX Classes
 90
        0
 91
        3
280
     0
281
     0
  0
CLASS
  1
VISUALSTYLE
  2
AcDbVisualStyle
  3
ObjectDBX Classes
 90
     4095
 91
        3
280
     0
281
     0
  0
CLASS
  1
MATERIAL
  2
AcDbMaterial
  3
ObjectDBX Classes
 90
     1153
 91
        3
280
     0
281
     0
  0
CLASS
  1
SCALE
  2
AcDbScale
  3
ObjectDBX Classes
 90
     1153
 91
        3
280
     0
281
     0
  0
CLASS
  1
TABLESTYLE
  2
AcDbTableStyle
  3
ObjectDBX Classes
 90
     4095
 91
        3
280
     0
281
     0
  0
CLASS
  1
MLEADERSTYLE
  2
AcDbMLeaderStyle
  3
ACDB_MLEADERSTYLE_CLASS
 90
     4095
 91
        3
280
     0
281
     0
  0
CLASS
  1
SUN
  2
AcDbSun
  3
SCENEOE
 90
     1153
 91
        3
280
     0
281
     0
  0
CLASS
  1
DICTIONARYVAR
  2
AcDbDictionaryVar
  3
ObjectDBX Classes
 90
        0
 91
        3
280
     0
281
     0
  0
CLASS
  1
CELLSTYLEMAP
  2
AcDbCellStyleMap
  3
ObjectDBX Classes
 90
     1152
 91
        3
280
     0
281
     0
  0
ENDSEC
  0
SECTION
  2
TABLES
  0
TABLE
  2
VPORT
  5
8
330
0
100
AcDbSymbolTable
 70
     1
  0
VPORT
  5
29
330
8
100
AcDbSymbolTableRecord
100
AcDbViewportTableRecord
  2
*Active
 70
     0
 10
0.0
 20
0.0
 11
1.0
 21
1.0
 12
5.5
 22
4.25
 13
0.0
 23
0.0
 14
0.5
 24
0.5
 15
0.5
 25
0.5
 16
0.0
 26
0.0
 36
1.0
 17
0.0
 27
0.0
 37
0.0
 40
8.5
 41
1.2941176471
 42
50.0
 43
0.0
 44
0.0
 50
0.0
 51
0.0
 71
     0
 72
  2000
 73
     1
 74
     3
 75
     0
 76
     0
 77
     0
 78
     0
281
     0
 65
     1
110
0.0
120
0.0
130
0.0
111
1.0
121
0.0
131
0.0
112
0.0
122
1.0
132
0.0
 79
     0
146
0.0
348
2F
 60
     3
 61
     5
292
     1
282
     1
141
0.0
142
0.0
 63
   250
361
6D
  0
ENDTAB
  0
TABLE
  2
LTYPE
  5
5
330
0
100
AcDbSymbolTable
 70
     6
  0
LTYPE
  5
14
330
5
100
AcDbSymbolTableRecord
100
AcDbLinetypeTableRecord
  2
ByBlock
 70
     0
  3

 72
    65
 73
     0
 40
0.0
  0
LTYPE
  5
15
330
5
100
AcDbSymbolTableRecord
100
AcDbLinetypeTableRecord
  2
ByLayer
 70
     0
  3

 72
    65
 73
     0
 40
0.0
  0
LTYPE
  5
16
330
5
100
AcDbSymbolTableRecord
100
AcDbLinetypeTableRecord
  2
Continuous
 70
     0
  3
Solid line
 72
    65
 73
     0
 40
0.0
  0
LTYPE
  5
6E
330
5
100
AcDbSymbolTableRecord
100
AcDbLinetypeTableRecord
  2
HIDDEN
 70
     0
  3
Hidden __ __ __ __ __ __ __ __ __ __ __ __ __ __
 72
    65
 73
     2
 40
0.075
 49
0.05
 74
     0
 49
-0.025
 74
     0
  0
LTYPE
  5
6F
330
5
100
AcDbSymbolTableRecord
100
AcDbLinetypeTableRecord
  2
PHANTOM
 70
     0
  3
Phantom ______  __  __  ______  __  __  ______
 72
    65
 73
     6
 40
0.5
 49
0.25
 74
     0
 49
-0.05
 74
     0
 49
0.05
 74
     0
 49
-0.05
 74
     0
 49
0.05
 74
     0
 49
-0.05
 74
     0
  0
LTYPE
  5
70
330
5
100
AcDbSymbolTableRecord
100
AcDbLinetypeTableRecord
  2
CENTER
 70
     0
  3
Center ____ _ ____ _ ____ _ ____ _ ____ _ ____
 72
    65
 73
     4
 40
0.4
 49
0.25
 74
     0
 49
-0.05
 74
     0
 49
0.05
 74
     0
 49
-0.05
 74
     0
  0
LTYPE
  5
71
330
5
100
AcDbSymbolTableRecord
100
AcDbLinetypeTableRecord
  2
CENTERX2
 70
     0
  3
Center (2x) ________  __  ________  __  _____
 72
    65
 73
     4
 40
0.8
 49
0.5
 74
     0
 49
-0.1
 74
     0
 49
0.1
 74
     0
 49
-0.1
 74
     0
  0
LTYPE
  5
72
330
5
100
AcDbSymbolTableRecord
100
AcDbLinetypeTableRecord
  2
DOT2
 70
     0
  3
Dot (.5x) ........................................
 72
    65
 73
     2
 40
0.025
 49
0.0
 74
     0
 49
-0.025
 74
     0
  0
ENDTAB
  0
TABLE
  2
LAYER
  5
2
330
0
100
AcDbSymbolTable
 70
     2
  0
LAYER
  5
10
330
2
100
AcDbSymbolTableRecord
100
AcDbLayerTableRecord
  2
0
 70
     0
 62
     7
  6
Continuous
370
    -3
390
F
347
46
348
0
  0
LAYER
  5
73
330
2
100
AcDbSymbolTableRecord
100
AcDbLayerTableRecord
  2
FORMAT
 70
     0
 62
     7
  6
Continuous
370
    -3
390
F
347
46
348
0
  0
ENDTAB
  0
TABLE
  2
STYLE
  5
3
330
0
100
AcDbSymbolTable
 70
     1
  0
STYLE
  5
11
330
3
100
AcDbSymbolTableRecord
100
AcDbTextStyleTableRecord
  2
Standard
 70
     0
 40
0.0
 41
1.0
 50
0.0
 71
     0
 42
0.1377952756
  3
txt
  4

  0
ENDTAB
  0
TABLE
  2
VIEW
  5
6
330
0
100
AcDbSymbolTable
 70
     0
  0
ENDTAB
  0
TABLE
  2
UCS
  5
7
330
0
100
AcDbSymbolTable
 70
     0
  0
ENDTAB
  0
TABLE
  2
APPID
  5
9
330
0
100
AcDbSymbolTable
 70
     1
  0
APPID
  5
12
330
9
100
AcDbSymbolTableRecord
100
AcDbRegAppTableRecord
  2
ACAD
 70
     0
  0
ENDTAB
  0
TABLE
  2
DIMSTYLE
  5
A
330
0
100
AcDbSymbolTable
 70
     1
100
AcDbDimStyleTable
  0
DIMSTYLE
105
27
330
A
100
AcDbSymbolTableRecord
100
AcDbDimStyleTableRecord
  2
Standard
 70
     0
178
     0
340
11
  0
ENDTAB
  0
TABLE
  2
BLOCK_RECORD
  5
1
330
0
100
AcDbSymbolTable
 70
     3
  0
BLOCK_RECORD
  5
1F
330
1
100
AcDbSymbolTableRecord
100
AcDbBlockTableRecord
  2
*Model_Space
340
22
 70
     0
280
     1
281
     0
  0
BLOCK_RECORD
  5
1B
330
1
100
AcDbSymbolTableRecord
100
AcDbBlockTableRecord
  2
*Paper_Space
340
1E
 70
     0
280
     1
281
     0
  0
BLOCK_RECORD
  5
23
330
1
100
AcDbSymbolTableRecord
100
AcDbBlockTableRecord
  2
*Paper_Space0
340
26
 70
     0
280
     1
281
     0
  0
BLOCK_RECORD
  5
1F9
330
1
100
AcDbSymbolTableRecord
100
AcDbBlockTableRecord
  2
*Paper_Space1
340
1FA
 70
     0
280
     1
281
     0
  0
BLOCK_RECORD
  5
257
330
1
100
AcDbSymbolTableRecord
100
AcDbBlockTableRecord
  2
*Paper_Space2
340
258
 70
     0
280
     1
281
     0
  0
ENDTAB
  0
ENDSEC
  0
SECTION
  2
BLOCKS
  0
BLOCK
  5
20
330
1F
100
AcDbEntity
  8
0
100
AcDbBlockBegin
  2
*Model_Space
 70
     0
 10
0.0
 20
0.0
 30
0.0
  3
*Model_Space
  1

  0
ENDBLK
  5
21
330
1F
100
AcDbEntity
  8
0
100
AcDbBlockEnd
  0
BLOCK
  5
1C
330
1B
100
AcDbEntity
 67
     1
  8
0
100
AcDbBlockBegin
  2
*Paper_Space
 70
     0
 10
0.0
 20
0.0
 30
0.0
  3
*Paper_Space
  1

  0
ENDBLK
  5
1D
330
1B
100
AcDbEntity
 67
     1
  8
0
100
AcDbBlockEnd
  0
BLOCK
  5
24
330
23
100
AcDbEntity
  8
0
100
AcDbBlockBegin
  2
*Paper_Space0
 70
     0
 10
0.0
 20
0.0
 30
0.0
  3
*Paper_Space0
  1

  0
LINE
  5
190
330
23
100
AcDbEntity
  8
0
  6
Continuous
 62
     7
370
    25
100
AcDbLine
 10
1.419375
 20
1.1632793208
 30
0.0
 11
1.419375
 21
1.2325613531
 31
0.0
  0
LINE
  5
191
330
23
100
AcDbEntity
  8
0
  6
Continuous
 62
     7
370
    25
100
AcDbLine
 10
0.825625
 20
1.2325613531
 30
0.0
 11
0.825625
 21
1.1632793208
 31
0.0
  0
LINE
  5
192
330
23
100
AcDbEntity
  8
0
  6
Continuous
 62
     7
370
    25
100
AcDbLine
 10
1.9438250091
 20
1.3926357974
 30
0.0
 11
1.9221652207
 21
1.4079515806
 31
0.0
  0
LINE
  5
193
330
23
100
AcDbEntity
  8
0
  6
Continuous
 62
     7
370
    25
100
AcDbLine
 10
1.7628347793
 20
1.4079515806
 30
0.0
 11
1.7411749909
 21
1.3926357974
 31
0.0
  0
LINE
  5
194
330
23
100
AcDbEntity
  8
0
  6
Continuous
 62
     7
370
    25
100
AcDbLine
 10
2.155
 20
0.3494319476
 30
0.0
 11
2.155
 21
0.5341907958
 31
0.0
  0
LINE
  5
195
330
23
100
AcDbEntity
  8
0
  6
Continuous
 62
     7
370
    25
100
AcDbLine
 10
1.53
 20
0.5341907958
 30
0.0
 11
1.53
 21
0.3494319476
 31
0.0
  0
LWPOLYLINE
  5
196
330
23
100
AcDbEntity
  8
0
  6
Continuous
 62
     7
370
    25
100
AcDbPolyline
 90
       68
 70
   128
 43
0.0
 10
1.8425
 20
0.1786819476
 10
1.8506111868
 20
0.1787371515
 10
1.8538622651
 20
0.1787902918
 10
1.8592615954
 20
0.1789178247
 10
1.8648588377
 20
0.1791019118
 10
1.8708534285
 20
0.1793578514
 10
1.8770981591
 20
0.1796894509
 10
1.8835316044
 20
0.1801008653
 10
1.8901038482
 20
0.1805948877
 10
1.8967782166
 20
0.1811735926
 10
1.9035264942
 20
0.1818385009
 10
1.9103264058
 20
0.1825907251
 10
1.9171598974
 20
0.1834310651
 10
1.9240119819
 20
0.1843600772
 10
1.9308699453
 20
0.1853781232
 10
1.9377227918
 20
0.1864854075
 10
1.9445608471
 20
0.1876820045
 10
1.9513754711
 20
0.1889678808
 10
1.9581588468
 20
0.1903429117
 10
1.964903821
 20
0.1918068958
 10
1.9716037849
 20
0.1933595664
 10
1.978252581
 20
0.1950006012
 10
1.9848444314
 20
0.1967296311
 10
1.9913738807
 20
0.1985462472
 10
1.9978357499
 20
0.2004500077
 10
2.0042250994
 20
0.2024404438
 10
2.0105371976
 20
0.2045170643
 10
2.0167674944
 20
0.2066793605
 10
2.0229115986
 20
0.20892681
 10
2.0289652568
 20
0.2112588793
 10
2.0349243352
 20
0.2136750265
 10
2.0407848014
 20
0.2161747016
 10
2.0465427076
 20
0.218757347
 10
2.0521941736
 20
0.2214223954
 10
2.0577353706
 20
0.2241692664
 10
2.0631625041
 20
0.2269973608
 10
2.0684717972
 20
0.2299060526
 10
2.0736594747
 20
0.2328946782
 10
2.0787217469
 20
0.2359625222
 10
2.083654795
 20
0.2391088007
 10
2.0884547592
 20
0.2423326402
 10
2.0931173066
 20
0.2456327476
 10
2.0976384147
 20
0.2490079032
 10
2.102014037
 20
0.2524567272
 10
2.106240093
 20
0.2559776392
 10
2.1103124913
 20
0.2595688358
 10
2.1142271602
 20
0.263228273
 10
2.1179800894
 20
0.2669536568
 10
2.1215673792
 20
0.2707424446
 10
2.1249852955
 20
0.2745918585
 10
2.1282303266
 20
0.2784989125
 10
2.1312992366
 20
0.2824604519
 10
2.1341891105
 20
0.2864732032
 10
2.1368973862
 20
0.2905338304
 10
2.1394218686
 20
0.2946389931
 10
2.1417607257
 20
0.2987854012
 10
2.1439124649
 20
0.3029698621
 10
2.1458758939
 20
0.3071893155
 10
2.1476500679
 20
0.3114408562
 10
2.1492342298
 20
0.3157217426
 10
2.150627747
 20
0.3200293937
 10
2.1518300495
 20
0.3243613766
 10
2.1528405728
 20
0.3287153873
 10
2.1536587072
 20
0.3330892283
 10
2.1542837555
 20
0.337480785
 10
2.1547148981
 20
0.3418880027
 10
2.1549511652
 20
0.3463088667
 10
2.1549792948
 20
0.3494065616
  0
LWPOLYLINE
  5
197
330
23
100
AcDbEntity
  8
0
  6
Continuous
 62
     7
370
    25
100
AcDbPolyline
 90
       67
 70
   128
 43
0.0
 10
1.5300203338
 20
0.3494164278
 10
1.530008584
 20
0.3481225124
 10
1.5301656765
 20
0.3436803346
 10
1.5305215033
 20
0.3392317891
 10
1.5310775645
 20
0.3347792411
 10
1.5318355643
 20
0.3303247495
 10
1.532797402
 20
0.3258704206
 10
1.5339651575
 20
0.3214184408
 10
1.5353410644
 20
0.3169711165
 10
1.5369274676
 20
0.3125309208
 10
1.5387267626
 20
0.3081005463
 10
1.5407413152
 20
0.3036829603
 10
1.5429733612
 20
0.2992814592
 10
1.545424888
 20
0.2948997146
 10
1.5480975037
 20
0.2905418056
 10
1.5509923011
 20
0.2862122289
 10
1.5541097288
 20
0.2819158823
 10
1.5574494805
 20
0.2776580164
 10
1.5610104164
 20
0.2734441554
 10
1.5647905252
 20
0.2692799915
 10
1.5687869347
 20
0.2651712604
 10
1.5729959678
 20
0.2611236102
 10
1.57741324
 20
0.2571424755
 10
1.5815517471
 20
0.2536296287
 10
1.5863369484
 20
0.2497987122
 10
1.5907932896
 20
0.2464295752
 10
1.5953940805
 20
0.2431313449
 10
1.6001349143
 20
0.2399059817
 10
1.6050117793
 20
0.2367549619
 10
1.6100202952
 20
0.2336798312
 10
1.6151565894
 20
0.2306816747
 10
1.6204169205
 20
0.2277614143
 10
1.6257976151
 20
0.2249198708
 10
1.6312950618
 20
0.2221577834
 10
1.6369057012
 20
0.2194758272
 10
1.6426260142
 20
0.2168746288
 10
1.648452511
 20
0.2143547777
 10
1.6543817195
 20
0.2119168358
 10
1.660410175
 20
0.209561345
 10
1.6665344093
 20
0.2072888317
 10
1.6727509417
 20
0.2050998113
 10
1.6790562694
 20
0.2029947898
 10
1.6854468591
 20
0.2009742654
 10
1.691919138
 20
0.1990387286
 10
1.6984694851
 20
0.1971886625
 10
1.7050942215
 20
0.1954245413
 10
1.7117895994
 20
0.1937468298
 10
1.7185517889
 20
0.1921559816
 10
1.7253768604
 20
0.1906524375
 10
1.7322607626
 20
0.189236624
 10
1.7391992901
 20
0.1879089518
 10
1.7461880382
 20
0.1866698133
 10
1.7532223349
 20
0.1855195818
 10
1.7602971362
 20
0.1844586095
 10
1.7674068604
 20
0.1834872267
 10
1.7745451104
 20
0.1826057406
 10
1.7817041925
 20
0.1818144359
 10
1.7888742244
 20
0.1811135766
 10
1.796041364
 20
0.1805034134
 10
1.8031839477
 20
0.1799842012
 10
1.8102629731
 20
0.1795562525
 10
1.8171942309
 20
0.1792201171
 10
1.8237412807
 20
0.1789774392
 10
1.8292278404
 20
0.1788297953
 10
1.833668786
 20
0.1787473896
 10
1.8389448536
 20
0.1786925512
 10
1.8425
 20
0.1786819476
  0
LINE
  5
198
330
23
100
AcDbEntity
  8
0
  6
Continuous
 62
     7
370
    25
100
AcDbLine
 10
1.2238250091
 20
1.3926357974
 30
0.0
 11
1.2021652207
 21
1.4079515806
 31
0.0
  0
LINE
  5
199
330
23
100
AcDbEntity
  8
0
  6
Continuous
 62
     7
370
    25
100
AcDbLine
 10
1.0428347793
 20
1.4079515806
 30
0.0
 11
1.0211749909
 21
1.3926357974
 31
0.0
  0
LINE
  5
19A
330
23
100
AcDbEntity
  8
0
  6
Continuous
 62
     7
370
    25
100
AcDbLine
 10
1.435
 20
0.3494319476
 30
0.0
 11
1.435
 21
0.5341907958
 31
0.0
  0
LINE
  5
19B
330
23
100
AcDbEntity
  8
0
  6
Continuous
 62
     7
370
    25
100
AcDbLine
 10
0.81
 20
0.5341907958
 30
0.0
 11
0.81
 21
0.3494319476
 31
0.0
  0
LWPOLYLINE
  5
19C
330
23
100
AcDbEntity
  8
0
  6
Continuous
 62
     7
370
    25
100
AcDbPolyline
 90
       68
 70
   128
 43
0.0
 10
1.1225
 20
0.1786819476
 10
1.1306111868
 20
0.1787371515
 10
1.1338622651
 20
0.1787902918
 10
1.1392615954
 20
0.1789178247
 10
1.1448588377
 20
0.1791019118
 10
1.1508534285
 20
0.1793578514
 10
1.1570981591
 20
0.1796894509
 10
1.1635316044
 20
0.1801008653
 10
1.1701038482
 20
0.1805948877
 10
1.1767782166
 20
0.1811735926
 10
1.1835264942
 20
0.1818385009
 10
1.1903264058
 20
0.1825907251
 10
1.1971598974
 20
0.1834310651
 10
1.2040119819
 20
0.1843600772
 10
1.2108699453
 20
0.1853781232
 10
1.2177227918
 20
0.1864854075
 10
1.2245608471
 20
0.1876820045
 10
1.2313754711
 20
0.1889678808
 10
1.2381588468
 20
0.1903429117
 10
1.244903821
 20
0.1918068958
 10
1.2516037849
 20
0.1933595664
 10
1.258252581
 20
0.1950006012
 10
1.2648444314
 20
0.1967296311
 10
1.2713738807
 20
0.1985462472
 10
1.2778357499
 20
0.2004500077
 10
1.2842250994
 20
0.2024404438
 10
1.2905371976
 20
0.2045170643
 10
1.2967674944
 20
0.2066793605
 10
1.3029115986
 20
0.20892681
 10
1.3089652568
 20
0.2112588793
 10
1.3149243352
 20
0.2136750265
 10
1.3207848014
 20
0.2161747016
 10
1.3265427076
 20
0.218757347
 10
1.3321941736
 20
0.2214223954
 10
1.3377353706
 20
0.2241692664
 10
1.3431625041
 20
0.2269973608
 10
1.3484717972
 20
0.2299060526
 10
1.3536594747
 20
0.2328946782
 10
1.3587217469
 20
0.2359625222
 10
1.363654795
 20
0.2391088007
 10
1.3684547592
 20
0.2423326402
 10
1.3731173066
 20
0.2456327476
 10
1.3776384147
 20
0.2490079032
 10
1.382014037
 20
0.2524567272
 10
1.386240093
 20
0.2559776392
 10
1.3903124913
 20
0.2595688358
 10
1.3942271602
 20
0.263228273
 10
1.3979800894
 20
0.2669536568
 10
1.4015673792
 20
0.2707424446
 10
1.4049852955
 20
0.2745918585
 10
1.4082303266
 20
0.2784989125
 10
1.4112992366
 20
0.2824604519
 10
1.4141891105
 20
0.2864732032
 10
1.4168973862
 20
0.2905338304
 10
1.4194218686
 20
0.2946389931
 10
1.4217607257
 20
0.2987854012
 10
1.4239124649
 20
0.3029698621
 10
1.4258758939
 20
0.3071893155
 10
1.4276500679
 20
0.3114408562
 10
1.4292342298
 20
0.3157217426
 10
1.430627747
 20
0.3200293937
 10
1.4318300495
 20
0.3243613766
 10
1.4328405728
 20
0.3287153873
 10
1.4336587072
 20
0.3330892283
 10
1.4342837555
 20
0.337480785
 10
1.4347148981
 20
0.3418880027
 10
1.4349511652
 20
0.3463088667
 10
1.4349792948
 20
0.3494065616
  0
LWPOLYLINE
  5
19D
330
23
100
AcDbEntity
  8
0
  6
Continuous
 62
     7
370
    25
100
AcDbPolyline
 90
       67
 70
   128
 43
0.0
 10
0.8100203338
 20
0.3494164278
 10
0.810008584
 20
0.3481225124
 10
0.8101656765
 20
0.3436803346
 10
0.8105215033
 20
0.3392317891
 10
0.8110775645
 20
0.3347792411
 10
0.8118355643
 20
0.3303247495
 10
0.812797402
 20
0.3258704206
 10
0.8139651575
 20
0.3214184408
 10
0.8153410644
 20
0.3169711165
 10
0.8169274676
 20
0.3125309208
 10
0.8187267626
 20
0.3081005463
 10
0.8207413152
 20
0.3036829603
 10
0.8229733612
 20
0.2992814592
 10
0.825424888
 20
0.2948997146
 10
0.8280975037
 20
0.2905418056
 10
0.8309923011
 20
0.2862122289
 10
0.8341097288
 20
0.2819158823
 10
0.8374494805
 20
0.2776580164
 10
0.8410104164
 20
0.2734441554
 10
0.8447905252
 20
0.2692799915
 10
0.8487869347
 20
0.2651712604
 10
0.8529959678
 20
0.2611236102
 10
0.85741324
 20
0.2571424755
 10
0.8615517471
 20
0.2536296287
 10
0.8663369484
 20
0.2497987122
 10
0.8707932896
 20
0.2464295752
 10
0.8753940805
 20
0.2431313449
 10
0.8801349143
 20
0.2399059817
 10
0.8850117793
 20
0.2367549619
 10
0.8900202952
 20
0.2336798312
 10
0.8951565894
 20
0.2306816747
 10
0.9004169205
 20
0.2277614143
 10
0.9057976151
 20
0.2249198708
 10
0.9112950618
 20
0.2221577834
 10
0.9169057012
 20
0.2194758272
 10
0.9226260142
 20
0.2168746288
 10
0.928452511
 20
0.2143547777
 10
0.9343817195
 20
0.2119168358
 10
0.940410175
 20
0.209561345
 10
0.9465344093
 20
0.2072888317
 10
0.9527509417
 20
0.2050998113
 10
0.9590562694
 20
0.2029947898
 10
0.9654468591
 20
0.2009742654
 10
0.971919138
 20
0.1990387286
 10
0.9784694851
 20
0.1971886625
 10
0.9850942215
 20
0.1954245413
 10
0.9917895994
 20
0.1937468298
 10
0.9985517889
 20
0.1921559816
 10
1.0053768604
 20
0.1906524375
 10
1.0122607626
 20
0.189236624
 10
1.0191992901
 20
0.1879089518
 10
1.0261880382
 20
0.1866698133
 10
1.0332223349
 20
0.1855195818
 10
1.0402971362
 20
0.1844586095
 10
1.0474068604
 20
0.1834872267
 10
1.0545451104
 20
0.1826057406
 10
1.0617041925
 20
0.1818144359
 10
1.0688742244
 20
0.1811135766
 10
1.076041364
 20
0.1805034134
 10
1.0831839477
 20
0.1799842012
 10
1.0902629731
 20
0.1795562525
 10
1.0971942309
 20
0.1792201171
 10
1.1037412807
 20
0.1789774392
 10
1.1092278404
 20
0.1788297953
 10
1.113668786
 20
0.1787473896
 10
1.1189448536
 20
0.1786925512
 10
1.1225
 20
0.1786819476
  0
LWPOLYLINE
  5
19E
330
23
100
AcDbEntity
  8
0
  6
Continuous
 62
     7
370
    25
100
AcDbPolyline
 90
       68
 70
   128
 43
0.0
 10
1.1375
 20
0.1786819476
 10
1.1456111868
 20
0.1787371515
 10
1.1488622651
 20
0.1787902918
 10
1.1542615954
 20
0.1789178247
 10
1.1598588377
 20
0.1791019118
 10
1.1658534286
 20
0.1793578514
 10
1.1720981591
 20
0.1796894509
 10
1.1785316044
 20
0.1801008653
 10
1.1851038482
 20
0.1805948877
 10
1.1917782166
 20
0.1811735926
 10
1.1985264942
 20
0.1818385009
 10
1.2053264058
 20
0.1825907251
 10
1.2121598974
 20
0.1834310651
 10
1.2190119819
 20
0.1843600772
 10
1.2258699453
 20
0.1853781232
 10
1.2327227918
 20
0.1864854075
 10
1.2395608471
 20
0.1876820045
 10
1.2463754711
 20
0.1889678808
 10
1.2531588468
 20
0.1903429117
 10
1.259903821
 20
0.1918068958
 10
1.2666037849
 20
0.1933595664
 10
1.273252581
 20
0.1950006012
 10
1.2798444314
 20
0.1967296311
 10
1.2863738807
 20
0.1985462472
 10
1.2928357499
 20
0.2004500077
 10
1.2992250994
 20
0.2024404438
 10
1.3055371976
 20
0.2045170643
 10
1.3117674944
 20
0.2066793605
 10
1.3179115986
 20
0.20892681
 10
1.3239652568
 20
0.2112588793
 10
1.3299243352
 20
0.2136750265
 10
1.3357848014
 20
0.2161747016
 10
1.3415427076
 20
0.218757347
 10
1.3471941736
 20
0.2214223954
 10
1.3527353706
 20
0.2241692664
 10
1.3581625041
 20
0.2269973608
 10
1.3634717972
 20
0.2299060526
 10
1.3686594747
 20
0.2328946782
 10
1.3737217469
 20
0.2359625222
 10
1.378654795
 20
0.2391088007
 10
1.3834547592
 20
0.2423326402
 10
1.3881173066
 20
0.2456327476
 10
1.3926384147
 20
0.2490079032
 10
1.397014037
 20
0.2524567272
 10
1.401240093
 20
0.2559776392
 10
1.4053124913
 20
0.2595688358
 10
1.4092271602
 20
0.263228273
 10
1.4129800894
 20
0.2669536568
 10
1.4165673792
 20
0.2707424446
 10
1.4199852955
 20
0.2745918585
 10
1.4232303266
 20
0.2784989125
 10
1.4262992366
 20
0.2824604519
 10
1.4291891105
 20
0.2864732032
 10
1.4318973862
 20
0.2905338304
 10
1.4344218686
 20
0.2946389931
 10
1.4367607257
 20
0.2987854012
 10
1.4389124649
 20
0.3029698621
 10
1.4408758939
 20
0.3071893155
 10
1.4426500679
 20
0.3114408562
 10
1.4442342298
 20
0.3157217426
 10
1.445627747
 20
0.3200293937
 10
1.4468300495
 20
0.3243613766
 10
1.4478405728
 20
0.3287153873
 10
1.4486587072
 20
0.3330892283
 10
1.4492837555
 20
0.337480785
 10
1.4497148981
 20
0.3418880027
 10
1.4499511652
 20
0.3463088667
 10
1.44997954
 20
0.34943357
  0
LWPOLYLINE
  5
19F
330
23
100
AcDbEntity
  8
0
  6
Continuous
 62
     7
370
    25
100
AcDbPolyline
 90
        3
 70
   128
 43
0.0
 10
1.1300326374
 20
0.178733214
 10
1.1339448536
 20
0.1786925512
 10
1.1375
 20
0.1786819476
  0
LINE
  5
1A0
330
23
100
AcDbEntity
  8
0
  6
Continuous
 62
     7
370
    25
100
AcDbLine
 10
1.45
 20
0.3494319476
 30
0.0
 11
1.45
 21
0.5341907958
 31
0.0
  0
LINE
  5
1A1
330
23
100
AcDbEntity
  8
0
  6
Continuous
 62
     7
370
    25
100
AcDbLine
 10
2.139375
 20
1.1632793208
 30
0.0
 11
2.139375
 21
1.2325613531
 31
0.0
  0
LINE
  5
1A2
330
23
100
AcDbEntity
  8
0
  6
Continuous
 62
     7
370
    25
100
AcDbLine
 10
1.545625
 20
1.2325613531
 30
0.0
 11
1.545625
 21
1.1632793208
 31
0.0
  0
LWPOLYLINE
  5
1A3
330
23
100
AcDbEntity
  8
0
  6
Continuous
 62
     7
370
    25
100
AcDbPolyline
 90
       68
 70
   128
 43
0.0
 10
1.8575
 20
0.1786819476
 10
1.8656111868
 20
0.1787371515
 10
1.8688622651
 20
0.1787902918
 10
1.8742615954
 20
0.1789178247
 10
1.8798588377
 20
0.1791019118
 10
1.8858534286
 20
0.1793578514
 10
1.8920981591
 20
0.1796894509
 10
1.8985316044
 20
0.1801008653
 10
1.9051038482
 20
0.1805948877
 10
1.9117782166
 20
0.1811735926
 10
1.9185264942
 20
0.1818385009
 10
1.9253264058
 20
0.1825907251
 10
1.9321598974
 20
0.1834310651
 10
1.9390119819
 20
0.1843600772
 10
1.9458699453
 20
0.1853781232
 10
1.9527227918
 20
0.1864854075
 10
1.9595608471
 20
0.1876820045
 10
1.9663754711
 20
0.1889678808
 10
1.9731588468
 20
0.1903429117
 10
1.979903821
 20
0.1918068958
 10
1.9866037849
 20
0.1933595664
 10
1.993252581
 20
0.1950006012
 10
1.9998444314
 20
0.1967296311
 10
2.0063738807
 20
0.1985462472
 10
2.0128357499
 20
0.2004500077
 10
2.0192250994
 20
0.2024404438
 10
2.0255371976
 20
0.2045170643
 10
2.0317674944
 20
0.2066793605
 10
2.0379115986
 20
0.20892681
 10
2.0439652568
 20
0.2112588793
 10
2.0499243352
 20
0.2136750265
 10
2.0557848014
 20
0.2161747016
 10
2.0615427076
 20
0.218757347
 10
2.0671941736
 20
0.2214223954
 10
2.0727353706
 20
0.2241692664
 10
2.0781625041
 20
0.2269973608
 10
2.0834717972
 20
0.2299060526
 10
2.0886594747
 20
0.2328946782
 10
2.0937217469
 20
0.2359625222
 10
2.098654795
 20
0.2391088007
 10
2.1034547592
 20
0.2423326402
 10
2.1081173066
 20
0.2456327476
 10
2.1126384147
 20
0.2490079032
 10
2.117014037
 20
0.2524567272
 10
2.121240093
 20
0.2559776392
 10
2.1253124913
 20
0.2595688358
 10
2.1292271602
 20
0.263228273
 10
2.1329800894
 20
0.2669536568
 10
2.1365673792
 20
0.2707424446
 10
2.1399852955
 20
0.2745918585
 10
2.1432303266
 20
0.2784989125
 10
2.1462992366
 20
0.2824604519
 10
2.1491891105
 20
0.2864732032
 10
2.1518973862
 20
0.2905338304
 10
2.1544218686
 20
0.2946389931
 10
2.1567607257
 20
0.2987854012
 10
2.1589124649
 20
0.3029698621
 10
2.1608758939
 20
0.3071893155
 10
2.1626500679
 20
0.3114408562
 10
2.1642342298
 20
0.3157217426
 10
2.165627747
 20
0.3200293937
 10
2.1668300495
 20
0.3243613766
 10
2.1678405728
 20
0.3287153873
 10
2.1686587072
 20
0.3330892283
 10
2.1692837555
 20
0.337480785
 10
2.1697148981
 20
0.3418880027
 10
2.1699511652
 20
0.3463088667
 10
2.16997954
 20
0.34943357
  0
LWPOLYLINE
  5
1A4
330
23
100
AcDbEntity
  8
0
  6
Continuous
 62
     7
370
    25
100
AcDbPolyline
 90
        3
 70
   128
 43
0.0
 10
1.8500326374
 20
0.178733214
 10
1.8539448536
 20
0.1786925512
 10
1.8575
 20
0.1786819476
  0
LINE
  5
1A5
330
23
100
AcDbEntity
  8
0
  6
Continuous
 62
     7
370
    25
100
AcDbLine
 10
2.17
 20
0.3494319476
 30
0.0
 11
2.17
 21
0.5341907958
 31
0.0
  0
LINE
  5
1A6
330
23
100
AcDbEntity
  8
0
  6
Continuous
 62
     7
370
    25
100
AcDbLine
 10
0.17
 20
2.1061907958
 30
0.0
 11
0.17
 21
1.7461907958
 31
0.0
  0
LINE
  5
1A7
330
23
100
AcDbEntity
  8
0
  6
Continuous
 62
     7
370
    25
100
AcDbLine
 10
0.17
 20
2.1061907958
 30
0.0
 11
2.795
 21
2.1061907958
 31
0.0
  0
LINE
  5
1A8
330
23
100
AcDbEntity
  8
0
  6
Continuous
 62
     7
370
    25
100
AcDbLine
 10
2.795
 20
2.1061907958
 30
0.0
 11
2.795
 21
1.7461907958
 31
0.0
  0
LINE
  5
1A9
330
23
100
AcDbEntity
  8
0
  6
Continuous
 62
     7
370
    25
100
AcDbLine
 10
0.17
 20
1.7461907958
 30
0.0
 11
2.795
 21
1.7461907958
 31
0.0
  0
LINE
  5
1AA
330
23
100
AcDbEntity
  8
0
  6
Continuous
 62
     7
370
    25
100
AcDbLine
 10
0.17
 20
0.9913595794
 30
0.0
 11
2.795
 21
0.9913595794
 31
0.0
  0
LINE
  5
1AB
330
23
100
AcDbEntity
  8
0
  6
Continuous
 62
     7
370
    25
100
AcDbLine
 10
0.17
 20
1.3153838529
 30
0.0
 11
0.8699092572
 21
1.3153838529
 31
0.0
  0
LINE
  5
1AC
330
23
100
AcDbEntity
  8
0
  6
Continuous
 62
     7
370
    25
100
AcDbLine
 10
1.3750907428
 20
1.3153838529
 30
0.0
 11
1.5899092572
 21
1.3153838529
 31
0.0
  0
LINE
  5
1AD
330
23
100
AcDbEntity
  8
0
  6
Continuous
 62
     7
370
    25
100
AcDbLine
 10
2.0950907428
 20
1.3153838529
 30
0.0
 11
2.795
 21
1.3153838529
 31
0.0
  0
LINE
  5
1AE
330
23
100
AcDbEntity
  8
0
  6
Continuous
 62
     7
370
    25
100
AcDbLine
 10
2.795
 20
1.3153838529
 30
0.0
 11
2.795
 21
0.9913595794
 31
0.0
  0
LINE
  5
1AF
330
23
100
AcDbEntity
  8
0
  6
Continuous
 62
     7
370
    25
100
AcDbLine
 10
0.17
 20
1.3153838529
 30
0.0
 11
0.17
 21
0.9913595794
 31
0.0
  0
LINE
  5
1B0
330
23
100
AcDbEntity
  8
0
  6
Continuous
 62
     7
370
    25
100
AcDbLine
 10
0.17
 20
0.5341907958
 30
0.0
 11
2.795
 21
0.5341907958
 31
0.0
  0
LINE
  5
1B1
330
23
100
AcDbEntity
  8
0
  6
Continuous
 62
     7
370
    25
100
AcDbLine
 10
2.795
 20
0.9913595794
 30
0.0
 11
2.795
 21
0.5341907958
 31
0.0
  0
LINE
  5
1B2
330
23
100
AcDbEntity
  8
0
  6
Continuous
 62
     7
370
    25
100
AcDbLine
 10
0.17
 20
0.9913595794
 30
0.0
 11
0.17
 21
0.5341907958
 31
0.0
  0
ARC
  5
1B3
330
23
100
AcDbEntity
  8
0
  6
Continuous
 62
     7
370
    25
100
AcDbCircle
 10
1.8425
 20
1.7491907958
 30
0.0
 40
0.0780000000000006
100
AcDbArc
 50
182.204227504
 51
357.795772496
  0
ARC
  5
1B4
330
23
100
AcDbEntity
  8
0
  6
Continuous
 62
     7
370
    25
100
AcDbCircle
 10
1.1225
 20
1.7491907958
 30
0.0
 40
0.0780000000000006
100
AcDbArc
 50
182.204227504
 51
357.795772496
  0
LINE
  5
1B5
330
23
100
AcDbEntity
  8
0
  6
Continuous
 62
     7
370
    25
100
AcDbLine
 10
2.795
 20
1.7461907958
 30
0.0
 11
2.795
 21
1.3153838529
 31
0.0
  0
LINE
  5
1B6
330
23
100
AcDbEntity
  8
0
  6
Continuous
 62
     7
370
    25
100
AcDbLine
 10
0.17
 20
1.7461907958
 30
0.0
 11
0.17
 21
1.3153838529
 31
0.0
  0
LINE
  5
1B7
330
23
100
AcDbEntity
  8
0
  6
Continuous
 62
     7
370
    25
100
AcDbLine
 10
0.9962046286
 20
1.1231863531
 30
0.0
 11
1.2487953714
 21
1.1231863531
 31
0.0
  0
LINE
  5
1B8
330
23
100
AcDbEntity
  8
0
  6
Continuous
 62
     7
370
    25
100
AcDbLine
 10
0.9962046286
 20
1.1231863531
 30
0.0
 11
0.9962046286
 21
1.2399586534
 31
0.0
  0
ARC
  5
1B9
330
23
100
AcDbEntity
  8
0
  6
Continuous
 62
     7
370
    25
100
AcDbCircle
 10
1.1277487757
 20
0.7379007015
 30
0.0
 40
0.519004864793035
100
AcDbArc
 50
90.5794508671
 51
104.6820295577
  0
ARC
  5
1BA
330
23
100
AcDbEntity
  8
0
  6
Continuous
 62
     7
370
    25
100
AcDbCircle
 10
1.1174802229
 20
0.7396099703
 30
0.0
 40
0.517293410858732
100
AcDbArc
 50
75.2945223148
 51
89.4439972604
  0
LINE
  5
1BB
330
23
100
AcDbEntity
  8
0
  6
Continuous
 62
     7
370
    25
100
AcDbLine
 10
1.2487953714
 20
1.1231863531
 30
0.0
 11
1.2487953714
 21
1.2399586534
 31
0.0
  0
ARC
  5
1BC
330
23
100
AcDbEntity
  8
0
  6
Continuous
 62
     7
370
    25
100
AcDbCircle
 10
1.6031455619
 20
0.9911209854
 30
0.0
 40
0.4329945063219021
100
AcDbArc
 50
132.2627598562
 51
144.9220654829
  0
ARC
  5
1BD
330
23
100
AcDbEntity
  8
0
  6
Continuous
 62
     7
370
    25
100
AcDbCircle
 10
1.1381958227
 20
1.5579758501
 30
0.0
 40
0.3015056500938323
100
AcDbArc
 50
267.0159395513
 51
305.1882879527
  0
ARC
  5
1BE
330
23
100
AcDbEntity
  8
0
  6
Continuous
 62
     7
370
    25
100
AcDbCircle
 10
0.6410478738
 20
0.9904097134
 30
0.0
 40
0.4340633524547656
100
AcDbArc
 50
35.0935842596
 51
47.7215904014
  0
ARC
  5
1BF
330
23
100
AcDbEntity
  8
0
  6
Continuous
 62
     7
370
    25
100
AcDbCircle
 10
1.1071798894
 20
1.5592773549
 30
0.0
 40
0.302786155308764
100
AcDbArc
 50
234.8955320967
 51
272.9002403994
  0
ARC
  5
1C0
330
23
100
AcDbEntity
  8
0
  6
Continuous
 62
     7
370
    25
100
AcDbCircle
 10
1.2735915726
 20
1.3662540248
 30
0.0
 40
0.0667949026174778
100
AcDbArc
 50
305.0413757956
 51
54.9586242044
  0
ARC
  5
1C1
330
23
100
AcDbEntity
  8
0
  6
Continuous
 62
     7
370
    25
100
AcDbCircle
 10
0.9714084274
 20
1.3662540248
 30
0.0
 40
0.0667949026174778
100
AcDbArc
 50
125.0413757956
 51
234.9586242044
  0
ARC
  5
1C2
330
23
100
AcDbEntity
  8
0
  6
Continuous
 62
     7
370
    25
100
AcDbCircle
 10
1.1068041773
 20
1.1745321995
 30
0.0
 40
0.301505650093833
100
AcDbArc
 50
87.0159395513
 51
125.1882879527
  0
ARC
  5
1C3
330
23
100
AcDbEntity
  8
0
  6
Continuous
 62
     7
370
    25
100
AcDbCircle
 10
1.1378201106
 20
1.1732306947
 30
0.0
 40
0.3027861553087683
100
AcDbArc
 50
54.8955320967
 51
92.9002403994
  0
LWPOLYLINE
  5
1C4
330
23
100
AcDbEntity
  8
0
  6
Continuous
 62
     7
370
    25
100
AcDbPolyline
 90
      157
 70
   128
 43
0.0
 10
1.1225
 20
1.4337540248
 10
1.1170640981
 20
1.4336992822
 10
1.1116370132
 20
1.4335351431
 10
1.1062275482
 20
1.4332618738
 10
1.1008444771
 20
1.4328799175
 10
1.0954965313
 20
1.4323898938
 10
1.0901923853
 20
1.4317925975
 10
1.0849406424
 20
1.4310889973
 10
1.0797498208
 20
1.4302802346
 10
1.0746283402
 20
1.4293676212
 10
1.0695845077
 20
1.4283526372
 10
1.0646265042
 20
1.4272369291
 10
1.0597623718
 20
1.4260223065
 10
1.055
 20
1.4247107396
 10
1.0503471135
 20
1.4233043556
 10
1.0458112592
 20
1.4218054358
 10
1.0413997943
 20
1.4202164113
 10
1.0371198743
 20
1.4185398597
 10
1.0329784411
 20
1.4167785003
 10
1.0289822123
 20
1.41493519
 10
1.0251376696
 20
1.4130129187
 10
1.021451049
 20
1.4110148042
 10
1.0179283302
 20
1.4089440877
 10
1.0145752269
 20
1.4068041276
 10
1.0113971781
 20
1.4045983952
 10
1.0083993385
 20
1.4023304681
 10
1.0055865705
 20
1.4000040248
 10
1.0029634365
 20
1.3976228389
 10
1.0005341913
 20
1.3951907727
 10
0.9983027751
 20
1.392711771
 10
0.9962728072
 20
1.3901898547
 10
0.9944475803
 20
1.3876291144
 10
0.9928300549
 20
1.3850337036
 10
0.9914228546
 20
1.3824078321
 10
0.990228262
 20
1.3797557591
 10
0.9892482145
 20
1.3770817863
 10
0.988484302
 20
1.3743902507
 10
0.9879377634
 20
1.3716855182
 10
0.9876094852
 20
1.3689719758
 10
0.9875
 20
1.3662540248
 10
0.9876094852
 20
1.3635360738
 10
0.9879377634
 20
1.3608225314
 10
0.988484302
 20
1.3581177989
 10
0.9892482145
 20
1.3554262633
 10
0.990228262
 20
1.3527522905
 10
0.9914228546
 20
1.3501002175
 10
0.9928300549
 20
1.347474346
 10
0.9944475803
 20
1.3448789352
 10
0.9962728072
 20
1.3423181949
 10
0.9983027751
 20
1.3397962786
 10
1.0005341913
 20
1.3373172769
 10
1.0029634365
 20
1.3348852107
 10
1.0055865705
 20
1.3325040248
 10
1.0083993385
 20
1.3301775815
 10
1.0113971781
 20
1.3279096544
 10
1.0145752269
 20
1.325703922
 10
1.0179283302
 20
1.323563962
 10
1.021451049
 20
1.3214932454
 10
1.0251376696
 20
1.3194951309
 10
1.0289822123
 20
1.3175728596
 10
1.0329784411
 20
1.3157295493
 10
1.0371198743
 20
1.3139681899
 10
1.0413997943
 20
1.3122916383
 10
1.0458112592
 20
1.3107026139
 10
1.0503471135
 20
1.309203694
 10
1.055
 20
1.30779731
 10
1.0597623718
 20
1.3064857431
 10
1.0646265042
 20
1.3052711205
 10
1.0695845077
 20
1.3041554124
 10
1.0746283402
 20
1.3031404284
 10
1.0797498208
 20
1.302227815
 10
1.0849406424
 20
1.3014190523
 10
1.0901923853
 20
1.3007154521
 10
1.0954965313
 20
1.3001181558
 10
1.1008444771
 20
1.2996281321
 10
1.1062275482
 20
1.2992461758
 10
1.1116370132
 20
1.2989729065
 10
1.1170640981
 20
1.2988087674
 10
1.1225
 20
1.2987540248
 10
1.1279359019
 20
1.2988087674
 10
1.1333629868
 20
1.2989729065
 10
1.1387724518
 20
1.2992461758
 10
1.1441555229
 20
1.2996281321
 10
1.1495034687
 20
1.3001181558
 10
1.1548076147
 20
1.3007154521
 10
1.1600593576
 20
1.3014190523
 10
1.1652501792
 20
1.302227815
 10
1.1703716598
 20
1.3031404284
 10
1.1754154923
 20
1.3041554124
 10
1.1803734958
 20
1.3052711205
 10
1.1852376282
 20
1.3064857431
 10
1.19
 20
1.30779731
 10
1.1946528865
 20
1.309203694
 10
1.1991887408
 20
1.3107026139
 10
1.2036002057
 20
1.3122916383
 10
1.2078801257
 20
1.3139681899
 10
1.2120215589
 20
1.3157295493
 10
1.2160177877
 20
1.3175728596
 10
1.2198623304
 20
1.3194951309
 10
1.223548951
 20
1.3214932454
 10
1.2270716698
 20
1.323563962
 10
1.2304247731
 20
1.325703922
 10
1.2336028219
 20
1.3279096544
 10
1.2366006615
 20
1.3301775815
 10
1.2394134295
 20
1.3325040248
 10
1.2420365635
 20
1.3348852107
 10
1.2444658087
 20
1.3373172769
 10
1.2466972249
 20
1.3397962786
 10
1.2487271928
 20
1.3423181949
 10
1.2505524197
 20
1.3448789352
 10
1.2521699451
 20
1.347474346
 10
1.2535771454
 20
1.3501002175
 10
1.254771738
 20
1.3527522905
 10
1.2557517855
 20
1.3554262633
 10
1.256515698
 20
1.3581177989
 10
1.2570622366
 20
1.3608225314
 10
1.2573905148
 20
1.3635360738
 10
1.2575
 20
1.3662540248
 10
1.2573905148
 20
1.3689719758
 10
1.2570622366
 20
1.3716855182
 10
1.256515698
 20
1.3743902507
 10
1.2557517855
 20
1.3770817863
 10
1.254771738
 20
1.3797557591
 10
1.2535771454
 20
1.3824078321
 10
1.2521699451
 20
1.3850337036
 10
1.2505524197
 20
1.3876291144
 10
1.2487271928
 20
1.3901898547
 10
1.2466972249
 20
1.392711771
 10
1.2444658087
 20
1.3951907727
 10
1.2420365635
 20
1.3976228389
 10
1.2394134295
 20
1.4000040248
 10
1.2366006615
 20
1.4023304681
 10
1.2336028219
 20
1.4045983952
 10
1.2304247731
 20
1.4068041276
 10
1.2270716698
 20
1.4089440877
 10
1.223548951
 20
1.4110148042
 10
1.2198623304
 20
1.4130129187
 10
1.2160177877
 20
1.41493519
 10
1.2120215589
 20
1.4167785003
 10
1.2078801257
 20
1.4185398597
 10
1.2036002057
 20
1.4202164113
 10
1.1991887408
 20
1.4218054358
 10
1.1946528865
 20
1.4233043556
 10
1.19
 20
1.4247107396
 10
1.1852376282
 20
1.4260223065
 10
1.1803734958
 20
1.4272369291
 10
1.1754154923
 20
1.4283526372
 10
1.1703716598
 20
1.4293676212
 10
1.1652501792
 20
1.4302802346
 10
1.1600593576
 20
1.4310889973
 10
1.1548076147
 20
1.4317925975
 10
1.1495034687
 20
1.4323898938
 10
1.1441555229
 20
1.4328799175
 10
1.1387724518
 20
1.4332618738
 10
1.1333629868
 20
1.4335351431
 10
1.1279359019
 20
1.4336992822
 10
1.1225
 20
1.4337540248
  0
LWPOLYLINE
  5
1C5
330
23
100
AcDbEntity
  8
0
  6
Continuous
 62
     7
370
    25
100
AcDbPolyline
 90
       80
 70
   128
 43
0.0
 10
1.1225
 20
1.0841238531
 10
1.1144260145
 20
1.0841787595
 10
1.1063580021
 20
1.0843434379
 10
1.0983019314
 20
1.0846177666
 10
1.0902637623
 20
1.0850015427
 10
1.0822494412
 20
1.0854944821
 10
1.074264897
 20
1.0860962203
 10
1.0663160368
 20
1.0868063121
 10
1.058408741
 20
1.0876242321
 10
1.0505488593
 20
1.0885493753
 10
1.0427422064
 20
1.0895810573
 10
1.0349945576
 20
1.0907185147
 10
1.0273116445
 20
1.0919609063
 10
1.0196991509
 20
1.0933073127
 10
1.0121627085
 20
1.094756738
 10
1.0047078925
 20
1.09630811
 10
0.9973402182
 20
1.0979602808
 10
0.9900651358
 20
1.0997120283
 10
0.9828880276
 20
1.1015620565
 10
0.9758142031
 20
1.1035089969
 10
0.9688488953
 20
1.1055514089
 10
0.9619972573
 20
1.1076877818
 10
0.9552643578
 20
1.109916535
 10
0.9486551776
 20
1.1122360198
 10
0.9421746063
 20
1.1146445201
 10
0.9358274381
 20
1.1171402542
 10
0.9296183685
 20
1.1197213759
 10
0.923551991
 20
1.1223859755
 10
0.9176327935
 20
1.1251320818
 10
0.9118651548
 20
1.1279576634
 10
0.9062533419
 20
1.1308606298
 10
0.9008015063
 20
1.1338388335
 10
0.8955136813
 20
1.1368900712
 10
0.8903937786
 20
1.1400120856
 10
0.8854455861
 20
1.1432025672
 10
0.8806727642
 20
1.1464591556
 10
0.876078844
 20
1.1497794416
 10
0.8716672239
 20
1.1531609689
 10
0.8674411676
 20
1.1566012359
 10
0.8634038015
 20
1.1600976975
 10
0.8595581124
 20
1.1636477671
 10
0.8559069453
 20
1.1672488183
 10
0.8524530014
 20
1.1708981871
 10
0.8491988358
 20
1.1745931738
 10
0.8461468559
 20
1.1783310448
 10
0.8432993195
 20
1.1821090349
 10
0.8406583333
 20
1.1859243492
 10
0.838225851
 20
1.1897741651
 10
0.8360036721
 20
1.1936556345
 10
0.8339934407
 20
1.1975658861
 10
0.8321966437
 20
1.201502027
 10
0.8306146105
 20
1.2054611453
 10
0.8292485115
 20
1.2094403121
 10
0.8280993573
 20
1.2134365836
 10
0.8271679981
 20
1.2174470035
 10
0.8264551227
 20
1.2214686048
 10
0.8259612587
 20
1.2254984125
 10
0.8256867713
 20
1.2295334452
 10
0.8256318637
 20
1.233570718
 10
0.8257965764
 20
1.237607244
 10
0.8261807876
 20
1.2416400371
 10
0.8267842131
 20
1.2456661139
 10
0.8276064065
 20
1.2496824959
 10
0.8286467594
 20
1.2536862119
 10
0.8299045024
 20
1.2576742999
 10
0.8313787048
 20
1.2616438095
 10
0.8330682761
 20
1.2655918042
 10
0.8349719663
 20
1.2695153633
 10
0.8370883672
 20
1.2734115841
 10
0.8394159131
 20
1.2772775844
 10
0.8419528819
 20
1.2811105039
 10
0.844697397
 20
1.2849075072
 10
0.847647428
 20
1.2886657853
 10
0.8508007923
 20
1.2923825579
 10
0.8541551573
 20
1.2960550753
 10
0.8577080414
 20
1.2996806206
 10
0.8614568161
 20
1.3032565117
 10
0.8653987083
 20
1.3067801031
 10
0.8695308016
 20
1.3102487882
 10
0.8699092572
 20
1.3105560361
  0
LWPOLYLINE
  5
1C6
330
23
100
AcDbEntity
  8
0
  6
Continuous
 62
     7
370
    25
100
AcDbPolyline
 90
       80
 70
   128
 43
0.0
 10
1.3750907428
 20
1.3105560361
 10
1.3754691984
 20
1.3102487882
 10
1.3796012917
 20
1.3067801031
 10
1.3835431839
 20
1.3032565117
 10
1.3872919586
 20
1.2996806206
 10
1.3908448427
 20
1.2960550753
 10
1.3941992077
 20
1.2923825579
 10
1.397352572
 20
1.2886657853
 10
1.400302603
 20
1.2849075072
 10
1.4030471181
 20
1.2811105039
 10
1.4055840869
 20
1.2772775844
 10
1.4079116328
 20
1.2734115841
 10
1.4100280337
 20
1.2695153633
 10
1.4119317239
 20
1.2655918042
 10
1.4136212952
 20
1.2616438095
 10
1.4150954976
 20
1.2576742999
 10
1.4163532406
 20
1.2536862119
 10
1.4173935935
 20
1.2496824959
 10
1.4182157869
 20
1.2456661139
 10
1.4188192124
 20
1.2416400371
 10
1.4192034236
 20
1.237607244
 10
1.4193681363
 20
1.233570718
 10
1.4193132287
 20
1.2295334452
 10
1.4190387413
 20
1.2254984125
 10
1.4185448773
 20
1.2214686048
 10
1.4178320019
 20
1.2174470035
 10
1.4169006427
 20
1.2134365836
 10
1.4157514885
 20
1.2094403121
 10
1.4143853895
 20
1.2054611453
 10
1.4128033563
 20
1.201502027
 10
1.4110065593
 20
1.1975658861
 10
1.4089963279
 20
1.1936556345
 10
1.406774149
 20
1.1897741651
 10
1.4043416667
 20
1.1859243492
 10
1.4017006805
 20
1.1821090349
 10
1.3988531441
 20
1.1783310448
 10
1.3958011642
 20
1.1745931738
 10
1.3925469986
 20
1.1708981871
 10
1.3890930547
 20
1.1672488183
 10
1.3854418876
 20
1.1636477671
 10
1.3815961985
 20
1.1600976975
 10
1.3775588324
 20
1.1566012359
 10
1.3733327761
 20
1.1531609689
 10
1.368921156
 20
1.1497794416
 10
1.3643272358
 20
1.1464591556
 10
1.3595544139
 20
1.1432025672
 10
1.3546062214
 20
1.1400120856
 10
1.3494863187
 20
1.1368900712
 10
1.3441984937
 20
1.1338388335
 10
1.3387466581
 20
1.1308606298
 10
1.3331348452
 20
1.1279576634
 10
1.3273672065
 20
1.1251320818
 10
1.321448009
 20
1.1223859755
 10
1.3153816315
 20
1.1197213759
 10
1.3091725619
 20
1.1171402542
 10
1.3028253937
 20
1.1146445201
 10
1.2963448224
 20
1.1122360198
 10
1.2897356422
 20
1.109916535
 10
1.2830027427
 20
1.1076877818
 10
1.2761511047
 20
1.1055514089
 10
1.2691857969
 20
1.1035089969
 10
1.2621119724
 20
1.1015620565
 10
1.2549348642
 20
1.0997120283
 10
1.2476597818
 20
1.0979602808
 10
1.2402921075
 20
1.09630811
 10
1.2328372915
 20
1.094756738
 10
1.2253008491
 20
1.0933073127
 10
1.2176883555
 20
1.0919609063
 10
1.2100054424
 20
1.0907185147
 10
1.2022577936
 20
1.0895810573
 10
1.1944511407
 20
1.0885493753
 10
1.186591259
 20
1.0876242321
 10
1.1786839632
 20
1.0868063121
 10
1.170735103
 20
1.0860962203
 10
1.1627505588
 20
1.0854944821
 10
1.1547362377
 20
1.0850015427
 10
1.1466980686
 20
1.0846177666
 10
1.1386419979
 20
1.0843434379
 10
1.1305739855
 20
1.0841787595
 10
1.1225
 20
1.0841238531
  0
LINE
  5
1C7
330
23
100
AcDbEntity
  8
0
  6
Continuous
 62
     7
370
    25
100
AcDbLine
 10
0.8699092572
 20
1.2325613531
 30
0.0
 11
0.9962046286
 21
1.1231863531
 31
0.0
  0
LINE
  5
1C8
330
23
100
AcDbEntity
  8
0
  6
Continuous
 62
     7
370
    25
100
AcDbLine
 10
1.2487953714
 20
1.1231863531
 30
0.0
 11
1.3750907428
 21
1.2325613531
 31
0.0
  0
LWPOLYLINE
  5
1C9
330
23
100
AcDbEntity
  8
0
  6
Continuous
 62
     7
370
    25
100
AcDbPolyline
 90
      118
 70
   128
 43
0.0
 10
0.825625
 20
1.1632793208
 10
0.8256318637
 20
1.1622699559
 10
0.8257965764
 20
1.1582334299
 10
0.8261807876
 20
1.1542006368
 10
0.8267842131
 20
1.15017456
 10
0.8276064065
 20
1.1461581779
 10
0.8286467594
 20
1.142154462
 10
0.8299045024
 20
1.138166374
 10
0.8313787048
 20
1.1341968644
 10
0.8330682761
 20
1.1302488697
 10
0.8349719663
 20
1.1263253106
 10
0.8370883672
 20
1.1224290897
 10
0.8394159131
 20
1.1185630895
 10
0.8419528819
 20
1.11473017
 10
0.844697397
 20
1.1109331667
 10
0.847647428
 20
1.1071748885
 10
0.8508007923
 20
1.103458116
 10
0.8541551573
 20
1.0997855986
 10
0.8577080414
 20
1.0961600533
 10
0.8614568161
 20
1.0925841622
 10
0.8653987083
 20
1.0890605708
 10
0.8695308016
 20
1.0855918857
 10
0.8738500392
 20
1.0821806731
 10
0.8783532259
 20
1.0788294565
 10
0.8830370301
 20
1.0755407152
 10
0.8878979868
 20
1.0723168821
 10
0.8929325
 20
1.0691603422
 10
0.8981368451
 20
1.0660734306
 10
0.9035071721
 20
1.0630584311
 10
0.9090395079
 20
1.0601175741
 10
0.9147297599
 20
1.0572530352
 10
0.9205737185
 20
1.0544669336
 10
0.9265670602
 20
1.0517613304
 10
0.9327053514
 20
1.0491382272
 10
0.938984051
 20
1.0465995645
 10
0.9453985139
 20
1.0441472205
 10
0.951943995
 20
1.0417830093
 10
0.9586156518
 20
1.03950868
 10
0.9654085488
 20
1.0373259151
 10
0.9723176606
 20
1.0352363294
 10
0.979337876
 20
1.0332414687
 10
0.9864640014
 20
1.0313428089
 10
0.9936907649
 20
1.0295417545
 10
1.0010128204
 20
1.0278396379
 10
1.008424751
 20
1.0262377183
 10
1.0159210735
 20
1.0247371809
 10
1.023496242
 20
1.0233391358
 10
1.0311446527
 20
1.0220446171
 10
1.0388606472
 20
1.0208545825
 10
1.0466385173
 20
1.0197699125
 10
1.0544725091
 20
1.0187914094
 10
1.062356827
 20
1.0179197972
 10
1.0702856383
 20
1.0171557207
 10
1.0782530772
 20
1.016499745
 10
1.0862532497
 20
1.0159523556
 10
1.0942802371
 20
1.0155139573
 10
1.1023281013
 20
1.0151848745
 10
1.1103908885
 20
1.0149653506
 10
1.1184626339
 20
1.014855548
 10
1.1265373661
 20
1.014855548
 10
1.1346091115
 20
1.0149653506
 10
1.1426718987
 20
1.0151848745
 10
1.1507197629
 20
1.0155139573
 10
1.1587467503
 20
1.0159523556
 10
1.1667469228
 20
1.016499745
 10
1.1747143617
 20
1.0171557207
 10
1.182643173
 20
1.0179197972
 10
1.1905274909
 20
1.0187914094
 10
1.1983614827
 20
1.0197699125
 10
1.2061393528
 20
1.0208545825
 10
1.2138553473
 20
1.0220446171
 10
1.221503758
 20
1.0233391358
 10
1.2290789265
 20
1.0247371809
 10
1.236575249
 20
1.0262377183
 10
1.2439871796
 20
1.0278396379
 10
1.2513092351
 20
1.0295417545
 10
1.2585359986
 20
1.0313428089
 10
1.265662124
 20
1.0332414687
 10
1.2726823394
 20
1.0352363294
 10
1.2795914512
 20
1.0373259151
 10
1.2863843482
 20
1.03950868
 10
1.293056005
 20
1.0417830093
 10
1.2996014861
 20
1.0441472205
 10
1.306015949
 20
1.0465995645
 10
1.3122946486
 20
1.0491382272
 10
1.3184329398
 20
1.0517613304
 10
1.3244262815
 20
1.0544669336
 10
1.3302702401
 20
1.0572530352
 10
1.3359604921
 20
1.0601175741
 10
1.3414928279
 20
1.0630584311
 10
1.3468631549
 20
1.0660734306
 10
1.3520675
 20
1.0691603422
 10
1.3571020132
 20
1.0723168821
 10
1.3619629699
 20
1.0755407152
 10
1.3666467741
 20
1.0788294565
 10
1.3711499608
 20
1.0821806731
 10
1.3754691984
 20
1.0855918857
 10
1.3796012917
 20
1.0890605708
 10
1.3835431839
 20
1.0925841622
 10
1.3872919586
 20
1.0961600533
 10
1.3908448427
 20
1.0997855986
 10
1.3941992077
 20
1.103458116
 10
1.397352572
 20
1.1071748885
 10
1.400302603
 20
1.1109331667
 10
1.4030471181
 20
1.11473017
 10
1.4055840869
 20
1.1185630895
 10
1.4079116328
 20
1.1224290897
 10
1.4100280337
 20
1.1263253106
 10
1.4119317239
 20
1.1302488697
 10
1.4136212952
 20
1.1341968644
 10
1.4150954976
 20
1.138166374
 10
1.4163532406
 20
1.142154462
 10
1.4173935935
 20
1.1461581779
 10
1.4182157869
 20
1.15017456
 10
1.4188192124
 20
1.1542006368
 10
1.4192034236
 20
1.1582334299
 10
1.4193681363
 20
1.1622699559
 10
1.419375
 20
1.1632793208
  0
ARC
  5
1CA
330
23
100
AcDbEntity
  8
0
  6
Continuous
 62
     7
370
    25
100
AcDbCircle
 10
1.4440954193
 20
1.1622800173
 30
0.0
 40
0.1993757963205436
100
AcDbArc
 50
110.2491768511
 51
131.5161030849
  0
LINE
  5
1CB
330
23
100
AcDbEntity
  8
0
  6
Continuous
 62
     7
370
    25
100
AcDbLine
 10
1.3750907428
 20
1.2325613531
 30
0.0
 11
1.3750907428
 21
1.3493336534
 31
0.0
  0
LINE
  5
1CC
330
23
100
AcDbEntity
  8
0
  6
Continuous
 62
     7
370
    25
100
AcDbLine
 10
0.8699092572
 20
1.2325613531
 30
0.0
 11
0.8699092572
 21
1.3493336534
 31
0.0
  0
ARC
  5
1CD
330
23
100
AcDbEntity
  8
0
  6
Continuous
 62
     7
370
    25
100
AcDbCircle
 10
0.8006346108
 20
1.1618286203
 30
0.0
 40
0.1998927564612958
100
AcDbArc
 50
48.51171592
 51
69.723004144
  0
ARC
  5
1CE
330
23
100
AcDbEntity
  8
0
  6
Continuous
 62
     7
370
    25
100
AcDbCircle
 10
1.2250660121
 20
1.0997847134
 30
0.0
 40
0.4340633524546632
100
AcDbArc
 50
132.2784095986
 51
144.9064157404
  0
ARC
  5
1CF
330
23
100
AcDbEntity
  8
0
  6
Continuous
 62
     7
370
    25
100
AcDbCircle
 10
1.0207405523
 20
1.1004959854
 30
0.0
 40
0.4329945063226929
100
AcDbArc
 50
35.0779345172
 51
47.7372401438
  0
ARC
  5
1D0
330
23
100
AcDbEntity
  8
0
  6
Continuous
 62
     7
370
    25
100
AcDbCircle
 10
1.1175097347
 20
0.9585802491
 30
0.0
 40
0.5170728567819002
100
AcDbArc
 50
75.2914891907
 51
89.4470303844
  0
ARC
  5
1D1
330
23
100
AcDbEntity
  8
0
  6
Continuous
 62
     7
370
    25
100
AcDbCircle
 10
1.1797906948
 20
1.2716550173
 30
0.0
 40
0.1993757963205479
100
AcDbArc
 50
48.4838969151
 51
69.7508231489
  0
ARC
  5
1D2
330
23
100
AcDbEntity
  8
0
  6
Continuous
 62
     7
370
    25
100
AcDbCircle
 10
1.1277755659
 20
0.9564507367
 30
0.0
 40
0.5192050909549716
100
AcDbArc
 50
90.5821839292
 51
104.6792964957
  0
ARC
  5
1D3
330
23
100
AcDbEntity
  8
0
  6
Continuous
 62
     7
370
    25
100
AcDbCircle
 10
1.065479275
 20
1.2712036203
 30
0.0
 40
0.199892756461306
100
AcDbArc
 50
110.276995856
 51
131.48828408
  0
LWPOLYLINE
  5
1D4
330
23
100
AcDbEntity
  8
0
  6
Continuous
 62
     7
370
    25
100
AcDbPolyline
 90
      133
 70
   128
 43
0.0
 10
1.8425
 20
1.3310008865
 10
1.8378574529
 20
1.3310561431
 10
1.8332254227
 20
1.3312217878
 10
1.8286144024
 20
1.3314974453
 10
1.8240348374
 20
1.3318824911
 10
1.8194971019
 20
1.3323760531
 10
1.8150114754
 20
1.3329770131
 10
1.8105881193
 20
1.3336840098
 10
1.8062370538
 20
1.3344954415
 10
1.8019681356
 20
1.3354094702
 10
1.7977910351
 20
1.3364240253
 10
1.7937152148
 20
1.3375368084
 10
1.7897499077
 20
1.3387452988
 10
1.7859040965
 20
1.3400467589
 10
1.7821864932
 20
1.3414382403
 10
1.7786055195
 20
1.3429165911
 10
1.7751692873
 20
1.3444784621
 10
1.7718855808
 20
1.3461203154
 10
1.7687618386
 20
1.3478384315
 10
1.7658051372
 20
1.3496289184
 10
1.7630221742
 20
1.35148772
 10
1.7604192541
 20
1.3534106256
 10
1.7580022733
 20
1.3553932791
 10
1.7557767071
 20
1.3574311893
 10
1.7537475969
 20
1.3595197395
 10
1.7519195395
 20
1.3616541987
 10
1.750296676
 20
1.3638297314
 10
1.7488826827
 20
1.3660414095
 10
1.7476807627
 20
1.3682842227
 10
1.7466936388
 20
1.3705530904
 10
1.7459235471
 20
1.3728428729
 10
1.7453722321
 20
1.3751483831
 10
1.7450409428
 20
1.3774643982
 10
1.7449304295
 20
1.3797856717
 10
1.7450409428
 20
1.3821069453
 10
1.7453722321
 20
1.3844229604
 10
1.7459235471
 20
1.3867284706
 10
1.7466936388
 20
1.389018253
 10
1.7476807627
 20
1.3912871208
 10
1.7488826827
 20
1.393529934
 10
1.750296676
 20
1.3957416121
 10
1.7519195395
 20
1.3979171448
 10
1.7537475969
 20
1.4000516039
 10
1.7557767071
 20
1.4021401542
 10
1.7580022733
 20
1.4041780644
 10
1.7604192541
 20
1.4061607179
 10
1.7630221742
 20
1.4080836235
 10
1.7658051372
 20
1.4099424251
 10
1.7687618386
 20
1.411732912
 10
1.7718855808
 20
1.4134510281
 10
1.7751692873
 20
1.4150928814
 10
1.7786055195
 20
1.4166547524
 10
1.7821864932
 20
1.4181331031
 10
1.7859040965
 20
1.4195245846
 10
1.7897499077
 20
1.4208260447
 10
1.7937152148
 20
1.4220345351
 10
1.7977910351
 20
1.4231473182
 10
1.8019681356
 20
1.4241618733
 10
1.8062370538
 20
1.425075902
 10
1.8105881193
 20
1.4258873337
 10
1.8150114754
 20
1.4265943304
 10
1.8194971019
 20
1.4271952904
 10
1.8240348374
 20
1.4276888523
 10
1.8286144024
 20
1.4280738982
 10
1.8332254227
 20
1.4283495557
 10
1.8378574529
 20
1.4285152004
 10
1.8425
 20
1.428570457
 10
1.8471425471
 20
1.4285152004
 10
1.8517745773
 20
1.4283495557
 10
1.8563855976
 20
1.4280738982
 10
1.8609651626
 20
1.4276888523
 10
1.8655028981
 20
1.4271952904
 10
1.8699885246
 20
1.4265943304
 10
1.8744118807
 20
1.4258873337
 10
1.8787629462
 20
1.425075902
 10
1.8830318644
 20
1.4241618733
 10
1.8872089649
 20
1.4231473182
 10
1.8912847852
 20
1.4220345351
 10
1.8952500923
 20
1.4208260447
 10
1.8990959035
 20
1.4195245846
 10
1.9028135068
 20
1.4181331031
 10
1.9063944805
 20
1.4166547524
 10
1.9098307127
 20
1.4150928814
 10
1.9131144192
 20
1.4134510281
 10
1.9162381614
 20
1.411732912
 10
1.9191948628
 20
1.4099424251
 10
1.9219778258
 20
1.4080836235
 10
1.9245807459
 20
1.4061607179
 10
1.9269977267
 20
1.4041780644
 10
1.9292232929
 20
1.4021401542
 10
1.9312524031
 20
1.4000516039
 10
1.9330804605
 20
1.3979171448
 10
1.934703324
 20
1.3957416121
 10
1.9361173173
 20
1.393529934
 10
1.9373192373
 20
1.3912871208
 10
1.9383063612
 20
1.389018253
 10
1.9390764529
 20
1.3867284706
 10
1.9396277679
 20
1.3844229604
 10
1.9399590572
 20
1.3821069453
 10
1.9400695705
 20
1.3797856717
 10
1.9399590572
 20
1.3774643982
 10
1.9396277679
 20
1.3751483831
 10
1.9390764529
 20
1.3728428729
 10
1.9383063612
 20
1.3705530904
 10
1.9373192373
 20
1.3682842227
 10
1.9361173173
 20
1.3660414095
 10
1.934703324
 20
1.3638297314
 10
1.9330804605
 20
1.3616541987
 10
1.9312524031
 20
1.3595197395
 10
1.9292232929
 20
1.3574311893
 10
1.9269977267
 20
1.3553932791
 10
1.9245807459
 20
1.3534106256
 10
1.9219778258
 20
1.35148772
 10
1.9191948628
 20
1.3496289184
 10
1.9162381614
 20
1.3478384315
 10
1.9131144192
 20
1.3461203154
 10
1.9098307127
 20
1.3444784621
 10
1.9063944805
 20
1.3429165911
 10
1.9028135068
 20
1.3414382403
 10
1.8990959035
 20
1.3400467589
 10
1.8952500923
 20
1.3387452988
 10
1.8912847852
 20
1.3375368084
 10
1.8872089649
 20
1.3364240253
 10
1.8830318644
 20
1.3354094702
 10
1.8787629462
 20
1.3344954415
 10
1.8744118807
 20
1.3336840098
 10
1.8699885246
 20
1.3329770131
 10
1.8655028981
 20
1.3323760531
 10
1.8609651626
 20
1.3318824911
 10
1.8563855976
 20
1.3314974453
 10
1.8517745773
 20
1.3312217878
 10
1.8471425471
 20
1.3310561431
 10
1.8425
 20
1.3310008865
  0
LWPOLYLINE
  5
1D5
330
23
100
AcDbEntity
  8
0
  6
Continuous
 62
     7
370
    25
100
AcDbPolyline
 90
      133
 70
   128
 43
0.0
 10
1.1225
 20
1.3310008865
 10
1.1178574529
 20
1.3310561431
 10
1.1132254227
 20
1.3312217878
 10
1.1086144024
 20
1.3314974453
 10
1.1040348374
 20
1.3318824911
 10
1.0994971019
 20
1.3323760531
 10
1.0950114754
 20
1.3329770131
 10
1.0905881193
 20
1.3336840098
 10
1.0862370538
 20
1.3344954415
 10
1.0819681356
 20
1.3354094702
 10
1.0777910351
 20
1.3364240253
 10
1.0737152148
 20
1.3375368084
 10
1.0697499077
 20
1.3387452988
 10
1.0659040965
 20
1.3400467589
 10
1.0621864932
 20
1.3414382403
 10
1.0586055195
 20
1.3429165911
 10
1.0551692873
 20
1.3444784621
 10
1.0518855808
 20
1.3461203154
 10
1.0487618386
 20
1.3478384315
 10
1.0458051372
 20
1.3496289184
 10
1.0430221742
 20
1.35148772
 10
1.0404192541
 20
1.3534106256
 10
1.0380022733
 20
1.3553932791
 10
1.0357767071
 20
1.3574311893
 10
1.0337475969
 20
1.3595197395
 10
1.0319195395
 20
1.3616541987
 10
1.030296676
 20
1.3638297314
 10
1.0288826827
 20
1.3660414095
 10
1.0276807627
 20
1.3682842227
 10
1.0266936388
 20
1.3705530904
 10
1.0259235471
 20
1.3728428729
 10
1.0253722321
 20
1.3751483831
 10
1.0250409428
 20
1.3774643982
 10
1.0249304295
 20
1.3797856717
 10
1.0250409428
 20
1.3821069453
 10
1.0253722321
 20
1.3844229604
 10
1.0259235471
 20
1.3867284706
 10
1.0266936388
 20
1.389018253
 10
1.0276807627
 20
1.3912871208
 10
1.0288826827
 20
1.393529934
 10
1.030296676
 20
1.3957416121
 10
1.0319195395
 20
1.3979171448
 10
1.0337475969
 20
1.4000516039
 10
1.0357767071
 20
1.4021401542
 10
1.0380022733
 20
1.4041780644
 10
1.0404192541
 20
1.4061607179
 10
1.0430221742
 20
1.4080836235
 10
1.0458051372
 20
1.4099424251
 10
1.0487618386
 20
1.411732912
 10
1.0518855808
 20
1.4134510281
 10
1.0551692873
 20
1.4150928814
 10
1.0586055195
 20
1.4166547524
 10
1.0621864932
 20
1.4181331031
 10
1.0659040965
 20
1.4195245846
 10
1.0697499077
 20
1.4208260447
 10
1.0737152148
 20
1.4220345351
 10
1.0777910351
 20
1.4231473182
 10
1.0819681356
 20
1.4241618733
 10
1.0862370538
 20
1.425075902
 10
1.0905881193
 20
1.4258873337
 10
1.0950114754
 20
1.4265943304
 10
1.0994971019
 20
1.4271952904
 10
1.1040348374
 20
1.4276888523
 10
1.1086144024
 20
1.4280738982
 10
1.1132254227
 20
1.4283495557
 10
1.1178574529
 20
1.4285152004
 10
1.1225
 20
1.428570457
 10
1.1271425471
 20
1.4285152004
 10
1.1317745773
 20
1.4283495557
 10
1.1363855976
 20
1.4280738982
 10
1.1409651626
 20
1.4276888523
 10
1.1455028981
 20
1.4271952904
 10
1.1499885246
 20
1.4265943304
 10
1.1544118807
 20
1.4258873337
 10
1.1587629462
 20
1.425075902
 10
1.1630318644
 20
1.4241618733
 10
1.1672089649
 20
1.4231473182
 10
1.1712847852
 20
1.4220345351
 10
1.1752500923
 20
1.4208260447
 10
1.1790959035
 20
1.4195245846
 10
1.1828135068
 20
1.4181331031
 10
1.1863944805
 20
1.4166547524
 10
1.1898307127
 20
1.4150928814
 10
1.1931144192
 20
1.4134510281
 10
1.1962381614
 20
1.411732912
 10
1.1991948628
 20
1.4099424251
 10
1.2019778258
 20
1.4080836235
 10
1.2045807459
 20
1.4061607179
 10
1.2069977267
 20
1.4041780644
 10
1.2092232929
 20
1.4021401542
 10
1.2112524031
 20
1.4000516039
 10
1.2130804605
 20
1.3979171448
 10
1.214703324
 20
1.3957416121
 10
1.2161173173
 20
1.393529934
 10
1.2173192373
 20
1.3912871208
 10
1.2183063612
 20
1.389018253
 10
1.2190764529
 20
1.3867284706
 10
1.2196277679
 20
1.3844229604
 10
1.2199590572
 20
1.3821069453
 10
1.2200695705
 20
1.3797856717
 10
1.2199590572
 20
1.3774643982
 10
1.2196277679
 20
1.3751483831
 10
1.2190764529
 20
1.3728428729
 10
1.2183063612
 20
1.3705530904
 10
1.2173192373
 20
1.3682842227
 10
1.2161173173
 20
1.3660414095
 10
1.214703324
 20
1.3638297314
 10
1.2130804605
 20
1.3616541987
 10
1.2112524031
 20
1.3595197395
 10
1.2092232929
 20
1.3574311893
 10
1.2069977267
 20
1.3553932791
 10
1.2045807459
 20
1.3534106256
 10
1.2019778258
 20
1.35148772
 10
1.1991948628
 20
1.3496289184
 10
1.1962381614
 20
1.3478384315
 10
1.1931144192
 20
1.3461203154
 10
1.1898307127
 20
1.3444784621
 10
1.1863944805
 20
1.3429165911
 10
1.1828135068
 20
1.3414382403
 10
1.1790959035
 20
1.3400467589
 10
1.1752500923
 20
1.3387452988
 10
1.1712847852
 20
1.3375368084
 10
1.1672089649
 20
1.3364240253
 10
1.1630318644
 20
1.3354094702
 10
1.1587629462
 20
1.3344954415
 10
1.1544118807
 20
1.3336840098
 10
1.1499885246
 20
1.3329770131
 10
1.1455028981
 20
1.3323760531
 10
1.1409651626
 20
1.3318824911
 10
1.1363855976
 20
1.3314974453
 10
1.1317745773
 20
1.3312217878
 10
1.1271425471
 20
1.3310561431
 10
1.1225
 20
1.3310008865
  0
ARC
  5
1D6
330
23
100
AcDbEntity
  8
0
  6
Continuous
 62
     7
370
    25
100
AcDbCircle
 10
2.3231455619
 20
0.9911209854
 30
0.0
 40
0.4329945063219191
100
AcDbArc
 50
132.2627598562
 51
144.9220654829
  0
ARC
  5
1D7
330
23
100
AcDbEntity
  8
0
  6
Continuous
 62
     7
370
    25
100
AcDbCircle
 10
1.8374802229
 20
0.7396099703
 30
0.0
 40
0.5172934108587322
100
AcDbArc
 50
75.2945223148
 51
89.4439972604
  0
ARC
  5
1D8
330
23
100
AcDbEntity
  8
0
  6
Continuous
 62
     7
370
    25
100
AcDbCircle
 10
1.8581958227
 20
1.5579758501
 30
0.0
 40
0.3015056500938307
100
AcDbArc
 50
267.0159395513
 51
305.1882879527
  0
LINE
  5
1D9
330
23
100
AcDbEntity
  8
0
  6
Continuous
 62
     7
370
    25
100
AcDbLine
 10
1.7162046286
 20
1.1231863531
 30
0.0
 11
1.9687953714
 21
1.1231863531
 31
0.0
  0
LINE
  5
1DA
330
23
100
AcDbEntity
  8
0
  6
Continuous
 62
     7
370
    25
100
AcDbLine
 10
1.7162046286
 20
1.1231863531
 30
0.0
 11
1.7162046286
 21
1.2399586534
 31
0.0
  0
ARC
  5
1DB
330
23
100
AcDbEntity
  8
0
  6
Continuous
 62
     7
370
    25
100
AcDbCircle
 10
1.8477487757
 20
0.7379007015
 30
0.0
 40
0.5190048647930391
100
AcDbArc
 50
90.5794508671
 51
104.6820295577
  0
LINE
  5
1DC
330
23
100
AcDbEntity
  8
0
  6
Continuous
 62
     7
370
    25
100
AcDbLine
 10
1.9687953714
 20
1.1231863531
 30
0.0
 11
1.9687953714
 21
1.2399586534
 31
0.0
  0
ARC
  5
1DD
330
23
100
AcDbEntity
  8
0
  6
Continuous
 62
     7
370
    25
100
AcDbCircle
 10
1.3610478738
 20
0.9904097134
 30
0.0
 40
0.4340633524547485
100
AcDbArc
 50
35.0935842596
 51
47.7215904014
  0
ARC
  5
1DE
330
23
100
AcDbEntity
  8
0
  6
Continuous
 62
     7
370
    25
100
AcDbCircle
 10
1.8271798894
 20
1.5592773549
 30
0.0
 40
0.3027861553087644
100
AcDbArc
 50
234.8955320967
 51
272.9002403994
  0
ARC
  5
1DF
330
23
100
AcDbEntity
  8
0
  6
Continuous
 62
     7
370
    25
100
AcDbCircle
 10
1.9935915726
 20
1.3662540248
 30
0.0
 40
0.0667949026174775
100
AcDbArc
 50
305.0413757956
 51
54.9586242044
  0
ARC
  5
1E0
330
23
100
AcDbEntity
  8
0
  6
Continuous
 62
     7
370
    25
100
AcDbCircle
 10
1.6914084274
 20
1.3662540248
 30
0.0
 40
0.0667949026174779
100
AcDbArc
 50
125.0413757956
 51
234.9586242044
  0
ARC
  5
1E1
330
23
100
AcDbEntity
  8
0
  6
Continuous
 62
     7
370
    25
100
AcDbCircle
 10
1.8268041773
 20
1.1745321995
 30
0.0
 40
0.3015056500938332
100
AcDbArc
 50
87.0159395513
 51
125.1882879527
  0
ARC
  5
1E2
330
23
100
AcDbEntity
  8
0
  6
Continuous
 62
     7
370
    25
100
AcDbCircle
 10
1.8578201106
 20
1.1732306947
 30
0.0
 40
0.3027861553087668
100
AcDbArc
 50
54.8955320967
 51
92.9002403994
  0
LWPOLYLINE
  5
1E3
330
23
100
AcDbEntity
  8
0
  6
Continuous
 62
     7
370
    25
100
AcDbPolyline
 90
      157
 70
   128
 43
0.0
 10
1.8425
 20
1.4337540248
 10
1.8370640981
 20
1.4336992822
 10
1.8316370132
 20
1.4335351431
 10
1.8262275482
 20
1.4332618738
 10
1.8208444771
 20
1.4328799175
 10
1.8154965313
 20
1.4323898938
 10
1.8101923853
 20
1.4317925975
 10
1.8049406424
 20
1.4310889973
 10
1.7997498208
 20
1.4302802346
 10
1.7946283402
 20
1.4293676212
 10
1.7895845077
 20
1.4283526372
 10
1.7846265042
 20
1.4272369291
 10
1.7797623718
 20
1.4260223065
 10
1.775
 20
1.4247107396
 10
1.7703471135
 20
1.4233043556
 10
1.7658112592
 20
1.4218054358
 10
1.7613997943
 20
1.4202164113
 10
1.7571198743
 20
1.4185398597
 10
1.7529784411
 20
1.4167785003
 10
1.7489822123
 20
1.41493519
 10
1.7451376696
 20
1.4130129187
 10
1.741451049
 20
1.4110148042
 10
1.7379283302
 20
1.4089440877
 10
1.7345752269
 20
1.4068041276
 10
1.7313971781
 20
1.4045983952
 10
1.7283993385
 20
1.4023304681
 10
1.7255865705
 20
1.4000040248
 10
1.7229634365
 20
1.3976228389
 10
1.7205341913
 20
1.3951907727
 10
1.7183027751
 20
1.392711771
 10
1.7162728072
 20
1.3901898547
 10
1.7144475803
 20
1.3876291144
 10
1.7128300549
 20
1.3850337036
 10
1.7114228546
 20
1.3824078321
 10
1.710228262
 20
1.3797557591
 10
1.7092482145
 20
1.3770817863
 10
1.708484302
 20
1.3743902507
 10
1.7079377634
 20
1.3716855182
 10
1.7076094852
 20
1.3689719758
 10
1.7075
 20
1.3662540248
 10
1.7076094852
 20
1.3635360738
 10
1.7079377634
 20
1.3608225314
 10
1.708484302
 20
1.3581177989
 10
1.7092482145
 20
1.3554262633
 10
1.710228262
 20
1.3527522905
 10
1.7114228546
 20
1.3501002175
 10
1.7128300549
 20
1.347474346
 10
1.7144475803
 20
1.3448789352
 10
1.7162728072
 20
1.3423181949
 10
1.7183027751
 20
1.3397962786
 10
1.7205341913
 20
1.3373172769
 10
1.7229634365
 20
1.3348852107
 10
1.7255865705
 20
1.3325040248
 10
1.7283993385
 20
1.3301775815
 10
1.7313971781
 20
1.3279096544
 10
1.7345752269
 20
1.325703922
 10
1.7379283302
 20
1.323563962
 10
1.741451049
 20
1.3214932454
 10
1.7451376696
 20
1.3194951309
 10
1.7489822123
 20
1.3175728596
 10
1.7529784411
 20
1.3157295493
 10
1.7571198743
 20
1.3139681899
 10
1.7613997943
 20
1.3122916383
 10
1.7658112592
 20
1.3107026139
 10
1.7703471135
 20
1.309203694
 10
1.775
 20
1.30779731
 10
1.7797623718
 20
1.3064857431
 10
1.7846265042
 20
1.3052711205
 10
1.7895845077
 20
1.3041554124
 10
1.7946283402
 20
1.3031404284
 10
1.7997498208
 20
1.302227815
 10
1.8049406424
 20
1.3014190523
 10
1.8101923853
 20
1.3007154521
 10
1.8154965313
 20
1.3001181558
 10
1.8208444771
 20
1.2996281321
 10
1.8262275482
 20
1.2992461758
 10
1.8316370132
 20
1.2989729065
 10
1.8370640981
 20
1.2988087674
 10
1.8425
 20
1.2987540248
 10
1.8479359019
 20
1.2988087674
 10
1.8533629868
 20
1.2989729065
 10
1.8587724518
 20
1.2992461758
 10
1.8641555229
 20
1.2996281321
 10
1.8695034687
 20
1.3001181558
 10
1.8748076147
 20
1.3007154521
 10
1.8800593576
 20
1.3014190523
 10
1.8852501792
 20
1.302227815
 10
1.8903716598
 20
1.3031404284
 10
1.8954154923
 20
1.3041554124
 10
1.9003734958
 20
1.3052711205
 10
1.9052376282
 20
1.3064857431
 10
1.91
 20
1.30779731
 10
1.9146528865
 20
1.309203694
 10
1.9191887408
 20
1.3107026139
 10
1.9236002057
 20
1.3122916383
 10
1.9278801257
 20
1.3139681899
 10
1.9320215589
 20
1.3157295493
 10
1.9360177877
 20
1.3175728596
 10
1.9398623304
 20
1.3194951309
 10
1.943548951
 20
1.3214932454
 10
1.9470716698
 20
1.323563962
 10
1.9504247731
 20
1.325703922
 10
1.9536028219
 20
1.3279096544
 10
1.9566006615
 20
1.3301775815
 10
1.9594134295
 20
1.3325040248
 10
1.9620365635
 20
1.3348852107
 10
1.9644658087
 20
1.3373172769
 10
1.9666972249
 20
1.3397962786
 10
1.9687271928
 20
1.3423181949
 10
1.9705524197
 20
1.3448789352
 10
1.9721699451
 20
1.347474346
 10
1.9735771454
 20
1.3501002175
 10
1.974771738
 20
1.3527522905
 10
1.9757517855
 20
1.3554262633
 10
1.976515698
 20
1.3581177989
 10
1.9770622366
 20
1.3608225314
 10
1.9773905148
 20
1.3635360738
 10
1.9775
 20
1.3662540248
 10
1.9773905148
 20
1.3689719758
 10
1.9770622366
 20
1.3716855182
 10
1.976515698
 20
1.3743902507
 10
1.9757517855
 20
1.3770817863
 10
1.974771738
 20
1.3797557591
 10
1.9735771454
 20
1.3824078321
 10
1.9721699451
 20
1.3850337036
 10
1.9705524197
 20
1.3876291144
 10
1.9687271928
 20
1.3901898547
 10
1.9666972249
 20
1.392711771
 10
1.9644658087
 20
1.3951907727
 10
1.9620365635
 20
1.3976228389
 10
1.9594134295
 20
1.4000040248
 10
1.9566006615
 20
1.4023304681
 10
1.9536028219
 20
1.4045983952
 10
1.9504247731
 20
1.4068041276
 10
1.9470716698
 20
1.4089440877
 10
1.943548951
 20
1.4110148042
 10
1.9398623304
 20
1.4130129187
 10
1.9360177877
 20
1.41493519
 10
1.9320215589
 20
1.4167785003
 10
1.9278801257
 20
1.4185398597
 10
1.9236002057
 20
1.4202164113
 10
1.9191887408
 20
1.4218054358
 10
1.9146528865
 20
1.4233043556
 10
1.91
 20
1.4247107396
 10
1.9052376282
 20
1.4260223065
 10
1.9003734958
 20
1.4272369291
 10
1.8954154923
 20
1.4283526372
 10
1.8903716598
 20
1.4293676212
 10
1.8852501792
 20
1.4302802346
 10
1.8800593576
 20
1.4310889973
 10
1.8748076147
 20
1.4317925975
 10
1.8695034687
 20
1.4323898938
 10
1.8641555229
 20
1.4328799175
 10
1.8587724518
 20
1.4332618738
 10
1.8533629868
 20
1.4335351431
 10
1.8479359019
 20
1.4336992822
 10
1.8425
 20
1.4337540248
  0
LWPOLYLINE
  5
1E4
330
23
100
AcDbEntity
  8
0
  6
Continuous
 62
     7
370
    25
100
AcDbPolyline
 90
      118
 70
   128
 43
0.0
 10
1.545625
 20
1.1632793208
 10
1.5456318637
 20
1.1622699559
 10
1.5457965764
 20
1.1582334299
 10
1.5461807876
 20
1.1542006368
 10
1.5467842131
 20
1.15017456
 10
1.5476064065
 20
1.1461581779
 10
1.5486467594
 20
1.142154462
 10
1.5499045024
 20
1.138166374
 10
1.5513787048
 20
1.1341968644
 10
1.5530682761
 20
1.1302488697
 10
1.5549719663
 20
1.1263253106
 10
1.5570883672
 20
1.1224290897
 10
1.5594159131
 20
1.1185630895
 10
1.5619528819
 20
1.11473017
 10
1.564697397
 20
1.1109331667
 10
1.567647428
 20
1.1071748885
 10
1.5708007923
 20
1.103458116
 10
1.5741551573
 20
1.0997855986
 10
1.5777080414
 20
1.0961600533
 10
1.5814568161
 20
1.0925841622
 10
1.5853987083
 20
1.0890605708
 10
1.5895308016
 20
1.0855918857
 10
1.5938500392
 20
1.0821806731
 10
1.5983532259
 20
1.0788294565
 10
1.6030370301
 20
1.0755407152
 10
1.6078979868
 20
1.0723168821
 10
1.6129325
 20
1.0691603422
 10
1.6181368451
 20
1.0660734306
 10
1.6235071721
 20
1.0630584311
 10
1.6290395079
 20
1.0601175741
 10
1.6347297599
 20
1.0572530352
 10
1.6405737185
 20
1.0544669336
 10
1.6465670602
 20
1.0517613304
 10
1.6527053514
 20
1.0491382272
 10
1.658984051
 20
1.0465995645
 10
1.6653985139
 20
1.0441472205
 10
1.671943995
 20
1.0417830093
 10
1.6786156518
 20
1.03950868
 10
1.6854085488
 20
1.0373259151
 10
1.6923176606
 20
1.0352363294
 10
1.699337876
 20
1.0332414687
 10
1.7064640014
 20
1.0313428089
 10
1.7136907649
 20
1.0295417545
 10
1.7210128204
 20
1.0278396379
 10
1.728424751
 20
1.0262377183
 10
1.7359210735
 20
1.0247371809
 10
1.743496242
 20
1.0233391358
 10
1.7511446527
 20
1.0220446171
 10
1.7588606472
 20
1.0208545825
 10
1.7666385173
 20
1.0197699125
 10
1.7744725091
 20
1.0187914094
 10
1.782356827
 20
1.0179197972
 10
1.7902856383
 20
1.0171557207
 10
1.7982530772
 20
1.016499745
 10
1.8062532497
 20
1.0159523556
 10
1.8142802371
 20
1.0155139573
 10
1.8223281013
 20
1.0151848745
 10
1.8303908885
 20
1.0149653506
 10
1.8384626339
 20
1.014855548
 10
1.8465373661
 20
1.014855548
 10
1.8546091115
 20
1.0149653506
 10
1.8626718987
 20
1.0151848745
 10
1.8707197629
 20
1.0155139573
 10
1.8787467503
 20
1.0159523556
 10
1.8867469228
 20
1.016499745
 10
1.8947143617
 20
1.0171557207
 10
1.902643173
 20
1.0179197972
 10
1.9105274909
 20
1.0187914094
 10
1.9183614827
 20
1.0197699125
 10
1.9261393528
 20
1.0208545825
 10
1.9338553473
 20
1.0220446171
 10
1.941503758
 20
1.0233391358
 10
1.9490789265
 20
1.0247371809
 10
1.956575249
 20
1.0262377183
 10
1.9639871796
 20
1.0278396379
 10
1.9713092351
 20
1.0295417545
 10
1.9785359986
 20
1.0313428089
 10
1.985662124
 20
1.0332414687
 10
1.9926823394
 20
1.0352363294
 10
1.9995914512
 20
1.0373259151
 10
2.0063843482
 20
1.03950868
 10
2.013056005
 20
1.0417830093
 10
2.0196014861
 20
1.0441472205
 10
2.026015949
 20
1.0465995645
 10
2.0322946486
 20
1.0491382272
 10
2.0384329398
 20
1.0517613304
 10
2.0444262815
 20
1.0544669336
 10
2.0502702401
 20
1.0572530352
 10
2.0559604921
 20
1.0601175741
 10
2.0614928279
 20
1.0630584311
 10
2.0668631549
 20
1.0660734306
 10
2.0720675
 20
1.0691603422
 10
2.0771020132
 20
1.0723168821
 10
2.0819629699
 20
1.0755407152
 10
2.0866467741
 20
1.0788294565
 10
2.0911499608
 20
1.0821806731
 10
2.0954691984
 20
1.0855918857
 10
2.0996012917
 20
1.0890605708
 10
2.1035431839
 20
1.0925841622
 10
2.1072919586
 20
1.0961600533
 10
2.1108448427
 20
1.0997855986
 10
2.1141992077
 20
1.103458116
 10
2.117352572
 20
1.1071748885
 10
2.120302603
 20
1.1109331667
 10
2.1230471181
 20
1.11473017
 10
2.1255840869
 20
1.1185630895
 10
2.1279116328
 20
1.1224290897
 10
2.1300280337
 20
1.1263253106
 10
2.1319317239
 20
1.1302488697
 10
2.1336212952
 20
1.1341968644
 10
2.1350954976
 20
1.138166374
 10
2.1363532406
 20
1.142154462
 10
2.1373935935
 20
1.1461581779
 10
2.1382157869
 20
1.15017456
 10
2.1388192124
 20
1.1542006368
 10
2.1392034236
 20
1.1582334299
 10
2.1393681363
 20
1.1622699559
 10
2.139375
 20
1.1632793208
  0
LWPOLYLINE
  5
1E5
330
23
100
AcDbEntity
  8
0
  6
Continuous
 62
     7
370
    25
100
AcDbPolyline
 90
       80
 70
   128
 43
0.0
 10
1.8425
 20
1.0841238531
 10
1.8344260145
 20
1.0841787595
 10
1.8263580021
 20
1.0843434379
 10
1.8183019314
 20
1.0846177666
 10
1.8102637623
 20
1.0850015427
 10
1.8022494412
 20
1.0854944821
 10
1.794264897
 20
1.0860962203
 10
1.7863160368
 20
1.0868063121
 10
1.778408741
 20
1.0876242321
 10
1.7705488593
 20
1.0885493753
 10
1.7627422064
 20
1.0895810573
 10
1.7549945576
 20
1.0907185147
 10
1.7473116445
 20
1.0919609063
 10
1.7396991509
 20
1.0933073127
 10
1.7321627085
 20
1.094756738
 10
1.7247078925
 20
1.09630811
 10
1.7173402182
 20
1.0979602808
 10
1.7100651358
 20
1.0997120283
 10
1.7028880276
 20
1.1015620565
 10
1.6958142031
 20
1.1035089969
 10
1.6888488953
 20
1.1055514089
 10
1.6819972573
 20
1.1076877818
 10
1.6752643578
 20
1.109916535
 10
1.6686551776
 20
1.1122360198
 10
1.6621746063
 20
1.1146445201
 10
1.6558274381
 20
1.1171402542
 10
1.6496183685
 20
1.1197213759
 10
1.643551991
 20
1.1223859755
 10
1.6376327935
 20
1.1251320818
 10
1.6318651548
 20
1.1279576634
 10
1.6262533419
 20
1.1308606298
 10
1.6208015063
 20
1.1338388335
 10
1.6155136813
 20
1.1368900712
 10
1.6103937786
 20
1.1400120856
 10
1.6054455861
 20
1.1432025672
 10
1.6006727642
 20
1.1464591556
 10
1.596078844
 20
1.1497794416
 10
1.5916672239
 20
1.1531609689
 10
1.5874411676
 20
1.1566012359
 10
1.5834038015
 20
1.1600976975
 10
1.5795581124
 20
1.1636477671
 10
1.5759069453
 20
1.1672488183
 10
1.5724530014
 20
1.1708981871
 10
1.5691988358
 20
1.1745931738
 10
1.5661468559
 20
1.1783310448
 10
1.5632993195
 20
1.1821090349
 10
1.5606583333
 20
1.1859243492
 10
1.558225851
 20
1.1897741651
 10
1.5560036721
 20
1.1936556345
 10
1.5539934407
 20
1.1975658861
 10
1.5521966437
 20
1.201502027
 10
1.5506146105
 20
1.2054611453
 10
1.5492485115
 20
1.2094403121
 10
1.5480993573
 20
1.2134365836
 10
1.5471679981
 20
1.2174470035
 10
1.5464551227
 20
1.2214686048
 10
1.5459612587
 20
1.2254984125
 10
1.5456867713
 20
1.2295334452
 10
1.5456318637
 20
1.233570718
 10
1.5457965764
 20
1.237607244
 10
1.5461807876
 20
1.2416400371
 10
1.5467842131
 20
1.2456661139
 10
1.5476064065
 20
1.2496824959
 10
1.5486467594
 20
1.2536862119
 10
1.5499045024
 20
1.2576742999
 10
1.5513787048
 20
1.2616438095
 10
1.5530682761
 20
1.2655918042
 10
1.5549719663
 20
1.2695153633
 10
1.5570883672
 20
1.2734115841
 10
1.5594159131
 20
1.2772775844
 10
1.5619528819
 20
1.2811105039
 10
1.564697397
 20
1.2849075072
 10
1.567647428
 20
1.2886657853
 10
1.5708007923
 20
1.2923825579
 10
1.5741551573
 20
1.2960550753
 10
1.5777080414
 20
1.2996806206
 10
1.5814568161
 20
1.3032565117
 10
1.5853987083
 20
1.3067801031
 10
1.5895308016
 20
1.3102487882
 10
1.5899092572
 20
1.3105560361
  0
LWPOLYLINE
  5
1E6
330
23
100
AcDbEntity
  8
0
  6
Continuous
 62
     7
370
    25
100
AcDbPolyline
 90
       80
 70
   128
 43
0.0
 10
2.0950907428
 20
1.3105560361
 10
2.0954691984
 20
1.3102487882
 10
2.0996012917
 20
1.3067801031
 10
2.1035431839
 20
1.3032565117
 10
2.1072919586
 20
1.2996806206
 10
2.1108448427
 20
1.2960550753
 10
2.1141992077
 20
1.2923825579
 10
2.117352572
 20
1.2886657853
 10
2.120302603
 20
1.2849075072
 10
2.1230471181
 20
1.2811105039
 10
2.1255840869
 20
1.2772775844
 10
2.1279116328
 20
1.2734115841
 10
2.1300280337
 20
1.2695153633
 10
2.1319317239
 20
1.2655918042
 10
2.1336212952
 20
1.2616438095
 10
2.1350954976
 20
1.2576742999
 10
2.1363532406
 20
1.2536862119
 10
2.1373935935
 20
1.2496824959
 10
2.1382157869
 20
1.2456661139
 10
2.1388192124
 20
1.2416400371
 10
2.1392034236
 20
1.237607244
 10
2.1393681363
 20
1.233570718
 10
2.1393132287
 20
1.2295334452
 10
2.1390387413
 20
1.2254984125
 10
2.1385448773
 20
1.2214686048
 10
2.1378320019
 20
1.2174470035
 10
2.1369006427
 20
1.2134365836
 10
2.1357514885
 20
1.2094403121
 10
2.1343853895
 20
1.2054611453
 10
2.1328033563
 20
1.201502027
 10
2.1310065593
 20
1.1975658861
 10
2.1289963279
 20
1.1936556345
 10
2.126774149
 20
1.1897741651
 10
2.1243416667
 20
1.1859243492
 10
2.1217006805
 20
1.1821090349
 10
2.1188531441
 20
1.1783310448
 10
2.1158011642
 20
1.1745931738
 10
2.1125469986
 20
1.1708981871
 10
2.1090930547
 20
1.1672488183
 10
2.1054418876
 20
1.1636477671
 10
2.1015961985
 20
1.1600976975
 10
2.0975588324
 20
1.1566012359
 10
2.0933327761
 20
1.1531609689
 10
2.088921156
 20
1.1497794416
 10
2.0843272358
 20
1.1464591556
 10
2.0795544139
 20
1.1432025672
 10
2.0746062214
 20
1.1400120856
 10
2.0694863187
 20
1.1368900712
 10
2.0641984937
 20
1.1338388335
 10
2.0587466581
 20
1.1308606298
 10
2.0531348452
 20
1.1279576634
 10
2.0473672065
 20
1.1251320818
 10
2.041448009
 20
1.1223859755
 10
2.0353816315
 20
1.1197213759
 10
2.0291725619
 20
1.1171402542
 10
2.0228253937
 20
1.1146445201
 10
2.0163448224
 20
1.1122360198
 10
2.0097356422
 20
1.109916535
 10
2.0030027427
 20
1.1076877818
 10
1.9961511047
 20
1.1055514089
 10
1.9891857969
 20
1.1035089969
 10
1.9821119724
 20
1.1015620565
 10
1.9749348642
 20
1.0997120283
 10
1.9676597818
 20
1.0979602808
 10
1.9602921075
 20
1.09630811
 10
1.9528372915
 20
1.094756738
 10
1.9453008491
 20
1.0933073127
 10
1.9376883555
 20
1.0919609063
 10
1.9300054424
 20
1.0907185147
 10
1.9222577936
 20
1.0895810573
 10
1.9144511407
 20
1.0885493753
 10
1.906591259
 20
1.0876242321
 10
1.8986839632
 20
1.0868063121
 10
1.890735103
 20
1.0860962203
 10
1.8827505588
 20
1.0854944821
 10
1.8747362377
 20
1.0850015427
 10
1.8666980686
 20
1.0846177666
 10
1.8586419979
 20
1.0843434379
 10
1.8505739855
 20
1.0841787595
 10
1.8425
 20
1.0841238531
  0
LINE
  5
1E7
330
23
100
AcDbEntity
  8
0
  6
Continuous
 62
     7
370
    25
100
AcDbLine
 10
1.5899092572
 20
1.2325613531
 30
0.0
 11
1.7162046286
 21
1.1231863531
 31
0.0
  0
LINE
  5
1E8
330
23
100
AcDbEntity
  8
0
  6
Continuous
 62
     7
370
    25
100
AcDbLine
 10
1.9687953714
 20
1.1231863531
 30
0.0
 11
2.0950907428
 21
1.2325613531
 31
0.0
  0
ARC
  5
1E9
330
23
100
AcDbEntity
  8
0
  6
Continuous
 62
     7
370
    25
100
AcDbCircle
 10
2.1640954193
 20
1.1622800173
 30
0.0
 40
0.1993757963205482
100
AcDbArc
 50
110.2491768511
 51
131.5161030849
  0
LINE
  5
1EA
330
23
100
AcDbEntity
  8
0
  6
Continuous
 62
     7
370
    25
100
AcDbLine
 10
2.0950907428
 20
1.2325613531
 30
0.0
 11
2.0950907428
 21
1.3493336534
 31
0.0
  0
LINE
  5
1EB
330
23
100
AcDbEntity
  8
0
  6
Continuous
 62
     7
370
    25
100
AcDbLine
 10
1.5899092572
 20
1.2325613531
 30
0.0
 11
1.5899092572
 21
1.3493336534
 31
0.0
  0
ARC
  5
1EC
330
23
100
AcDbEntity
  8
0
  6
Continuous
 62
     7
370
    25
100
AcDbCircle
 10
1.5206346108
 20
1.1618286203
 30
0.0
 40
0.199892756461296
100
AcDbArc
 50
48.51171592
 51
69.723004144
  0
ARC
  5
1ED
330
23
100
AcDbEntity
  8
0
  6
Continuous
 62
     7
370
    25
100
AcDbCircle
 10
1.7407405523
 20
1.1004959854
 30
0.0
 40
0.4329945063225772
100
AcDbArc
 50
35.0779345172
 51
47.7372401438
  0
ARC
  5
1EE
330
23
100
AcDbEntity
  8
0
  6
Continuous
 62
     7
370
    25
100
AcDbCircle
 10
1.9450660121
 20
1.0997847134
 30
0.0
 40
0.4340633524547068
100
AcDbArc
 50
132.2784095986
 51
144.9064157404
  0
ARC
  5
1EF
330
23
100
AcDbEntity
  8
0
  6
Continuous
 62
     7
370
    25
100
AcDbCircle
 10
1.8375097347
 20
0.9585802491
 30
0.0
 40
0.5170728567819064
100
AcDbArc
 50
75.2914891907
 51
89.4470303844
  0
ARC
  5
1F0
330
23
100
AcDbEntity
  8
0
  6
Continuous
 62
     7
370
    25
100
AcDbCircle
 10
1.8997906948
 20
1.2716550173
 30
0.0
 40
0.1993757963205406
100
AcDbArc
 50
48.4838969151
 51
69.7508231489
  0
ARC
  5
1F1
330
23
100
AcDbEntity
  8
0
  6
Continuous
 62
     7
370
    25
100
AcDbCircle
 10
1.8477755659
 20
0.9564507367
 30
0.0
 40
0.5192050909549744
100
AcDbArc
 50
90.5821839292
 51
104.6792964957
  0
ARC
  5
1F2
330
23
100
AcDbEntity
  8
0
  6
Continuous
 62
     7
370
    25
100
AcDbCircle
 10
1.785479275
 20
1.2712036203
 30
0.0
 40
0.1998927564613137
100
AcDbArc
 50
110.276995856
 51
131.48828408
  0
ARC
  5
1F3
330
23
100
AcDbEntity
  8
0
  6
Continuous
 62
     8
370
    25
100
AcDbCircle
 10
1.8425
 20
1.1248041066
 30
0.0
 40
0.6030373405447265
100
AcDbArc
 50
258.3494821841
 51
281.6505178159
  0
LWPOLYLINE
  5
1F4
330
23
100
AcDbEntity
  8
0
  6
Continuous
 62
     8
370
    25
100
AcDbPolyline
 90
      120
 70
   128
 43
0.0
 10
1.53
 20
0.3494319476
 10
1.530109814
 20
0.3452900374
 10
1.5304391787
 20
0.3411510383
 10
1.5309878628
 20
0.337017859
 10
1.5317554806
 20
0.3328934045
 10
1.5327414925
 20
0.3287805734
 10
1.5339452056
 20
0.3246822563
 10
1.535365774
 20
0.3206013335
 10
1.5370021993
 20
0.3165406731
 10
1.5388533312
 20
0.3125031291
 10
1.540917869
 20
0.3084915389
 10
1.5431943615
 20
0.3045087221
 10
1.5456812088
 20
0.3005574777
 10
1.5483766632
 20
0.2966405828
 10
1.5512788303
 20
0.2927607902
 10
1.5543856704
 20
0.2889208265
 10
1.557695
 20
0.2851233907
 10
1.5612044932
 20
0.2813711515
 10
1.5649116835
 20
0.2776667461
 10
1.5688139656
 20
0.274012778
 10
1.5729085968
 20
0.2704118152
 10
1.5771926993
 20
0.2668663885
 10
1.5816632624
 20
0.2633789896
 10
1.586317144
 20
0.2599520695
 10
1.5911510734
 20
0.2565880368
 10
1.5961616531
 20
0.2532892557
 10
1.6013453618
 20
0.2500580445
 10
1.6066985562
 20
0.2468966743
 10
1.6122174741
 20
0.2438073668
 10
1.6178982368
 20
0.2407922933
 10
1.6237368517
 20
0.2378535727
 10
1.6297292154
 20
0.2349932705
 10
1.6358711165
 20
0.2322133969
 10
1.6421582383
 20
0.2295159056
 10
1.6485861621
 20
0.2269026924
 10
1.6551503705
 20
0.224375594
 10
1.6618462499
 20
0.2219363863
 10
1.6686690945
 20
0.2195867837
 10
1.6756141092
 20
0.2173284376
 10
1.6826764128
 20
0.215162935
 10
1.6898510419
 20
0.213091798
 10
1.6971329542
 20
0.2111164821
 10
1.7045170318
 20
0.2092383756
 10
1.7119980852
 20
0.2074587985
 10
1.7195708565
 20
0.2057790015
 10
1.7272300236
 20
0.2042001651
 10
1.7349702035
 20
0.202723399
 10
1.7427859564
 20
0.2013497411
 10
1.7506717893
 20
0.2000801567
 10
1.7586221599
 20
0.1989155382
 10
1.7666314806
 20
0.1978567041
 10
1.7746941225
 20
0.1969043985
 10
1.7828044189
 20
0.1960592906
 10
1.79095667
 20
0.1953219746
 10
1.7991451463
 20
0.1946929684
 10
1.8073640927
 20
0.1941727144
 10
1.815607733
 20
0.1937615779
 10
1.8238702734
 20
0.1934598481
 10
1.832145907
 20
0.1932677369
 10
1.8404288175
 20
0.1931853795
 10
1.8487131836
 20
0.1932128336
 10
1.8569931831
 20
0.1933500799
 10
1.8652629967
 20
0.1935970221
 10
1.8735168122
 20
0.1939534866
 10
1.8817488287
 20
0.1944192227
 10
1.8899532609
 20
0.1949939033
 10
1.8981243424
 20
0.1956771245
 10
1.9062563306
 20
0.1964684059
 10
1.9143435103
 20
0.1973671916
 10
1.9223801976
 20
0.1983728499
 10
1.9303607444
 20
0.1994846739
 10
1.9382795419
 20
0.2007018822
 10
1.9461310245
 20
0.2020236195
 10
1.9539096744
 20
0.2034489567
 10
1.9616100244
 20
0.2049768922
 10
1.9692266628
 20
0.2066063521
 10
1.9767542364
 20
0.2083361911
 10
1.984187455
 20
0.2101651936
 10
1.9915210942
 20
0.212092074
 10
1.99875
 20
0.2141154782
 10
2.0058690918
 20
0.2162339842
 10
2.0128733663
 20
0.2184461029
 10
2.0197579008
 20
0.2207502797
 10
2.0265178567
 20
0.2231448952
 10
2.0331484831
 20
0.2256282664
 10
2.03964512
 20
0.2281986481
 10
2.0460032014
 20
0.2308542336
 10
2.0522182589
 20
0.2335931567
 10
2.0582859243
 20
0.2364134924
 10
2.0642019334
 20
0.2393132585
 10
2.0699621282
 20
0.2422904171
 10
2.0755624606
 20
0.2453428758
 10
2.0809989944
 20
0.2484684892
 10
2.0862679088
 20
0.2516650608
 10
2.0913655009
 20
0.2549303438
 10
2.0962881879
 20
0.2582620434
 10
2.1010325102
 20
0.2616578182
 10
2.1055951334
 20
0.2651152814
 10
2.1099728508
 20
0.2686320031
 10
2.1141625858
 20
0.2722055119
 10
2.1181613937
 20
0.2758332961
 10
2.1219664642
 20
0.2795128061
 10
2.125575123
 20
0.283241456
 10
2.128984834
 20
0.2870166251
 10
2.1321932006
 20
0.2908356604
 10
2.1351979682
 20
0.2946958777
 10
2.1379970249
 20
0.298594564
 10
2.1405884034
 20
0.3025289793
 10
2.1429702826
 20
0.3064963584
 10
2.1451409884
 20
0.3104939131
 10
2.1470989953
 20
0.3145188338
 10
2.1488429271
 20
0.3185682918
 10
2.1503715582
 20
0.322639441
 10
2.1516838143
 20
0.3267294203
 10
2.152778773
 20
0.3308353551
 10
2.1536556649
 20
0.3349543598
 10
2.1543138736
 20
0.3390835395
 10
2.1547529366
 20
0.3432199921
 10
2.1549725453
 20
0.3473608106
 10
2.155
 20
0.3494319476
  0
ARC
  5
1F5
330
23
100
AcDbEntity
  8
0
  6
Continuous
 62
     8
370
    25
100
AcDbCircle
 10
1.1225
 20
1.1248041066
 30
0.0
 40
0.603037340544732
100
AcDbArc
 50
258.3494821841
 51
281.6505178159
  0
LWPOLYLINE
  5
1F6
330
23
100
AcDbEntity
  8
0
  6
Continuous
 62
     8
370
    25
100
AcDbPolyline
 90
      120
 70
   128
 43
0.0
 10
0.81
 20
0.3494319476
 10
0.810109814
 20
0.3452900374
 10
0.8104391787
 20
0.3411510383
 10
0.8109878628
 20
0.337017859
 10
0.8117554806
 20
0.3328934045
 10
0.8127414925
 20
0.3287805734
 10
0.8139452056
 20
0.3246822563
 10
0.815365774
 20
0.3206013335
 10
0.8170021993
 20
0.3165406731
 10
0.8188533312
 20
0.3125031291
 10
0.820917869
 20
0.3084915389
 10
0.8231943615
 20
0.3045087221
 10
0.8256812088
 20
0.3005574777
 10
0.8283766632
 20
0.2966405828
 10
0.8312788303
 20
0.2927607902
 10
0.8343856704
 20
0.2889208265
 10
0.837695
 20
0.2851233907
 10
0.8412044932
 20
0.2813711515
 10
0.8449116835
 20
0.2776667461
 10
0.8488139656
 20
0.274012778
 10
0.8529085968
 20
0.2704118152
 10
0.8571926993
 20
0.2668663885
 10
0.8616632624
 20
0.2633789896
 10
0.866317144
 20
0.2599520695
 10
0.8711510734
 20
0.2565880368
 10
0.8761616531
 20
0.2532892557
 10
0.8813453618
 20
0.2500580445
 10
0.8866985562
 20
0.2468966743
 10
0.8922174741
 20
0.2438073668
 10
0.8978982368
 20
0.2407922933
 10
0.9037368517
 20
0.2378535727
 10
0.9097292154
 20
0.2349932705
 10
0.9158711165
 20
0.2322133969
 10
0.9221582383
 20
0.2295159056
 10
0.9285861621
 20
0.2269026924
 10
0.9351503705
 20
0.224375594
 10
0.9418462499
 20
0.2219363863
 10
0.9486690945
 20
0.2195867837
 10
0.9556141092
 20
0.2173284376
 10
0.9626764128
 20
0.215162935
 10
0.9698510419
 20
0.213091798
 10
0.9771329542
 20
0.2111164821
 10
0.9845170318
 20
0.2092383756
 10
0.9919980852
 20
0.2074587985
 10
0.9995708565
 20
0.2057790015
 10
1.0072300236
 20
0.2042001651
 10
1.0149702035
 20
0.202723399
 10
1.0227859564
 20
0.2013497411
 10
1.0306717893
 20
0.2000801567
 10
1.0386221599
 20
0.1989155382
 10
1.0466314806
 20
0.1978567041
 10
1.0546941225
 20
0.1969043985
 10
1.0628044189
 20
0.1960592906
 10
1.07095667
 20
0.1953219746
 10
1.0791451463
 20
0.1946929684
 10
1.0873640927
 20
0.1941727144
 10
1.095607733
 20
0.1937615779
 10
1.1038702734
 20
0.1934598481
 10
1.112145907
 20
0.1932677369
 10
1.1204288175
 20
0.1931853795
 10
1.1287131836
 20
0.1932128336
 10
1.1369931831
 20
0.1933500799
 10
1.1452629967
 20
0.1935970221
 10
1.1535168122
 20
0.1939534866
 10
1.1617488287
 20
0.1944192227
 10
1.1699532609
 20
0.1949939033
 10
1.1781243424
 20
0.1956771245
 10
1.1862563306
 20
0.1964684059
 10
1.1943435103
 20
0.1973671916
 10
1.2023801976
 20
0.1983728499
 10
1.2103607444
 20
0.1994846739
 10
1.2182795419
 20
0.2007018822
 10
1.2261310245
 20
0.2020236195
 10
1.2339096744
 20
0.2034489567
 10
1.2416100244
 20
0.2049768922
 10
1.2492266628
 20
0.2066063521
 10
1.2567542364
 20
0.2083361911
 10
1.264187455
 20
0.2101651936
 10
1.2715210942
 20
0.212092074
 10
1.27875
 20
0.2141154782
 10
1.2858690918
 20
0.2162339842
 10
1.2928733663
 20
0.2184461029
 10
1.2997579008
 20
0.2207502797
 10
1.3065178567
 20
0.2231448952
 10
1.3131484831
 20
0.2256282664
 10
1.31964512
 20
0.2281986481
 10
1.3260032014
 20
0.2308542336
 10
1.3322182589
 20
0.2335931567
 10
1.3382859243
 20
0.2364134924
 10
1.3442019334
 20
0.2393132585
 10
1.3499621282
 20
0.2422904171
 10
1.3555624606
 20
0.2453428758
 10
1.3609989944
 20
0.2484684892
 10
1.3662679088
 20
0.2516650608
 10
1.3713655009
 20
0.2549303438
 10
1.3762881879
 20
0.2582620434
 10
1.3810325102
 20
0.2616578182
 10
1.3855951334
 20
0.2651152814
 10
1.3899728508
 20
0.2686320031
 10
1.3941625858
 20
0.2722055119
 10
1.3981613937
 20
0.2758332961
 10
1.4019664642
 20
0.2795128061
 10
1.405575123
 20
0.283241456
 10
1.408984834
 20
0.2870166251
 10
1.4121932006
 20
0.2908356604
 10
1.4151979682
 20
0.2946958777
 10
1.4179970249
 20
0.298594564
 10
1.4205884034
 20
0.3025289793
 10
1.4229702826
 20
0.3064963584
 10
1.4251409884
 20
0.3104939131
 10
1.4270989953
 20
0.3145188338
 10
1.4288429271
 20
0.3185682918
 10
1.4303715582
 20
0.322639441
 10
1.4316838143
 20
0.3267294203
 10
1.432778773
 20
0.3308353551
 10
1.4336556649
 20
0.3349543598
 10
1.4343138736
 20
0.3390835395
 10
1.4347529366
 20
0.3432199921
 10
1.4349725453
 20
0.3473608106
 10
1.435
 20
0.3494319476
  0
ARC
  5
1F7
330
23
100
AcDbEntity
  8
0
  6
Continuous
 62
     8
370
    25
100
AcDbCircle
 10
1.3618042448
 20
0.3480376104
 30
0.0
 40
0.0882067966002102
100
AcDbArc
 50
0.9065724353
 51
33.9197580467
  0
ARC
  5
1F8
330
23
100
AcDbEntity
  8
0
  6
Continuous
 62
     8
370
    25
100
AcDbCircle
 10
2.0818042448
 20
0.3480376104
 30
0.0
 40
0.0882067966002062
100
AcDbArc
 50
0.9065724353
 51
33.9197580467
  0
ENDBLK
  5
25
330
23
100
AcDbEntity
  8
0
100
AcDbBlockEnd
  0
BLOCK
  5
1FB
330
1F9
100
AcDbEntity
  8
0
100
AcDbBlockBegin
  2
*Paper_Space1
 70
     0
 10
0.0
 20
0.0
 30
0.0
  3
*Paper_Space1
  1

  0
LINE
  5
1FD
330
1F9
100
AcDbEntity
  8
0
  6
Continuous
 62
     7
370
    25
100
AcDbLine
 10
1.57625
 20
0.7895
 30
0.0
 11
1.7540396533
 21
0.7895
 31
0.0
  0
LINE
  5
1FE
330
1F9
100
AcDbEntity
  8
0
  6
Continuous
 62
     7
370
    25
100
AcDbLine
 10
1.7540396533
 20
1.4555
 30
0.0
 11
1.57625
 21
1.4555
 31
0.0
  0
LINE
  5
1FF
330
1F9
100
AcDbEntity
  8
0
  6
Continuous
 62
     7
370
    25
100
AcDbLine
 10
1.8359603467
 20
0.7895
 30
0.0
 11
2.01125
 21
0.7895
 31
0.0
  0
LINE
  5
200
330
1F9
100
AcDbEntity
  8
0
  6
Continuous
 62
     7
370
    25
100
AcDbLine
 10
2.01125
 20
1.4555
 30
0.0
 11
1.8359603467
 21
1.4555
 31
0.0
  0
ARC
  5
201
330
1F9
100
AcDbEntity
  8
0
  6
Continuous
 62
     7
370
    25
100
AcDbCircle
 10
1.795
 20
0.231
 30
0.0
 40
0.5599999999999989
100
AcDbArc
 50
85.8054417036
 51
94.1945582964
  0
ARC
  5
202
330
1F9
100
AcDbEntity
  8
0
  6
Continuous
 62
     7
370
    25
100
AcDbCircle
 10
1.795
 20
2.014
 30
0.0
 40
0.5600000000000012
100
AcDbArc
 50
265.8054417037
 51
274.1945582964
  0
LINE
  5
203
330
1F9
100
AcDbEntity
  8
0
  6
Continuous
 62
     7
370
    25
100
AcDbLine
 10
2.01125
 20
0.8865
 30
0.0
 11
2.04375
 21
0.8865
 31
0.0
  0
LINE
  5
204
330
1F9
100
AcDbEntity
  8
0
  6
Continuous
 62
     7
370
    25
100
AcDbLine
 10
2.04375
 20
1.3585
 30
0.0
 11
2.01125
 21
1.3585
 31
0.0
  0
LINE
  5
205
330
1F9
100
AcDbEntity
  8
0
  6
Continuous
 62
     7
370
    25
100
AcDbLine
 10
1.54625
 20
0.8865
 30
0.0
 11
1.57625
 21
0.8865
 31
0.0
  0
LINE
  5
206
330
1F9
100
AcDbEntity
  8
0
  6
Continuous
 62
     7
370
    25
100
AcDbLine
 10
1.57625
 20
1.3585
 30
0.0
 11
1.54625
 21
1.3585
 31
0.0
  0
LINE
  5
207
330
1F9
100
AcDbEntity
  8
0
  6
Continuous
 62
     7
370
    25
100
AcDbLine
 10
2.05
 20
1.9409251969
 30
0.0
 11
2.04375
 21
1.9409251969
 31
0.0
  0
LINE
  5
208
330
1F9
100
AcDbEntity
  8
0
  6
Continuous
 62
     7
370
    25
100
AcDbLine
 10
1.54625
 20
1.9409251969
 30
0.0
 11
1.54
 21
1.9409251969
 31
0.0
  0
LINE
  5
209
330
1F9
100
AcDbEntity
  8
0
  6
Continuous
 62
     7
370
    25
100
AcDbLine
 10
1.54
 20
1.7440748031
 30
0.0
 11
1.54625
 21
1.7440748031
 31
0.0
  0
LINE
  5
20A
330
1F9
100
AcDbEntity
  8
0
  6
Continuous
 62
     7
370
    25
100
AcDbLine
 10
2.04375
 20
1.7440748031
 30
0.0
 11
2.05
 21
1.7440748031
 31
0.0
  0
LINE
  5
20B
330
1F9
100
AcDbEntity
  8
0
  6
Continuous
 62
     7
370
    25
100
AcDbLine
 10
2.05
 20
1.2209251969
 30
0.0
 11
2.04375
 21
1.2209251969
 31
0.0
  0
LINE
  5
20C
330
1F9
100
AcDbEntity
  8
0
  6
Continuous
 62
     7
370
    25
100
AcDbLine
 10
1.54625
 20
1.2209251969
 30
0.0
 11
1.54
 21
1.2209251969
 31
0.0
  0
LINE
  5
20D
330
1F9
100
AcDbEntity
  8
0
  6
Continuous
 62
     7
370
    25
100
AcDbLine
 10
1.54
 20
1.0240748031
 30
0.0
 11
1.54625
 21
1.0240748031
 31
0.0
  0
LINE
  5
20E
330
1F9
100
AcDbEntity
  8
0
  6
Continuous
 62
     7
370
    25
100
AcDbLine
 10
2.04375
 20
1.0240748031
 30
0.0
 11
2.05
 21
1.0240748031
 31
0.0
  0
LINE
  5
20F
330
1F9
100
AcDbEntity
  8
0
  6
Continuous
 62
     7
370
    25
100
AcDbLine
 10
1.8359603467
 20
1.5095
 30
0.0
 11
2.01125
 21
1.5095
 31
0.0
  0
LINE
  5
210
330
1F9
100
AcDbEntity
  8
0
  6
Continuous
 62
     7
370
    25
100
AcDbLine
 10
2.01125
 20
2.1755
 30
0.0
 11
1.8359603467
 21
2.1755
 31
0.0
  0
LINE
  5
211
330
1F9
100
AcDbEntity
  8
0
  6
Continuous
 62
     7
370
    25
100
AcDbLine
 10
1.57625
 20
1.5095
 30
0.0
 11
1.7540396533
 21
1.5095
 31
0.0
  0
LINE
  5
212
330
1F9
100
AcDbEntity
  8
0
  6
Continuous
 62
     7
370
    25
100
AcDbLine
 10
1.7540396533
 20
2.1755
 30
0.0
 11
1.57625
 21
2.1755
 31
0.0
  0
ARC
  5
213
330
1F9
100
AcDbEntity
  8
0
  6
Continuous
 62
     7
370
    25
100
AcDbCircle
 10
1.795
 20
0.951
 30
0.0
 40
0.5600000000000012
100
AcDbArc
 50
85.8054417036
 51
94.1945582964
  0
ARC
  5
214
330
1F9
100
AcDbEntity
  8
0
  6
Continuous
 62
     7
370
    25
100
AcDbCircle
 10
1.795
 20
2.734
 30
0.0
 40
0.5599999999999987
100
AcDbArc
 50
265.8054417037
 51
274.1945582964
  0
LINE
  5
215
330
1F9
100
AcDbEntity
  8
0
  6
Continuous
 62
     7
370
    25
100
AcDbLine
 10
1.54625
 20
1.6065
 30
0.0
 11
1.57625
 21
1.6065
 31
0.0
  0
LINE
  5
216
330
1F9
100
AcDbEntity
  8
0
  6
Continuous
 62
     7
370
    25
100
AcDbLine
 10
1.57625
 20
2.0785
 30
0.0
 11
1.54625
 21
2.0785
 31
0.0
  0
LINE
  5
217
330
1F9
100
AcDbEntity
  8
0
  6
Continuous
 62
     7
370
    25
100
AcDbLine
 10
2.01125
 20
1.6065
 30
0.0
 11
2.04375
 21
1.6065
 31
0.0
  0
LINE
  5
218
330
1F9
100
AcDbEntity
  8
0
  6
Continuous
 62
     7
370
    25
100
AcDbLine
 10
2.04375
 20
2.0785
 30
0.0
 11
2.01125
 21
2.0785
 31
0.0
  0
LINE
  5
219
330
1F9
100
AcDbEntity
  8
0
  6
Continuous
 62
     7
370
    25
100
AcDbLine
 10
2.13325
 20
2.795
 30
0.0
 11
2.13325
 21
0.17
 31
0.0
  0
LINE
  5
21A
330
1F9
100
AcDbEntity
  8
0
  6
Continuous
 62
     7
370
    25
100
AcDbLine
 10
3.42
 20
2.795
 30
0.0
 11
2.13325
 21
2.795
 31
0.0
  0
LINE
  5
21B
330
1F9
100
AcDbEntity
  8
0
  6
Continuous
 62
     7
370
    25
100
AcDbLine
 10
3.42
 20
2.795
 30
0.0
 11
3.42
 21
0.17
 31
0.0
  0
CIRCLE
  5
21C
330
1F9
100
AcDbEntity
  8
0
  6
Continuous
 62
     7
370
    25
100
AcDbCircle
 10
3.2325
 20
0.6075
 30
0.0
 40
0.1093749999999997
  0
CIRCLE
  5
21D
330
1F9
100
AcDbEntity
  8
0
  6
Continuous
 62
     7
370
    25
100
AcDbCircle
 10
3.2325
 20
2.3575
 30
0.0
 40
0.1093749999999996
  0
CIRCLE
  5
21E
330
1F9
100
AcDbEntity
  8
0
  6
Continuous
 62
     7
370
    25
100
AcDbCircle
 10
2.733
 20
1.1225
 30
0.0
 40
0.0747500000000001
  0
CIRCLE
  5
21F
330
1F9
100
AcDbEntity
  8
0
  6
Continuous
 62
     7
370
    25
100
AcDbCircle
 10
2.733
 20
1.8425
 30
0.0
 40
0.0747500000000001
  0
LINE
  5
220
330
1F9
100
AcDbEntity
  8
0
  6
Continuous
 62
     7
370
    25
100
AcDbLine
 10
3.42
 20
0.17
 30
0.0
 11
2.13325
 21
0.17
 31
0.0
  0
LINE
  5
221
330
1F9
100
AcDbEntity
  8
0
  6
Continuous
 62
     7
370
    25
100
AcDbLine
 10
1.45675
 20
2.795
 30
0.0
 11
1.45675
 21
0.17
 31
0.0
  0
LINE
  5
222
330
1F9
100
AcDbEntity
  8
0
  6
Continuous
 62
     7
370
    25
100
AcDbLine
 10
1.51375
 20
2.795
 30
0.0
 11
1.51375
 21
0.17
 31
0.0
  0
LINE
  5
223
330
1F9
100
AcDbEntity
  8
0
  6
Continuous
 62
     7
370
    25
100
AcDbLine
 10
1.51375
 20
2.795
 30
0.0
 11
1.45675
 21
2.795
 31
0.0
  0
LINE
  5
224
330
1F9
100
AcDbEntity
  8
0
  6
Continuous
 62
     7
370
    25
100
AcDbLine
 10
1.51375
 20
0.17
 30
0.0
 11
1.45675
 21
0.17
 31
0.0
  0
LINE
  5
225
330
1F9
100
AcDbEntity
  8
0
  6
Continuous
 62
     7
370
    25
100
AcDbLine
 10
0.17
 20
2.795
 30
0.0
 11
0.17
 21
0.17
 31
0.0
  0
CIRCLE
  5
226
330
1F9
100
AcDbEntity
  8
0
  6
Continuous
 62
     7
370
    25
100
AcDbCircle
 10
0.3575
 20
0.6075
 30
0.0
 40
0.1093749999999997
  0
CIRCLE
  5
227
330
1F9
100
AcDbEntity
  8
0
  6
Continuous
 62
     7
370
    25
100
AcDbCircle
 10
0.3575
 20
2.3575
 30
0.0
 40
0.1093749999999996
  0
LINE
  5
228
330
1F9
100
AcDbEntity
  8
0
  6
Continuous
 62
     7
370
    25
100
AcDbLine
 10
1.45675
 20
2.795
 30
0.0
 11
0.17
 21
2.795
 31
0.0
  0
LINE
  5
229
330
1F9
100
AcDbEntity
  8
0
  6
Continuous
 62
     7
370
    25
100
AcDbLine
 10
1.45675
 20
0.17
 30
0.0
 11
0.17
 21
0.17
 31
0.0
  0
LINE
  5
22A
330
1F9
100
AcDbEntity
  8
0
  6
Continuous
 62
     7
370
    25
100
AcDbLine
 10
2.07625
 20
2.795
 30
0.0
 11
2.07625
 21
0.17
 31
0.0
  0
LINE
  5
22B
330
1F9
100
AcDbEntity
  8
0
  6
Continuous
 62
     7
370
    25
100
AcDbLine
 10
2.13325
 20
2.795
 30
0.0
 11
2.07625
 21
2.795
 31
0.0
  0
LINE
  5
22C
330
1F9
100
AcDbEntity
  8
0
  6
Continuous
 62
     7
370
    25
100
AcDbLine
 10
2.13325
 20
0.17
 30
0.0
 11
2.07625
 21
0.17
 31
0.0
  0
LINE
  5
22D
330
1F9
100
AcDbEntity
  8
0
  6
Continuous
 62
     7
370
    25
100
AcDbLine
 10
1.54
 20
2.0775
 30
0.0
 11
1.54
 21
0.8875
 31
0.0
  0
ARC
  5
22E
330
1F9
100
AcDbEntity
  8
0
  6
Continuous
 62
     7
370
    25
100
AcDbCircle
 10
1.795
 20
0.8875
 30
0.0
 40
0.2549999999999999
100
AcDbArc
 50
180.0
 51
0.0
  0
LINE
  5
22F
330
1F9
100
AcDbEntity
  8
0
  6
Continuous
 62
     7
370
    25
100
AcDbLine
 10
2.05
 20
2.0775
 30
0.0
 11
2.05
 21
0.8875
 31
0.0
  0
ARC
  5
230
330
1F9
100
AcDbEntity
  8
0
  6
Continuous
 62
     7
370
    25
100
AcDbCircle
 10
1.795
 20
2.0775
 30
0.0
 40
0.2550000000000003
100
AcDbArc
 50
0.0
 51
180.0
  0
CIRCLE
  5
231
330
1F9
100
AcDbEntity
  8
0
  6
Continuous
 62
     7
370
    25
100
AcDbCircle
 10
1.795
 20
2.515
 30
0.0
 40
0.0680000000000005
  0
CIRCLE
  5
232
330
1F9
100
AcDbEntity
  8
0
  6
Continuous
 62
     7
370
    25
100
AcDbCircle
 10
1.795
 20
0.45
 30
0.0
 40
0.0679999999999994
  0
LINE
  5
233
330
1F9
100
AcDbEntity
  8
0
  6
Continuous
 62
     7
370
    25
100
AcDbLine
 10
2.07625
 20
2.795
 30
0.0
 11
1.51375
 21
2.795
 31
0.0
  0
LINE
  5
234
330
1F9
100
AcDbEntity
  8
0
  6
Continuous
 62
     7
370
    25
100
AcDbLine
 10
2.07625
 20
0.17
 30
0.0
 11
1.51375
 21
0.17
 31
0.0
  0
LINE
  5
235
330
1F9
100
AcDbEntity
  8
0
  6
Continuous
 62
     7
370
    25
100
AcDbLine
 10
3.17
 20
2.4472587914
 30
0.0
 11
3.17
 21
2.2677412086
 31
0.0
  0
LINE
  5
236
330
1F9
100
AcDbEntity
  8
0
  6
Continuous
 62
     7
370
    25
100
AcDbLine
 10
3.17
 20
0.6972587914
 30
0.0
 11
3.17
 21
0.5177412086
 31
0.0
  0
LINE
  5
237
330
1F9
100
AcDbEntity
  8
0
  6
Continuous
 62
     7
370
    25
100
AcDbLine
 10
0.42
 20
2.4472587914
 30
0.0
 11
0.42
 21
2.2677412086
 31
0.0
  0
LINE
  5
238
330
1F9
100
AcDbEntity
  8
0
  6
Continuous
 62
     7
370
    25
100
AcDbLine
 10
0.42
 20
0.6972587914
 30
0.0
 11
0.42
 21
0.5177412086
 31
0.0
  0
LINE
  5
239
330
1F9
100
AcDbEntity
  8
0
  6
Continuous
 62
     7
370
    25
100
AcDbLine
 10
3.42
 20
0.17
 30
0.0
 11
3.42
 21
0.27
 31
0.0
  0
LINE
  5
23A
330
1F9
100
AcDbEntity
  8
0
  6
Continuous
 62
     7
370
    25
100
AcDbLine
 10
3.32
 20
0.17
 30
0.0
 11
3.42
 21
0.17
 31
0.0
  0
LINE
  5
23B
330
1F9
100
AcDbEntity
  8
0
  6
Continuous
 62
     7
370
    25
100
AcDbLine
 10
3.32
 20
0.27
 30
0.0
 11
3.32
 21
0.17
 31
0.0
  0
LINE
  5
23C
330
1F9
100
AcDbEntity
  8
0
  6
Continuous
 62
     7
370
    25
100
AcDbLine
 10
3.42
 20
0.27
 30
0.0
 11
3.32
 21
0.27
 31
0.0
  0
CIRCLE
  5
23D
330
1F9
100
AcDbEntity
  8
0
  6
Continuous
 62
     7
370
    25
100
AcDbCircle
 10
2.733
 20
1.1225
 30
0.0
 40
0.0759999999999998
  0
LINE
  5
23E
330
1F9
100
AcDbEntity
  8
0
  6
Continuous
 62
     7
370
    25
100
AcDbLine
 10
2.779875
 20
1.0954367061
 30
0.0
 11
2.779875
 21
1.1495632939
 31
0.0
  0
LINE
  5
23F
330
1F9
100
AcDbEntity
  8
0
  6
Continuous
 62
     7
370
    25
100
AcDbLine
 10
2.779875
 20
1.1495632939
 30
0.0
 11
2.733
 21
1.1766265877
 31
0.0
  0
LINE
  5
240
330
1F9
100
AcDbEntity
  8
0
  6
Continuous
 62
     7
370
    25
100
AcDbLine
 10
2.686125
 20
1.1495632939
 30
0.0
 11
2.686125
 21
1.0954367061
 31
0.0
  0
LINE
  5
241
330
1F9
100
AcDbEntity
  8
0
  6
Continuous
 62
     7
370
    25
100
AcDbLine
 10
2.686125
 20
1.0954367061
 30
0.0
 11
2.733
 21
1.0683734123
 31
0.0
  0
LINE
  5
242
330
1F9
100
AcDbEntity
  8
0
  6
Continuous
 62
     7
370
    25
100
AcDbLine
 10
2.733
 20
1.0683734123
 30
0.0
 11
2.779875
 21
1.0954367061
 31
0.0
  0
LINE
  5
243
330
1F9
100
AcDbEntity
  8
0
  6
Continuous
 62
     7
370
    25
100
AcDbLine
 10
2.733
 20
1.1766265877
 30
0.0
 11
2.686125
 21
1.1495632939
 31
0.0
  0
LINE
  5
244
330
1F9
100
AcDbEntity
  8
0
  6
Continuous
 62
     7
370
    25
100
AcDbLine
 10
1.7540396533
 20
0.7895
 30
0.0
 11
1.7540396533
 21
1.4555
 31
0.0
  0
LINE
  5
245
330
1F9
100
AcDbEntity
  8
0
  6
Continuous
 62
     7
370
    25
100
AcDbLine
 10
1.57625
 20
0.7895
 30
0.0
 11
1.57625
 21
1.4555
 31
0.0
  0
LINE
  5
246
330
1F9
100
AcDbEntity
  8
0
  6
Continuous
 62
     7
370
    25
100
AcDbLine
 10
2.01125
 20
0.7895
 30
0.0
 11
2.01125
 21
1.4555
 31
0.0
  0
LINE
  5
247
330
1F9
100
AcDbEntity
  8
0
  6
Continuous
 62
     7
370
    25
100
AcDbLine
 10
1.8359603467
 20
0.7895
 30
0.0
 11
1.8359603467
 21
1.4555
 31
0.0
  0
LINE
  5
248
330
1F9
100
AcDbEntity
  8
0
  6
Continuous
 62
     7
370
    25
100
AcDbLine
 10
2.04375
 20
0.8865
 30
0.0
 11
2.04375
 21
1.3585
 31
0.0
  0
LINE
  5
249
330
1F9
100
AcDbEntity
  8
0
  6
Continuous
 62
     7
370
    25
100
AcDbLine
 10
1.54625
 20
0.8865
 30
0.0
 11
1.54625
 21
1.3585
 31
0.0
  0
CIRCLE
  5
24A
330
1F9
100
AcDbEntity
  8
0
  6
Continuous
 62
     7
370
    25
100
AcDbCircle
 10
2.733
 20
1.8425
 30
0.0
 40
0.0759999999999998
  0
LINE
  5
24B
330
1F9
100
AcDbEntity
  8
0
  6
Continuous
 62
     7
370
    25
100
AcDbLine
 10
2.686125
 20
1.8154367061
 30
0.0
 11
2.733
 21
1.7883734123
 31
0.0
  0
LINE
  5
24C
330
1F9
100
AcDbEntity
  8
0
  6
Continuous
 62
     7
370
    25
100
AcDbLine
 10
2.733
 20
1.7883734123
 30
0.0
 11
2.779875
 21
1.8154367061
 31
0.0
  0
LINE
  5
24D
330
1F9
100
AcDbEntity
  8
0
  6
Continuous
 62
     7
370
    25
100
AcDbLine
 10
2.733
 20
1.8966265877
 30
0.0
 11
2.686125
 21
1.8695632939
 31
0.0
  0
LINE
  5
24E
330
1F9
100
AcDbEntity
  8
0
  6
Continuous
 62
     7
370
    25
100
AcDbLine
 10
2.779875
 20
1.8154367061
 30
0.0
 11
2.779875
 21
1.8695632939
 31
0.0
  0
LINE
  5
24F
330
1F9
100
AcDbEntity
  8
0
  6
Continuous
 62
     7
370
    25
100
AcDbLine
 10
2.779875
 20
1.8695632939
 30
0.0
 11
2.733
 21
1.8966265877
 31
0.0
  0
LINE
  5
250
330
1F9
100
AcDbEntity
  8
0
  6
Continuous
 62
     7
370
    25
100
AcDbLine
 10
2.686125
 20
1.8695632939
 30
0.0
 11
2.686125
 21
1.8154367061
 31
0.0
  0
LINE
  5
251
330
1F9
100
AcDbEntity
  8
0
  6
Continuous
 62
     7
370
    25
100
AcDbLine
 10
2.01125
 20
1.5095
 30
0.0
 11
2.01125
 21
2.1755
 31
0.0
  0
LINE
  5
252
330
1F9
100
AcDbEntity
  8
0
  6
Continuous
 62
     7
370
    25
100
AcDbLine
 10
1.8359603467
 20
1.5095
 30
0.0
 11
1.8359603467
 21
2.1755
 31
0.0
  0
LINE
  5
253
330
1F9
100
AcDbEntity
  8
0
  6
Continuous
 62
     7
370
    25
100
AcDbLine
 10
1.7540396533
 20
1.5095
 30
0.0
 11
1.7540396533
 21
2.1755
 31
0.0
  0
LINE
  5
254
330
1F9
100
AcDbEntity
  8
0
  6
Continuous
 62
     7
370
    25
100
AcDbLine
 10
1.57625
 20
1.5095
 30
0.0
 11
1.57625
 21
2.1755
 31
0.0
  0
LINE
  5
255
330
1F9
100
AcDbEntity
  8
0
  6
Continuous
 62
     7
370
    25
100
AcDbLine
 10
1.54625
 20
1.6065
 30
0.0
 11
1.54625
 21
2.0785
 31
0.0
  0
LINE
  5
256
330
1F9
100
AcDbEntity
  8
0
  6
Continuous
 62
     7
370
    25
100
AcDbLine
 10
2.04375
 20
1.6065
 30
0.0
 11
2.04375
 21
2.0785
 31
0.0
  0
ENDBLK
  5
1FC
330
1F9
100
AcDbEntity
  8
0
100
AcDbBlockEnd
  0
BLOCK
  5
259
330
257
100
AcDbEntity
  8
0
100
AcDbBlockBegin
  2
*Paper_Space2
 70
     0
 10
0.0
 20
0.0
 30
0.0
  3
*Paper_Space2
  1

  0
LINE
  5
25B
330
257
100
AcDbEntity
  8
0
  6
Continuous
 62
     7
370
    25
100
AcDbLine
 10
3.129488004
 20
1.0148418208
 30
0.0
 11
3.169488004
 21
1.0841238531
 31
0.0
  0
LINE
  5
25C
330
257
100
AcDbEntity
  8
0
  6
Continuous
 62
     7
370
    25
100
AcDbLine
 10
2.6552854205
 20
1.3809988531
 30
0.0
 11
2.6152854205
 21
1.3117168208
 31
0.0
  0
LINE
  5
25D
330
257
100
AcDbEntity
  8
0
  6
Continuous
 62
     7
370
    25
100
AcDbLine
 10
0.9747145795
 20
1.3117168208
 30
0.0
 11
0.9347145795
 21
1.3809988531
 31
0.0
  0
LINE
  5
25E
330
257
100
AcDbEntity
  8
0
  6
Continuous
 62
     7
370
    25
100
AcDbLine
 10
0.420511996
 20
1.0841238531
 30
0.0
 11
0.460511996
 21
1.0148418208
 31
0.0
  0
ARC
  5
25F
330
257
100
AcDbEntity
  8
0
  6
Continuous
 62
     7
370
    25
100
AcDbCircle
 10
2.6480299142
 20
0.2076819476
 30
0.0
 40
0.0290000000000006
100
AcDbArc
 50
240.0
 51
330.0
  0
ARC
  5
260
330
257
100
AcDbEntity
  8
0
  6
Continuous
 62
     7
370
    25
100
AcDbCircle
 10
2.1569935103
 20
0.4911819476
 30
0.0
 40
0.0290000000000001
100
AcDbArc
 50
150.0
 51
240.0
  0
ARC
  5
261
330
257
100
AcDbEntity
  8
0
  6
Continuous
 62
     7
370
    25
100
AcDbCircle
 10
2.8377799142
 20
0.5363385883
 30
0.0
 40
0.0289999999999999
100
AcDbArc
 50
330.0
 51
60.0
  0
ARC
  5
262
330
257
100
AcDbEntity
  8
0
  6
Continuous
 62
     7
370
    25
100
AcDbCircle
 10
2.3467435103
 20
0.8198385883
 30
0.0
 40
0.0290000000000004
100
AcDbArc
 50
60.0
 51
150.0
  0
LINE
  5
263
330
257
100
AcDbEntity
  8
0
  6
Continuous
 62
     7
370
    25
100
AcDbLine
 10
2.6731446509
 20
0.1931819476
 30
0.0
 11
2.8628946509
 21
0.5218385883
 31
0.0
  0
LINE
  5
264
330
257
100
AcDbEntity
  8
0
  6
Continuous
 62
     7
370
    25
100
AcDbLine
 10
2.3216287736
 20
0.8343385883
 30
0.0
 11
2.1318787736
 21
0.5056819476
 31
0.0
  0
LINE
  5
265
330
257
100
AcDbEntity
  8
0
  6
Continuous
 62
     7
370
    25
100
AcDbLine
 10
2.1870938186
 20
0.4403172109
 30
0.0
 11
2.1907540726
 21
0.4266569568
 31
0.0
  0
LINE
  5
266
330
257
100
AcDbEntity
  8
0
  6
Continuous
 62
     7
370
    25
100
AcDbLine
 10
2.5752693519
 20
0.2046569568
 30
0.0
 11
2.5889296059
 21
0.2083172109
 31
0.0
  0
LINE
  5
267
330
257
100
AcDbEntity
  8
0
  6
Continuous
 62
     7
370
    25
100
AcDbLine
 10
2.8098446694
 20
0.585953325
 30
0.0
 11
2.8192196694
 21
0.6021913014
 31
0.0
  0
LINE
  5
268
330
257
100
AcDbEntity
  8
0
  6
Continuous
 62
     7
370
    25
100
AcDbLine
 10
2.4130537551
 20
0.8366913014
 30
0.0
 11
2.4036787551
 21
0.820453325
 31
0.0
  0
LINE
  5
269
330
257
100
AcDbEntity
  8
0
  6
Continuous
 62
     7
370
    25
100
AcDbLine
 10
2.8192196694
 20
0.6021913014
 30
0.0
 11
2.8146737143
 21
0.619157037
 31
0.0
  0
LINE
  5
26A
330
257
100
AcDbEntity
  8
0
  6
Continuous
 62
     7
370
    25
100
AcDbLine
 10
2.4300194907
 20
0.8412372565
 30
0.0
 11
2.4130537551
 21
0.8366913013
 31
0.0
  0
LINE
  5
26B
330
257
100
AcDbEntity
  8
0
  6
Continuous
 62
     7
370
    25
100
AcDbLine
 10
3.0876035858
 20
1.3096567396
 30
0.0
 11
3.0818844389
 21
1.3310008865
 31
0.0
  0
LINE
  5
26C
330
257
100
AcDbEntity
  8
0
  6
Continuous
 62
     7
370
    25
100
AcDbLine
 10
2.9128889856
 20
1.428570457
 30
0.0
 11
2.8915448386
 21
1.42285131
 31
0.0
  0
LINE
  5
26D
330
257
100
AcDbEntity
  8
0
  6
Continuous
 62
     7
370
    25
100
AcDbLine
 10
2.9828908719
 20
1.0993870849
 30
0.0
 11
2.9829309817
 21
1.0994565571
 31
0.0
  0
LINE
  5
26E
330
257
100
AcDbEntity
  8
0
  6
Continuous
 62
     7
370
    25
100
AcDbLine
 10
2.7618424428
 20
1.2271020845
 30
0.0
 11
2.761802333
 21
1.2270326123
 31
0.0
  0
ARC
  5
26F
330
257
100
AcDbEntity
  8
0
  6
Continuous
 62
     7
370
    25
100
AcDbCircle
 10
1.2432564897
 20
0.8198385883
 30
0.0
 40
0.0290000000000005
100
AcDbArc
 50
30.0
 51
120.0
  0
ARC
  5
270
330
257
100
AcDbEntity
  8
0
  6
Continuous
 62
     7
370
    25
100
AcDbCircle
 10
0.7522200858
 20
0.5363385883
 30
0.0
 40
0.0290000000000007
100
AcDbArc
 50
120.0
 51
210.0
  0
ARC
  5
271
330
257
100
AcDbEntity
  8
0
  6
Continuous
 62
     7
370
    25
100
AcDbCircle
 10
1.4330064897
 20
0.4911819476
 30
0.0
 40
0.0290000000000004
100
AcDbArc
 50
300.0
 51
30.0
  0
ARC
  5
272
330
257
100
AcDbEntity
  8
0
  6
Continuous
 62
     7
370
    25
100
AcDbCircle
 10
0.9419700858
 20
0.2076819476
 30
0.0
 40
0.0290000000000001
100
AcDbArc
 50
210.0
 51
300.0
  0
LINE
  5
273
330
257
100
AcDbEntity
  8
0
  6
Continuous
 62
     7
370
    25
100
AcDbLine
 10
1.4581212264
 20
0.5056819476
 30
0.0
 11
1.2683712264
 21
0.8343385883
 31
0.0
  0
LINE
  5
274
330
257
100
AcDbEntity
  8
0
  6
Continuous
 62
     7
370
    25
100
AcDbLine
 10
0.7271053491
 20
0.5218385883
 30
0.0
 11
0.9168553491
 21
0.1931819476
 31
0.0
  0
LINE
  5
275
330
257
100
AcDbEntity
  8
0
  6
Continuous
 62
     7
370
    25
100
AcDbLine
 10
1.1769462449
 20
0.8366913013
 30
0.0
 11
1.1599805093
 21
0.8412372565
 31
0.0
  0
LINE
  5
276
330
257
100
AcDbEntity
  8
0
  6
Continuous
 62
     7
370
    25
100
AcDbLine
 10
0.7753262857
 20
0.619157037
 30
0.0
 11
0.7707803306
 21
0.6021913014
 31
0.0
  0
LINE
  5
277
330
257
100
AcDbEntity
  8
0
  6
Continuous
 62
     7
370
    25
100
AcDbLine
 10
1.1863212449
 20
0.820453325
 30
0.0
 11
1.1769462449
 21
0.8366913014
 31
0.0
  0
LINE
  5
278
330
257
100
AcDbEntity
  8
0
  6
Continuous
 62
     7
370
    25
100
AcDbLine
 10
0.7707803306
 20
0.6021913014
 30
0.0
 11
0.7801553306
 21
0.585953325
 31
0.0
  0
LINE
  5
279
330
257
100
AcDbEntity
  8
0
  6
Continuous
 62
     7
370
    25
100
AcDbLine
 10
1.0010703941
 20
0.2083172109
 30
0.0
 11
1.0147306481
 21
0.2046569568
 31
0.0
  0
LINE
  5
27A
330
257
100
AcDbEntity
  8
0
  6
Continuous
 62
     7
370
    25
100
AcDbLine
 10
1.3992459274
 20
0.4266569568
 30
0.0
 11
1.4029061814
 21
0.4403172109
 31
0.0
  0
LINE
  5
27B
330
257
100
AcDbEntity
  8
0
  6
Continuous
 62
     7
370
    25
100
AcDbLine
 10
0.6967665934
 20
1.4218764149
 30
0.0
 11
0.6754224465
 21
1.4275955618
 31
0.0
  0
LINE
  5
27C
330
257
100
AcDbEntity
  8
0
  6
Continuous
 62
     7
370
    25
100
AcDbLine
 10
0.509804129
 20
1.3319757817
 30
0.0
 11
0.5040849821
 21
1.3106316347
 31
0.0
  0
LINE
  5
27D
330
257
100
AcDbEntity
  8
0
  6
Continuous
 62
     7
370
    25
100
AcDbLine
 10
0.8303487565
 20
1.2282745445
 30
0.0
 11
0.8303086467
 21
1.2283440166
 31
0.0
  0
LINE
  5
27E
330
257
100
AcDbEntity
  8
0
  6
Continuous
 62
     7
370
    25
100
AcDbLine
 10
0.6049179288
 20
1.098214625
 30
0.0
 11
0.6049580386
 21
1.0981451528
 31
0.0
  0
ARC
  5
27F
330
257
100
AcDbEntity
  8
0
  6
Continuous
 62
     7
370
    25
100
AcDbCircle
 10
1.795
 20
2.6406907958
 30
0.0
 40
0.56
100
AcDbArc
 50
265.8054417037
 51
274.1945582964
  0
ARC
  5
280
330
257
100
AcDbEntity
  8
0
  6
Continuous
 62
     7
370
    25
100
AcDbCircle
 10
1.795
 20
0.8576907958
 30
0.0
 40
0.56
100
AcDbArc
 50
85.8054417036
 51
94.1945582964
  0
LINE
  5
281
330
257
100
AcDbEntity
  8
0
  6
Continuous
 62
     7
370
    25
100
AcDbLine
 10
1.7540396533
 20
2.0821907958
 30
0.0
 11
1.57875
 21
2.0821907958
 31
0.0
  0
LINE
  5
282
330
257
100
AcDbEntity
  8
0
  6
Continuous
 62
     7
370
    25
100
AcDbLine
 10
1.57875
 20
1.4161907958
 30
0.0
 11
1.7540396533
 21
1.4161907958
 31
0.0
  0
LINE
  5
283
330
257
100
AcDbEntity
  8
0
  6
Continuous
 62
     7
370
    25
100
AcDbLine
 10
2.01375
 20
2.0821907958
 30
0.0
 11
1.8359603467
 21
2.0821907958
 31
0.0
  0
LINE
  5
284
330
257
100
AcDbEntity
  8
0
  6
Continuous
 62
     7
370
    25
100
AcDbLine
 10
1.8359603467
 20
1.4161907958
 30
0.0
 11
2.01375
 21
1.4161907958
 31
0.0
  0
LINE
  5
285
330
257
100
AcDbEntity
  8
0
  6
Continuous
 62
     7
370
    25
100
AcDbLine
 10
1.54625
 20
1.5131907958
 30
0.0
 11
1.57875
 21
1.5131907958
 31
0.0
  0
LINE
  5
286
330
257
100
AcDbEntity
  8
0
  6
Continuous
 62
     7
370
    25
100
AcDbLine
 10
2.01375
 20
1.5131907958
 30
0.0
 11
2.04375
 21
1.5131907958
 31
0.0
  0
LINE
  5
287
330
257
100
AcDbEntity
  8
0
  6
Continuous
 62
     7
370
    25
100
AcDbLine
 10
1.545
 20
1.3879407958
 30
0.0
 11
1.545
 21
1.5491907958
 31
0.0
  0
ARC
  5
288
330
257
100
AcDbEntity
  8
0
  6
Continuous
 62
     7
370
    25
100
AcDbCircle
 10
1.795
 20
0.9191907958
 30
0.0
 40
0.5312500000000044
100
AcDbArc
 50
118.0724869359
 51
181.9275130641
  0
LINE
  5
289
330
257
100
AcDbEntity
  8
0
  6
Continuous
 62
     7
370
    25
100
AcDbLine
 10
0.42
 20
0.5341907958
 30
0.0
 11
0.42
 21
0.9913595794
 31
0.0
  0
LINE
  5
28A
330
257
100
AcDbEntity
  8
0
  6
Continuous
 62
     7
370
    25
100
AcDbLine
 10
0.42
 20
0.9913595794
 30
0.0
 11
0.9812265045
 21
1.3153838529
 31
0.0
  0
LINE
  5
28B
330
257
100
AcDbEntity
  8
0
  6
Continuous
 62
     7
370
    25
100
AcDbLine
 10
0.9812265045
 20
1.3153838529
 30
0.0
 11
0.7325
 21
1.7461907958
 31
0.0
  0
LINE
  5
28C
330
257
100
AcDbEntity
  8
0
  6
Continuous
 62
     7
370
    25
100
AcDbLine
 10
0.7325
 20
1.7461907958
 30
0.0
 11
0.17
 21
1.7461907958
 31
0.0
  0
LINE
  5
28D
330
257
100
AcDbEntity
  8
0
  6
Continuous
 62
     7
370
    25
100
AcDbLine
 10
0.17
 20
1.7461907958
 30
0.0
 11
0.17
 21
1.8761907958
 31
0.0
  0
LINE
  5
28E
330
257
100
AcDbEntity
  8
0
  6
Continuous
 62
     7
370
    25
100
AcDbLine
 10
0.17
 20
1.8761907958
 30
0.0
 11
0.19
 21
1.8761907958
 31
0.0
  0
LINE
  5
28F
330
257
100
AcDbEntity
  8
0
  6
Continuous
 62
     7
370
    25
100
AcDbLine
 10
0.19
 20
1.8761907958
 30
0.0
 11
0.19
 21
1.9761907958
 31
0.0
  0
LINE
  5
290
330
257
100
AcDbEntity
  8
0
  6
Continuous
 62
     7
370
    25
100
AcDbLine
 10
0.19
 20
1.9761907958
 30
0.0
 11
0.17
 21
1.9761907958
 31
0.0
  0
LINE
  5
291
330
257
100
AcDbEntity
  8
0
  6
Continuous
 62
     7
370
    25
100
AcDbLine
 10
0.17
 20
1.9761907958
 30
0.0
 11
0.17
 21
2.1061907958
 31
0.0
  0
LINE
  5
292
330
257
100
AcDbEntity
  8
0
  6
Continuous
 62
     7
370
    25
100
AcDbLine
 10
0.17
 20
2.1061907958
 30
0.0
 11
1.45675
 21
2.1061907958
 31
0.0
  0
LINE
  5
293
330
257
100
AcDbEntity
  8
0
  6
Continuous
 62
     7
370
    25
100
AcDbLine
 10
1.45675
 20
2.1061907958
 30
0.0
 11
1.51375
 21
2.0491907958
 31
0.0
  0
LINE
  5
294
330
257
100
AcDbEntity
  8
0
  6
Continuous
 62
     7
370
    25
100
AcDbLine
 10
1.51375
 20
2.0491907958
 30
0.0
 11
2.07625
 21
2.0491907958
 31
0.0
  0
LINE
  5
295
330
257
100
AcDbEntity
  8
0
  6
Continuous
 62
     7
370
    25
100
AcDbLine
 10
2.07625
 20
2.0491907958
 30
0.0
 11
2.13325
 21
2.1061907958
 31
0.0
  0
LINE
  5
296
330
257
100
AcDbEntity
  8
0
  6
Continuous
 62
     7
370
    25
100
AcDbLine
 10
2.13325
 20
2.1061907958
 30
0.0
 11
3.42
 21
2.1061907958
 31
0.0
  0
LINE
  5
297
330
257
100
AcDbEntity
  8
0
  6
Continuous
 62
     7
370
    25
100
AcDbLine
 10
3.42
 20
2.1061907958
 30
0.0
 11
3.42
 21
1.7461907958
 31
0.0
  0
LINE
  5
298
330
257
100
AcDbEntity
  8
0
  6
Continuous
 62
     7
370
    25
100
AcDbLine
 10
3.42
 20
1.7461907958
 30
0.0
 11
2.8575
 21
1.7461907958
 31
0.0
  0
LINE
  5
299
330
257
100
AcDbEntity
  8
0
  6
Continuous
 62
     7
370
    25
100
AcDbLine
 10
2.8575
 20
1.7461907958
 30
0.0
 11
2.6087734955
 21
1.3153838529
 31
0.0
  0
LINE
  5
29A
330
257
100
AcDbEntity
  8
0
  6
Continuous
 62
     7
370
    25
100
AcDbLine
 10
2.6087734955
 20
1.3153838529
 30
0.0
 11
3.17
 21
0.9913595794
 31
0.0
  0
LINE
  5
29B
330
257
100
AcDbEntity
  8
0
  6
Continuous
 62
     7
370
    25
100
AcDbLine
 10
3.17
 20
0.9913595794
 30
0.0
 11
3.17
 21
0.5341907958
 31
0.0
  0
LINE
  5
29C
330
257
100
AcDbEntity
  8
0
  6
Continuous
 62
     7
370
    25
100
AcDbLine
 10
3.17
 20
0.5341907958
 30
0.0
 11
2.9618395609
 21
0.5341907958
 31
0.0
  0
LINE
  5
29D
330
257
100
AcDbEntity
  8
0
  6
Continuous
 62
     7
370
    25
100
AcDbLine
 10
2.9618395609
 20
0.5341907958
 30
0.0
 11
2.325949408
 21
0.9013221467
 31
0.0
  0
ARC
  5
29E
330
257
100
AcDbEntity
  8
0
  6
Continuous
 62
     7
370
    25
100
AcDbCircle
 10
1.795
 20
0.9191907958
 30
0.0
 40
0.5312500000000022
100
AcDbArc
 50
358.0724869359
 51
61.9275130641
  0
LINE
  5
29F
330
257
100
AcDbEntity
  8
0
  6
Continuous
 62
     7
370
    25
100
AcDbLine
 10
2.045
 20
1.5491907958
 30
0.0
 11
2.045
 21
1.3879407958
 31
0.0
  0
LINE
  5
2A0
330
257
100
AcDbEntity
  8
0
  6
Continuous
 62
     7
370
    25
100
AcDbLine
 10
1.545
 20
1.5491907958
 30
0.0
 11
2.045
 21
1.5491907958
 31
0.0
  0
LINE
  5
2A1
330
257
100
AcDbEntity
  8
0
  6
Continuous
 62
     7
370
    25
100
AcDbLine
 10
1.264050592
 20
0.9013221467
 30
0.0
 11
0.6281604391
 21
0.5341907958
 31
0.0
  0
LINE
  5
2A2
330
257
100
AcDbEntity
  8
0
  6
Continuous
 62
     7
370
    25
100
AcDbLine
 10
0.6281604391
 20
0.5341907958
 30
0.0
 11
0.42
 21
0.5341907958
 31
0.0
  0
LINE
  5
2A3
330
257
100
AcDbEntity
  8
0
  6
Continuous
 62
     7
370
    25
100
AcDbLine
 10
0.17
 20
1.7411907958
 30
0.0
 11
0.27
 21
1.7411907958
 31
0.0
  0
LINE
  5
2A4
330
257
100
AcDbEntity
  8
0
  6
Continuous
 62
     7
370
    25
100
AcDbLine
 10
0.27
 20
1.7411907958
 30
0.0
 11
0.27
 21
1.7311907958
 31
0.0
  0
LINE
  5
2A5
330
257
100
AcDbEntity
  8
0
  6
Continuous
 62
     7
370
    25
100
AcDbLine
 10
0.17
 20
1.7311907958
 30
0.0
 11
0.27
 21
1.7311907958
 31
0.0
  0
LINE
  5
2A6
330
257
100
AcDbEntity
  8
0
  6
Continuous
 62
     7
370
    25
100
AcDbLine
 10
0.17
 20
1.7411907958
 30
0.0
 11
0.17
 21
1.7311907958
 31
0.0
  0
LINE
  5
2A7
330
257
100
AcDbEntity
  8
0
  6
Continuous
 62
     7
370
    25
100
AcDbLine
 10
2.6152854205
 20
1.3117168208
 30
0.0
 11
3.129488004
 21
1.0148418208
 31
0.0
  0
LINE
  5
2A8
330
257
100
AcDbEntity
  8
0
  6
Continuous
 62
     7
370
    25
100
AcDbLine
 10
3.169488004
 20
1.0841238531
 30
0.0
 11
2.6552854205
 21
1.3809988531
 31
0.0
  0
LINE
  5
2A9
330
257
100
AcDbEntity
  8
0
  6
Continuous
 62
     7
370
    25
100
AcDbLine
 10
2.9123867122
 20
1.2325613531
 30
0.0
 11
2.9798052313
 21
1.3493336534
 31
0.0
  0
ARC
  5
2AA
330
257
100
AcDbEntity
  8
0
  6
Continuous
 62
     7
370
    25
100
AcDbCircle
 10
2.9167162955
 20
1.0113543895
 30
0.0
 40
0.3438170976630908
100
AcDbArc
 50
60.8295951082
 51
79.4265628922
  0
ARC
  5
2AB
330
257
100
AcDbEntity
  8
0
  6
Continuous
 62
     7
370
    25
100
AcDbCircle
 10
2.9079788647
 20
1.0161956573
 30
0.0
 40
0.343993590254494
100
AcDbArc
 50
40.5782501722
 51
59.1655918273
  0
LINE
  5
2AC
330
257
100
AcDbEntity
  8
0
  6
Continuous
 62
     7
370
    25
100
AcDbLine
 10
3.1018297693
 20
1.1231863531
 30
0.0
 11
3.1692482883
 21
1.2399586534
 31
0.0
  0
ARC
  5
2AD
330
257
100
AcDbEntity
  8
0
  6
Continuous
 62
     7
370
    25
100
AcDbCircle
 10
2.7185358077
 20
1.1255706573
 30
0.0
 40
0.3439935902544518
100
AcDbArc
 50
40.5782501722
 51
59.1655918273
  0
LINE
  5
2AE
330
257
100
AcDbEntity
  8
0
  6
Continuous
 62
     7
370
    25
100
AcDbLine
 10
2.8948526837
 20
1.4209415248
 30
0.0
 11
3.0842957408
 21
1.3115665248
 31
0.0
  0
LINE
  5
2AF
330
257
100
AcDbEntity
  8
0
  6
Continuous
 62
     7
370
    25
100
AcDbLine
 10
2.7229436552
 20
1.3419363531
 30
0.0
 11
2.7903621742
 21
1.4587086534
 31
0.0
  0
ARC
  5
2B0
330
257
100
AcDbEntity
  8
0
  6
Continuous
 62
     7
370
    25
100
AcDbCircle
 10
2.7272732385
 20
1.1207293895
 30
0.0
 40
0.3438170976631101
100
AcDbArc
 50
60.8295951082
 51
79.4265628922
  0
LINE
  5
2B1
330
257
100
AcDbEntity
  8
0
  6
Continuous
 62
     7
370
    25
100
AcDbLine
 10
3.1790172693
 20
1.2568790248
 30
0.0
 11
3.1692482883
 21
1.2399586534
 31
0.0
  0
LINE
  5
2B2
330
257
100
AcDbEntity
  8
0
  6
Continuous
 62
     7
370
    25
100
AcDbLine
 10
3.0842957408
 20
1.3115665248
 30
0.0
 11
3.1790172693
 21
1.2568790248
 31
0.0
  0
LINE
  5
2B3
330
257
100
AcDbEntity
  8
0
  6
Continuous
 62
     7
370
    25
100
AcDbLine
 10
2.7903621742
 20
1.4587086534
 30
0.0
 11
2.8001311552
 21
1.4756290248
 31
0.0
  0
LINE
  5
2B4
330
257
100
AcDbEntity
  8
0
  6
Continuous
 62
     7
370
    25
100
AcDbLine
 10
2.8001311552
 20
1.4756290248
 30
0.0
 11
2.8948526837
 21
1.4209415248
 31
0.0
  0
LINE
  5
2B5
330
257
100
AcDbEntity
  8
0
  6
Continuous
 62
     7
370
    25
100
AcDbLine
 10
0.460511996
 20
1.0148418208
 30
0.0
 11
0.9747145795
 21
1.3117168208
 31
0.0
  0
LINE
  5
2B6
330
257
100
AcDbEntity
  8
0
  6
Continuous
 62
     7
370
    25
100
AcDbLine
 10
0.9347145795
 20
1.3809988531
 30
0.0
 11
0.420511996
 21
1.0841238531
 31
0.0
  0
LINE
  5
2B7
330
257
100
AcDbEntity
  8
0
  6
Continuous
 62
     7
370
    25
100
AcDbLine
 10
0.4881702307
 20
1.1231863531
 30
0.0
 11
0.4207517117
 21
1.2399586534
 31
0.0
  0
ARC
  5
2B8
330
257
100
AcDbEntity
  8
0
  6
Continuous
 62
     7
370
    25
100
AcDbCircle
 10
0.6819058723
 20
1.0163324004
 30
0.0
 40
0.3438170976631152
100
AcDbArc
 50
120.8295951082
 51
139.4265628922
  0
ARC
  5
2B9
330
257
100
AcDbEntity
  8
0
  6
Continuous
 62
     7
370
    25
100
AcDbCircle
 10
0.673344496
 20
1.0111861973
 30
0.0
 40
0.3439935902544791
100
AcDbArc
 50
100.5782501722
 51
119.1655918273
  0
LINE
  5
2BA
330
257
100
AcDbEntity
  8
0
  6
Continuous
 62
     7
370
    25
100
AcDbLine
 10
0.6776132878
 20
1.2325613531
 30
0.0
 11
0.6101947687
 21
1.3493336534
 31
0.0
  0
LINE
  5
2BB
330
257
100
AcDbEntity
  8
0
  6
Continuous
 62
     7
370
    25
100
AcDbLine
 10
0.5057042592
 20
1.3115665248
 30
0.0
 11
0.6951473163
 21
1.4209415248
 31
0.0
  0
ARC
  5
2BC
330
257
100
AcDbEntity
  8
0
  6
Continuous
 62
     7
370
    25
100
AcDbCircle
 10
0.8713489294
 20
1.1257074004
 30
0.0
 40
0.3438170976631103
100
AcDbArc
 50
120.8295951082
 51
139.4265628922
  0
ARC
  5
2BD
330
257
100
AcDbEntity
  8
0
  6
Continuous
 62
     7
370
    25
100
AcDbCircle
 10
0.8627875531
 20
1.1205611973
 30
0.0
 40
0.3439935902544587
100
AcDbArc
 50
100.5782501722
 51
119.1655918273
  0
LINE
  5
2BE
330
257
100
AcDbEntity
  8
0
  6
Continuous
 62
     7
370
    25
100
AcDbLine
 10
0.8670563448
 20
1.3419363531
 30
0.0
 11
0.7996378258
 21
1.4587086534
 31
0.0
  0
LINE
  5
2BF
330
257
100
AcDbEntity
  8
0
  6
Continuous
 62
     7
370
    25
100
AcDbLine
 10
0.7898688448
 20
1.4756290248
 30
0.0
 11
0.7996378258
 21
1.4587086534
 31
0.0
  0
LINE
  5
2C0
330
257
100
AcDbEntity
  8
0
  6
Continuous
 62
     7
370
    25
100
AcDbLine
 10
0.6951473163
 20
1.4209415248
 30
0.0
 11
0.7898688448
 21
1.4756290248
 31
0.0
  0
LINE
  5
2C1
330
257
100
AcDbEntity
  8
0
  6
Continuous
 62
     7
370
    25
100
AcDbLine
 10
0.4207517117
 20
1.2399586534
 30
0.0
 11
0.4109827307
 21
1.2568790248
 31
0.0
  0
LINE
  5
2C2
330
257
100
AcDbEntity
  8
0
  6
Continuous
 62
     7
370
    25
100
AcDbLine
 10
0.4109827307
 20
1.2568790248
 30
0.0
 11
0.5057042592
 21
1.3115665248
 31
0.0
  0
LINE
  5
2C3
330
257
100
AcDbEntity
  8
0
  6
Continuous
 62
     7
370
    25
100
AcDbLine
 10
2.3880117122
 20
0.3243172109
 30
0.0
 11
2.6335299142
 21
0.1825672109
 31
0.0
  0
LINE
  5
2C4
330
257
100
AcDbEntity
  8
0
  6
Continuous
 62
     7
370
    25
100
AcDbLine
 10
2.1424935103
 20
0.4660672109
 30
0.0
 11
2.3880117122
 21
0.3243172109
 31
0.0
  0
LINE
  5
2C5
330
257
100
AcDbEntity
  8
0
  6
Continuous
 62
     7
370
    25
100
AcDbLine
 10
2.6067617122
 20
0.703203325
 30
0.0
 11
2.3612435103
 21
0.844953325
 31
0.0
  0
LINE
  5
2C6
330
257
100
AcDbEntity
  8
0
  6
Continuous
 62
     7
370
    25
100
AcDbLine
 10
2.8522799142
 20
0.561453325
 30
0.0
 11
2.6067617122
 21
0.703203325
 31
0.0
  0
LINE
  5
2C7
330
257
100
AcDbEntity
  8
0
  6
Continuous
 62
     7
370
    25
100
AcDbLine
 10
2.1907540726
 20
0.4266569568
 30
0.0
 11
2.5752693519
 21
0.2046569568
 31
0.0
  0
LINE
  5
2C8
330
257
100
AcDbEntity
  8
0
  6
Continuous
 62
     7
370
    25
100
AcDbLine
 10
2.6161367122
 20
0.7194413014
 30
0.0
 11
2.4130537551
 21
0.8366913014
 31
0.0
  0
LINE
  5
2C9
330
257
100
AcDbEntity
  8
0
  6
Continuous
 62
     7
370
    25
100
AcDbLine
 10
2.8192196694
 20
0.6021913014
 30
0.0
 11
2.6161367122
 21
0.7194413014
 31
0.0
  0
LINE
  5
2CA
330
257
100
AcDbEntity
  8
0
  6
Continuous
 62
     7
370
    25
100
AcDbLine
 10
3.0818844389
 20
1.3310008865
 30
0.0
 11
2.9128889856
 21
1.428570457
 31
0.0
  0
LINE
  5
2CB
330
257
100
AcDbEntity
  8
0
  6
Continuous
 62
     7
370
    25
100
AcDbLine
 10
0.9832382878
 20
0.703203325
 30
0.0
 11
0.7377200858
 21
0.561453325
 31
0.0
  0
LINE
  5
2CC
330
257
100
AcDbEntity
  8
0
  6
Continuous
 62
     7
370
    25
100
AcDbLine
 10
1.2287564897
 20
0.844953325
 30
0.0
 11
0.9832382878
 21
0.703203325
 31
0.0
  0
LINE
  5
2CD
330
257
100
AcDbEntity
  8
0
  6
Continuous
 62
     7
370
    25
100
AcDbLine
 10
1.2019882878
 20
0.3243172109
 30
0.0
 11
1.4475064897
 21
0.4660672109
 31
0.0
  0
LINE
  5
2CE
330
257
100
AcDbEntity
  8
0
  6
Continuous
 62
     7
370
    25
100
AcDbLine
 10
0.9564700858
 20
0.1825672109
 30
0.0
 11
1.2019882878
 21
0.3243172109
 31
0.0
  0
LINE
  5
2CF
330
257
100
AcDbEntity
  8
0
  6
Continuous
 62
     7
370
    25
100
AcDbLine
 10
0.9738632878
 20
0.7194413014
 30
0.0
 11
0.7707803306
 21
0.6021913014
 31
0.0
  0
LINE
  5
2D0
330
257
100
AcDbEntity
  8
0
  6
Continuous
 62
     7
370
    25
100
AcDbLine
 10
1.1769462449
 20
0.8366913013
 30
0.0
 11
0.9738632878
 21
0.7194413014
 31
0.0
  0
LINE
  5
2D1
330
257
100
AcDbEntity
  8
0
  6
Continuous
 62
     7
370
    25
100
AcDbLine
 10
1.0147306481
 20
0.2046569568
 30
0.0
 11
1.3992459274
 21
0.4266569568
 31
0.0
  0
LINE
  5
2D2
330
257
100
AcDbEntity
  8
0
  6
Continuous
 62
     7
370
    25
100
AcDbLine
 10
0.6754224465
 20
1.4275955618
 30
0.0
 11
0.509804129
 21
1.3319757817
 31
0.0
  0
LINE
  5
2D3
330
257
100
AcDbEntity
  8
0
  6
Continuous
 62
     7
370
    25
100
AcDbLine
 10
1.7540396533
 20
2.0821907958
 30
0.0
 11
1.7540396533
 21
2.0491907958
 31
0.0
  0
LINE
  5
2D4
330
257
100
AcDbEntity
  8
0
  6
Continuous
 62
     7
370
    25
100
AcDbLine
 10
1.7540396533
 20
1.5491907958
 30
0.0
 11
1.7540396533
 21
1.4161907958
 31
0.0
  0
LINE
  5
2D5
330
257
100
AcDbEntity
  8
0
  6
Continuous
 62
     7
370
    25
100
AcDbLine
 10
1.8359603467
 20
2.0821907958
 30
0.0
 11
1.8359603467
 21
2.0491907958
 31
0.0
  0
LINE
  5
2D6
330
257
100
AcDbEntity
  8
0
  6
Continuous
 62
     7
370
    25
100
AcDbLine
 10
1.8359603467
 20
1.5491907958
 30
0.0
 11
1.8359603467
 21
1.4161907958
 31
0.0
  0
LINE
  5
2D7
330
257
100
AcDbEntity
  8
0
  6
Continuous
 62
     7
370
    25
100
AcDbLine
 10
1.57875
 20
2.0821907958
 30
0.0
 11
1.57875
 21
2.0491907958
 31
0.0
  0
LINE
  5
2D8
330
257
100
AcDbEntity
  8
0
  6
Continuous
 62
     7
370
    25
100
AcDbLine
 10
1.57875
 20
1.5491907958
 30
0.0
 11
1.57875
 21
1.4161907958
 31
0.0
  0
LINE
  5
2D9
330
257
100
AcDbEntity
  8
0
  6
Continuous
 62
     7
370
    25
100
AcDbLine
 10
2.01375
 20
2.0821907958
 30
0.0
 11
2.01375
 21
2.0491907958
 31
0.0
  0
LINE
  5
2DA
330
257
100
AcDbEntity
  8
0
  6
Continuous
 62
     7
370
    25
100
AcDbLine
 10
2.01375
 20
1.5491907958
 30
0.0
 11
2.01375
 21
1.4161907958
 31
0.0
  0
LINE
  5
2DB
330
257
100
AcDbEntity
  8
0
  6
Continuous
 62
     7
370
    25
100
AcDbLine
 10
1.54625
 20
1.5491907958
 30
0.0
 11
1.54625
 21
1.5131907958
 31
0.0
  0
LINE
  5
2DC
330
257
100
AcDbEntity
  8
0
  6
Continuous
 62
     7
370
    25
100
AcDbLine
 10
2.04375
 20
1.5491907958
 30
0.0
 11
2.04375
 21
1.5131907958
 31
0.0
  0
LINE
  5
2DD
330
257
100
AcDbEntity
  8
0
  6
Continuous
 62
     8
370
    25
100
AcDbLine
 10
2.4025117122
 20
0.3494319476
 30
0.0
 11
2.6731446509
 21
0.1931819476
 31
0.0
  0
LINE
  5
2DE
330
257
100
AcDbEntity
  8
0
  6
Continuous
 62
     8
370
    25
100
AcDbLine
 10
2.1318787736
 20
0.5056819476
 30
0.0
 11
2.4025117122
 21
0.3494319476
 31
0.0
  0
LINE
  5
2DF
330
257
100
AcDbEntity
  8
0
  6
Continuous
 62
     8
370
    25
100
AcDbLine
 10
2.5922617122
 20
0.6780885883
 30
0.0
 11
2.3216287736
 21
0.8343385883
 31
0.0
  0
LINE
  5
2E0
330
257
100
AcDbEntity
  8
0
  6
Continuous
 62
     8
370
    25
100
AcDbLine
 10
2.8628946509
 20
0.5218385883
 30
0.0
 11
2.5922617122
 21
0.6780885883
 31
0.0
  0
LINE
  5
2E1
330
257
100
AcDbEntity
  8
0
  6
Continuous
 62
     8
370
    25
100
AcDbLine
 10
0.9977382878
 20
0.6780885883
 30
0.0
 11
0.7271053491
 21
0.5218385883
 31
0.0
  0
LINE
  5
2E2
330
257
100
AcDbEntity
  8
0
  6
Continuous
 62
     8
370
    25
100
AcDbLine
 10
1.2683712264
 20
0.8343385883
 30
0.0
 11
0.9977382878
 21
0.6780885883
 31
0.0
  0
LINE
  5
2E3
330
257
100
AcDbEntity
  8
0
  6
Continuous
 62
     8
370
    25
100
AcDbLine
 10
1.1874882878
 20
0.3494319476
 30
0.0
 11
1.4581212264
 21
0.5056819476
 31
0.0
  0
LINE
  5
2E4
330
257
100
AcDbEntity
  8
0
  6
Continuous
 62
     8
370
    25
100
AcDbLine
 10
0.9168553491
 20
0.1931819476
 30
0.0
 11
1.1874882878
 21
0.3494319476
 31
0.0
  0
ENDBLK
  5
25A
330
257
100
AcDbEntity
  8
0
100
AcDbBlockEnd
  0
ENDSEC
  0
SECTION
  2
ENTITIES
  0
LINE
  5
74
330
1F
100
AcDbEntity
  8
0
  6
Continuous
 62
     7
370
    25
100
AcDbLine
 10
3.129488004
 20
1.0148418208
 30
0.0
 11
3.169488004
 21
1.0841238531
 31
0.0
  0
LINE
  5
75
330
1F
100
AcDbEntity
  8
0
  6
Continuous
 62
     7
370
    25
100
AcDbLine
 10
2.6552854205
 20
1.3809988531
 30
0.0
 11
2.6152854205
 21
1.3117168208
 31
0.0
  0
LINE
  5
76
330
1F
100
AcDbEntity
  8
0
  6
Continuous
 62
     7
370
    25
100
AcDbLine
 10
1.8359603467
 20
1.4161907958
 30
0.0
 11
2.01125
 21
1.4161907958
 31
0.0
  0
LINE
  5
77
330
1F
100
AcDbEntity
  8
0
  6
Continuous
 62
     7
370
    25
100
AcDbLine
 10
2.01125
 20
2.0821907958
 30
0.0
 11
1.8359603467
 21
2.0821907958
 31
0.0
  0
LINE
  5
78
330
1F
100
AcDbEntity
  8
0
  6
Continuous
 62
     7
370
    25
100
AcDbLine
 10
1.57625
 20
1.4161907958
 30
0.0
 11
1.7540396533
 21
1.4161907958
 31
0.0
  0
LINE
  5
79
330
1F
100
AcDbEntity
  8
0
  6
Continuous
 62
     7
370
    25
100
AcDbLine
 10
1.7540396533
 20
2.0821907958
 30
0.0
 11
1.57625
 21
2.0821907958
 31
0.0
  0
ARC
  5
7A
330
1F
100
AcDbEntity
  8
0
  6
Continuous
 62
     7
370
    25
100
AcDbCircle
 10
1.795
 20
0.8576907958
 30
0.0
 40
0.5599999999999999
100
AcDbArc
 50
85.8054417036
 51
94.1945582963
  0
ARC
  5
7B
330
1F
100
AcDbEntity
  8
0
  6
Continuous
 62
     7
370
    25
100
AcDbCircle
 10
1.795
 20
2.6406907958
 30
0.0
 40
0.56
100
AcDbArc
 50
265.8054417037
 51
274.1945582964
  0
LINE
  5
7C
330
1F
100
AcDbEntity
  8
0
  6
Continuous
 62
     7
370
    25
100
AcDbLine
 10
2.04375
 20
1.5131907958
 30
0.0
 11
2.04375
 21
1.5131907958
 31
0.0
  0
LINE
  5
7D
330
1F
100
AcDbEntity
  8
0
  6
Continuous
 62
     7
370
    25
100
AcDbLine
 10
1.54625
 20
1.5131907958
 30
0.0
 11
1.54625
 21
1.5131907958
 31
0.0
  0
ARC
  5
7E
330
1F
100
AcDbEntity
  8
0
  6
Continuous
 62
     7
370
    25
100
AcDbCircle
 10
1.4330064897
 20
0.4911819476
 30
0.0
 40
0.0290000000000005
100
AcDbArc
 50
300.0
 51
30.0
  0
ARC
  5
7F
330
1F
100
AcDbEntity
  8
0
  6
Continuous
 62
     7
370
    25
100
AcDbCircle
 10
0.9419700858
 20
0.2076819476
 30
0.0
 40
0.0290000000000006
100
AcDbArc
 50
210.0
 51
300.0
  0
ARC
  5
80
330
1F
100
AcDbEntity
  8
0
  6
Continuous
 62
     7
370
    25
100
AcDbCircle
 10
1.2432564897
 20
0.8198385883
 30
0.0
 40
0.0290000000000004
100
AcDbArc
 50
30.0
 51
120.0
  0
ARC
  5
81
330
1F
100
AcDbEntity
  8
0
  6
Continuous
 62
     7
370
    25
100
AcDbCircle
 10
0.7522200858
 20
0.5363385883
 30
0.0
 40
0.0290000000000002
100
AcDbArc
 50
120.0
 51
210.0
  0
LINE
  5
82
330
1F
100
AcDbEntity
  8
0
  6
Continuous
 62
     7
370
    25
100
AcDbLine
 10
1.4581212264
 20
0.5056819476
 30
0.0
 11
1.2683712264
 21
0.8343385883
 31
0.0
  0
LINE
  5
83
330
1F
100
AcDbEntity
  8
0
  6
Continuous
 62
     7
370
    25
100
AcDbLine
 10
0.7271053491
 20
0.5218385883
 30
0.0
 11
0.9168553491
 21
0.1931819476
 31
0.0
  0
LINE
  5
84
330
1F
100
AcDbEntity
  8
0
  6
Continuous
 62
     7
370
    25
100
AcDbLine
 10
1.0147306481
 20
0.2046569568
 30
0.0
 11
1.0147306481
 21
0.2046569568
 31
0.0
  0
LINE
  5
85
330
1F
100
AcDbEntity
  8
0
  6
Continuous
 62
     7
370
    25
100
AcDbLine
 10
1.3992459274
 20
0.4266569568
 30
0.0
 11
1.4029061814
 21
0.4403172109
 31
0.0
  0
LINE
  5
86
330
1F
100
AcDbEntity
  8
0
  6
Continuous
 62
     7
370
    25
100
AcDbLine
 10
1.1769462449
 20
0.8366913014
 30
0.0
 11
1.1599805093
 21
0.8412372565
 31
0.0
  0
LINE
  5
87
330
1F
100
AcDbEntity
  8
0
  6
Continuous
 62
     7
370
    25
100
AcDbLine
 10
0.7753262857
 20
0.619157037
 30
0.0
 11
0.7707803306
 21
0.6021913014
 31
0.0
  0
LINE
  5
88
330
1F
100
AcDbEntity
  8
0
  6
Continuous
 62
     7
370
    25
100
AcDbLine
 10
1.1769462449
 20
0.8366913014
 30
0.0
 11
1.1769462449
 21
0.8366913014
 31
0.0
  0
LINE
  5
89
330
1F
100
AcDbEntity
  8
0
  6
Continuous
 62
     7
370
    25
100
AcDbLine
 10
0.7707803306
 20
0.6021913014
 30
0.0
 11
0.7801553306
 21
0.585953325
 31
0.0
  0
LINE
  5
8A
330
1F
100
AcDbEntity
  8
0
  6
Continuous
 62
     7
370
    25
100
AcDbLine
 10
0.828197667
 20
1.2270326123
 30
0.0
 11
0.8281575572
 21
1.2271020845
 31
0.0
  0
LINE
  5
8B
330
1F
100
AcDbEntity
  8
0
  6
Continuous
 62
     7
370
    25
100
AcDbLine
 10
0.6070690183
 20
1.0994565571
 30
0.0
 11
0.6071091281
 21
1.0993870849
 31
0.0
  0
LINE
  5
8C
330
1F
100
AcDbEntity
  8
0
  6
Continuous
 62
     7
370
    25
100
AcDbLine
 10
0.6951473163
 20
1.4209415248
 30
0.0
 11
0.6771110144
 21
1.428570457
 31
0.0
  0
LINE
  5
8D
330
1F
100
AcDbEntity
  8
0
  6
Continuous
 62
     7
370
    25
100
AcDbLine
 10
0.5081155611
 20
1.3310008865
 30
0.0
 11
0.5023964142
 21
1.3096567396
 31
0.0
  0
LINE
  5
8E
330
1F
100
AcDbEntity
  8
0
  6
Continuous
 62
     7
370
    25
100
AcDbLine
 10
0.9747145795
 20
1.3117168208
 30
0.0
 11
0.9347145795
 21
1.3809988531
 31
0.0
  0
LINE
  5
8F
330
1F
100
AcDbEntity
  8
0
  6
Continuous
 62
     7
370
    25
100
AcDbLine
 10
0.420511996
 20
1.0841238531
 30
0.0
 11
0.460511996
 21
1.0148418208
 31
0.0
  0
ARC
  5
90
330
1F
100
AcDbEntity
  8
0
  6
Continuous
 62
     7
370
    25
100
AcDbCircle
 10
2.8377799142
 20
0.5363385883
 30
0.0
 40
0.0290000000000004
100
AcDbArc
 50
330.0
 51
60.0
  0
ARC
  5
91
330
1F
100
AcDbEntity
  8
0
  6
Continuous
 62
     7
370
    25
100
AcDbCircle
 10
2.3467435103
 20
0.8198385883
 30
0.0
 40
0.0290000000000008
100
AcDbArc
 50
60.0
 51
150.0
  0
ARC
  5
92
330
1F
100
AcDbEntity
  8
0
  6
Continuous
 62
     7
370
    25
100
AcDbCircle
 10
2.6480299142
 20
0.2076819476
 30
0.0
 40
0.0290000000000001
100
AcDbArc
 50
240.0
 51
330.0
  0
ARC
  5
93
330
1F
100
AcDbEntity
  8
0
  6
Continuous
 62
     7
370
    25
100
AcDbCircle
 10
2.1569935103
 20
0.4911819476
 30
0.0
 40
0.0290000000000004
100
AcDbArc
 50
150.0
 51
240.0
  0
LINE
  5
94
330
1F
100
AcDbEntity
  8
0
  6
Continuous
 62
     7
370
    25
100
AcDbLine
 10
2.6731446509
 20
0.1931819476
 30
0.0
 11
2.8628946509
 21
0.5218385883
 31
0.0
  0
LINE
  5
95
330
1F
100
AcDbEntity
  8
0
  6
Continuous
 62
     7
370
    25
100
AcDbLine
 10
2.3216287736
 20
0.8343385883
 30
0.0
 11
2.1318787736
 21
0.5056819476
 31
0.0
  0
LINE
  5
96
330
1F
100
AcDbEntity
  8
0
  6
Continuous
 62
     7
370
    25
100
AcDbLine
 10
2.8192196694
 20
0.6021913014
 30
0.0
 11
2.8192196694
 21
0.6021913014
 31
0.0
  0
LINE
  5
97
330
1F
100
AcDbEntity
  8
0
  6
Continuous
 62
     7
370
    25
100
AcDbLine
 10
2.4130537551
 20
0.8366913014
 30
0.0
 11
2.4036787551
 21
0.820453325
 31
0.0
  0
LINE
  5
98
330
1F
100
AcDbEntity
  8
0
  6
Continuous
 62
     7
370
    25
100
AcDbLine
 10
2.1907540726
 20
0.4266569568
 30
0.0
 11
2.1907540726
 21
0.4266569568
 31
0.0
  0
LINE
  5
99
330
1F
100
AcDbEntity
  8
0
  6
Continuous
 62
     7
370
    25
100
AcDbLine
 10
2.5752693519
 20
0.2046569568
 30
0.0
 11
2.5889296059
 21
0.2083172109
 31
0.0
  0
LINE
  5
9A
330
1F
100
AcDbEntity
  8
0
  6
Continuous
 62
     7
370
    25
100
AcDbLine
 10
2.8192196694
 20
0.6021913014
 30
0.0
 11
2.8146737143
 21
0.619157037
 31
0.0
  0
LINE
  5
9B
330
1F
100
AcDbEntity
  8
0
  6
Continuous
 62
     7
370
    25
100
AcDbLine
 10
2.4300194907
 20
0.8412372565
 30
0.0
 11
2.4130537551
 21
0.8366913014
 31
0.0
  0
LINE
  5
9C
330
1F
100
AcDbEntity
  8
0
  6
Continuous
 62
     7
370
    25
100
AcDbLine
 10
3.0842957408
 20
1.3115665248
 30
0.0
 11
3.080195871
 21
1.3319757817
 31
0.0
  0
LINE
  5
9D
330
1F
100
AcDbEntity
  8
0
  6
Continuous
 62
     7
370
    25
100
AcDbLine
 10
2.9145775535
 20
1.4275955618
 30
0.0
 11
2.8948526837
 21
1.4209415248
 31
0.0
  0
LINE
  5
9E
330
1F
100
AcDbEntity
  8
0
  6
Continuous
 62
     7
370
    25
100
AcDbLine
 10
2.9850419614
 20
1.0981451528
 30
0.0
 11
2.9850820712
 21
1.098214625
 31
0.0
  0
LINE
  5
9F
330
1F
100
AcDbEntity
  8
0
  6
Continuous
 62
     7
370
    25
100
AcDbLine
 10
2.7596913533
 20
1.2283440166
 30
0.0
 11
2.7596512435
 21
1.2282745445
 31
0.0
  0
LINE
  5
A0
330
1F
100
AcDbEntity
  8
0
  6
Continuous
 62
     7
370
    25
100
AcDbLine
 10
3.169488004
 20
1.0841238531
 30
0.0
 11
2.6552854205
 21
1.3809988531
 31
0.0
  0
LINE
  5
A1
330
1F
100
AcDbEntity
  8
0
  6
Continuous
 62
     7
370
    25
100
AcDbLine
 10
2.6152854205
 20
1.3117168208
 30
0.0
 11
3.129488004
 21
1.0148418208
 31
0.0
  0
LINE
  5
A2
330
1F
100
AcDbEntity
  8
0
  6
Continuous
 62
     7
370
    25
100
AcDbLine
 10
2.9123867122
 20
1.2325613531
 30
0.0
 11
2.9798052313
 21
1.3493336534
 31
0.0
  0
ARC
  5
A3
330
1F
100
AcDbEntity
  8
0
  6
Continuous
 62
     7
370
    25
100
AcDbCircle
 10
2.9209320265
 20
1.0230180742
 30
0.0
 40
0.3315839433277639
100
AcDbArc
 50
60.4833281443
 51
79.7728298562
  0
LWPOLYLINE
  5
A4
330
1F
100
AcDbEntity
  8
0
  6
Continuous
 62
     7
370
    25
100
AcDbPolyline
 90
        3
 70
   128
 43
0.0
 10
3.1692482883
 20
1.2399586534
 10
3.1299292182
 20
1.2790278332
 10
3.0842957408
 20
1.3115665248
  0
LINE
  5
A5
330
1F
100
AcDbEntity
  8
0
  6
Continuous
 62
     7
370
    25
100
AcDbLine
 10
3.169488004
 20
1.0841238531
 30
0.0
 11
3.1692482883
 21
1.2399586534
 31
0.0
  0
LWPOLYLINE
  5
A6
330
1F
100
AcDbEntity
  8
0
  6
Continuous
 62
     7
370
    25
100
AcDbPolyline
 90
        3
 70
   128
 43
0.0
 10
2.9798052313
 20
1.3493336534
 10
2.9404861611
 20
1.3884028332
 10
2.8948526837
 20
1.4209415248
  0
LINE
  5
A7
330
1F
100
AcDbEntity
  8
0
  6
Continuous
 62
     7
370
    25
100
AcDbLine
 10
2.8948526837
 20
1.4209415248
 30
0.0
 11
3.0842957408
 21
1.3115665248
 31
0.0
  0
LINE
  5
A8
330
1F
100
AcDbEntity
  8
0
  6
Continuous
 62
     7
370
    25
100
AcDbLine
 10
2.6552854205
 20
1.3809988531
 30
0.0
 11
2.7903621742
 21
1.4587086534
 31
0.0
  0
ARC
  5
A9
330
1F
100
AcDbEntity
  8
0
  6
Continuous
 62
     7
370
    25
100
AcDbCircle
 10
2.7314889695
 20
1.1323930742
 30
0.0
 40
0.3315839433279332
100
AcDbArc
 50
60.4833281443
 51
79.7728298561
  0
LINE
  5
AA
330
1F
100
AcDbEntity
  8
0
  6
Continuous
 62
     7
370
    25
100
AcDbLine
 10
3.1790172693
 20
1.2568790248
 30
0.0
 11
3.1692482883
 21
1.2399586534
 31
0.0
  0
LINE
  5
AB
330
1F
100
AcDbEntity
  8
0
  6
Continuous
 62
     7
370
    25
100
AcDbLine
 10
3.0842957408
 20
1.3115665248
 30
0.0
 11
3.1790172693
 21
1.2568790248
 31
0.0
  0
LINE
  5
AC
330
1F
100
AcDbEntity
  8
0
  6
Continuous
 62
     7
370
    25
100
AcDbLine
 10
2.7903621742
 20
1.4587086534
 30
0.0
 11
2.8001311552
 21
1.4756290248
 31
0.0
  0
LINE
  5
AD
330
1F
100
AcDbEntity
  8
0
  6
Continuous
 62
     7
370
    25
100
AcDbLine
 10
2.8001311552
 20
1.4756290248
 30
0.0
 11
2.8948526837
 21
1.4209415248
 31
0.0
  0
ARC
  5
AE
330
1F
100
AcDbEntity
  8
0
  6
Continuous
 62
     7
370
    25
100
AcDbCircle
 10
1.795
 20
0.9191907958
 30
0.0
 40
0.5312499999999999
100
AcDbArc
 50
118.0724869359
 51
181.9275130641
  0
LINE
  5
AF
330
1F
100
AcDbEntity
  8
0
  6
Continuous
 62
     7
370
    25
100
AcDbLine
 10
0.6281604391
 20
0.5341907958
 30
0.0
 11
1.264050592
 21
0.9013221467
 31
0.0
  0
LINE
  5
B0
330
1F
100
AcDbEntity
  8
0
  6
Continuous
 62
     7
370
    25
100
AcDbLine
 10
0.42
 20
0.5341907958
 30
0.0
 11
0.6281604391
 21
0.5341907958
 31
0.0
  0
LINE
  5
B1
330
1F
100
AcDbEntity
  8
0
  6
Continuous
 62
     7
370
    25
100
AcDbLine
 10
0.42
 20
0.9913595794
 30
0.0
 11
0.42
 21
0.5341907958
 31
0.0
  0
LINE
  5
B2
330
1F
100
AcDbEntity
  8
0
  6
Continuous
 62
     7
370
    25
100
AcDbLine
 10
0.9812265045
 20
1.3153838529
 30
0.0
 11
0.42
 21
0.9913595794
 31
0.0
  0
LINE
  5
B3
330
1F
100
AcDbEntity
  8
0
  6
Continuous
 62
     7
370
    25
100
AcDbLine
 10
0.7325
 20
1.7461907958
 30
0.0
 11
0.9812265045
 21
1.3153838529
 31
0.0
  0
LINE
  5
B4
330
1F
100
AcDbEntity
  8
0
  6
Continuous
 62
     7
370
    25
100
AcDbLine
 10
0.17
 20
1.7461907958
 30
0.0
 11
0.7325
 21
1.7461907958
 31
0.0
  0
LINE
  5
B5
330
1F
100
AcDbEntity
  8
0
  6
Continuous
 62
     7
370
    25
100
AcDbLine
 10
0.17
 20
2.1061907958
 30
0.0
 11
0.17
 21
1.7461907958
 31
0.0
  0
LINE
  5
B6
330
1F
100
AcDbEntity
  8
0
  6
Continuous
 62
     7
370
    25
100
AcDbLine
 10
1.45675
 20
2.1061907958
 30
0.0
 11
0.17
 21
2.1061907958
 31
0.0
  0
LINE
  5
B7
330
1F
100
AcDbEntity
  8
0
  6
Continuous
 62
     7
370
    25
100
AcDbLine
 10
1.51375
 20
2.0491907958
 30
0.0
 11
1.45675
 21
2.1061907958
 31
0.0
  0
LINE
  5
B8
330
1F
100
AcDbEntity
  8
0
  6
Continuous
 62
     7
370
    25
100
AcDbLine
 10
2.13325
 20
2.1061907958
 30
0.0
 11
2.07625
 21
2.0491907958
 31
0.0
  0
LINE
  5
B9
330
1F
100
AcDbEntity
  8
0
  6
Continuous
 62
     7
370
    25
100
AcDbLine
 10
3.42
 20
2.1061907958
 30
0.0
 11
2.13325
 21
2.1061907958
 31
0.0
  0
LINE
  5
BA
330
1F
100
AcDbEntity
  8
0
  6
Continuous
 62
     7
370
    25
100
AcDbLine
 10
3.42
 20
1.9761907958
 30
0.0
 11
3.42
 21
2.1061907958
 31
0.0
  0
LINE
  5
BB
330
1F
100
AcDbEntity
  8
0
  6
Continuous
 62
     7
370
    25
100
AcDbLine
 10
3.4
 20
1.9761907958
 30
0.0
 11
3.42
 21
1.9761907958
 31
0.0
  0
LINE
  5
BC
330
1F
100
AcDbEntity
  8
0
  6
Continuous
 62
     7
370
    25
100
AcDbLine
 10
3.4
 20
1.8761907958
 30
0.0
 11
3.4
 21
1.9761907958
 31
0.0
  0
LINE
  5
BD
330
1F
100
AcDbEntity
  8
0
  6
Continuous
 62
     7
370
    25
100
AcDbLine
 10
3.42
 20
1.8761907958
 30
0.0
 11
3.4
 21
1.8761907958
 31
0.0
  0
LINE
  5
BE
330
1F
100
AcDbEntity
  8
0
  6
Continuous
 62
     7
370
    25
100
AcDbLine
 10
3.42
 20
1.7461907958
 30
0.0
 11
3.42
 21
1.8761907958
 31
0.0
  0
LINE
  5
BF
330
1F
100
AcDbEntity
  8
0
  6
Continuous
 62
     7
370
    25
100
AcDbLine
 10
2.6087734955
 20
1.3153838529
 30
0.0
 11
2.8575
 21
1.7461907958
 31
0.0
  0
LINE
  5
C0
330
1F
100
AcDbEntity
  8
0
  6
Continuous
 62
     7
370
    25
100
AcDbLine
 10
3.17
 20
0.9913595794
 30
0.0
 11
2.6087734955
 21
1.3153838529
 31
0.0
  0
LINE
  5
C1
330
1F
100
AcDbEntity
  8
0
  6
Continuous
 62
     7
370
    25
100
AcDbLine
 10
3.17
 20
0.5341907958
 30
0.0
 11
3.17
 21
0.9913595794
 31
0.0
  0
LINE
  5
C2
330
1F
100
AcDbEntity
  8
0
  6
Continuous
 62
     7
370
    25
100
AcDbLine
 10
2.9618395609
 20
0.5341907958
 30
0.0
 11
3.17
 21
0.5341907958
 31
0.0
  0
LINE
  5
C3
330
1F
100
AcDbEntity
  8
0
  6
Continuous
 62
     7
370
    25
100
AcDbLine
 10
2.045
 20
1.3879407958
 30
0.0
 11
2.045
 21
1.5491907958
 31
0.0
  0
LINE
  5
C4
330
1F
100
AcDbEntity
  8
0
  6
Continuous
 62
     7
370
    25
100
AcDbLine
 10
2.045
 20
1.5491907958
 30
0.0
 11
1.545
 21
1.5491907958
 31
0.0
  0
LINE
  5
C5
330
1F
100
AcDbEntity
  8
0
  6
Continuous
 62
     7
370
    25
100
AcDbLine
 10
1.545
 20
1.5491907958
 30
0.0
 11
1.545
 21
1.3879407958
 31
0.0
  0
LINE
  5
C6
330
1F
100
AcDbEntity
  8
0
  6
Continuous
 62
     7
370
    25
100
AcDbLine
 10
2.07625
 20
2.0491907958
 30
0.0
 11
1.51375
 21
2.0491907958
 31
0.0
  0
ARC
  5
C7
330
1F
100
AcDbEntity
  8
0
  6
Continuous
 62
     7
370
    25
100
AcDbCircle
 10
1.795
 20
0.9191907958
 30
0.0
 40
0.5312500000000044
100
AcDbArc
 50
358.0724869359
 51
61.9275130641
  0
LINE
  5
C8
330
1F
100
AcDbEntity
  8
0
  6
Continuous
 62
     7
370
    25
100
AcDbLine
 10
2.8575
 20
1.7461907958
 30
0.0
 11
3.42
 21
1.7461907958
 31
0.0
  0
LINE
  5
C9
330
1F
100
AcDbEntity
  8
0
  6
Continuous
 62
     7
370
    25
100
AcDbLine
 10
2.325949408
 20
0.9013221467
 30
0.0
 11
2.9618395609
 21
0.5341907958
 31
0.0
  0
LINE
  5
CA
330
1F
100
AcDbEntity
  8
0
  6
Continuous
 62
     7
370
    25
100
AcDbLine
 10
3.32
 20
2.0961907958
 30
0.0
 11
3.42
 21
2.0961907958
 31
0.0
  0
LINE
  5
CB
330
1F
100
AcDbEntity
  8
0
  6
Continuous
 62
     7
370
    25
100
AcDbLine
 10
3.32
 20
2.0961907958
 30
0.0
 11
3.32
 21
2.1061907958
 31
0.0
  0
LINE
  5
CC
330
1F
100
AcDbEntity
  8
0
  6
Continuous
 62
     7
370
    25
100
AcDbLine
 10
3.32
 20
2.1061907958
 30
0.0
 11
3.42
 21
2.1061907958
 31
0.0
  0
LINE
  5
CD
330
1F
100
AcDbEntity
  8
0
  6
Continuous
 62
     7
370
    25
100
AcDbLine
 10
3.42
 20
2.0961907958
 30
0.0
 11
3.42
 21
2.1061907958
 31
0.0
  0
LINE
  5
CE
330
1F
100
AcDbEntity
  8
0
  6
Continuous
 62
     7
370
    25
100
AcDbLine
 10
3.32
 20
1.7411907958
 30
0.0
 11
3.32
 21
1.7311907958
 31
0.0
  0
LINE
  5
CF
330
1F
100
AcDbEntity
  8
0
  6
Continuous
 62
     7
370
    25
100
AcDbLine
 10
3.42
 20
1.7411907958
 30
0.0
 11
3.42
 21
1.7311907958
 31
0.0
  0
LINE
  5
D0
330
1F
100
AcDbEntity
  8
0
  6
Continuous
 62
     7
370
    25
100
AcDbLine
 10
3.32
 20
1.7411907958
 30
0.0
 11
3.42
 21
1.7411907958
 31
0.0
  0
LINE
  5
D1
330
1F
100
AcDbEntity
  8
0
  6
Continuous
 62
     7
370
    25
100
AcDbLine
 10
3.32
 20
1.7311907958
 30
0.0
 11
3.42
 21
1.7311907958
 31
0.0
  0
LINE
  5
D2
330
1F
100
AcDbEntity
  8
0
  6
Continuous
 62
     7
370
    25
100
AcDbLine
 10
2.01125
 20
2.0821907958
 30
0.0
 11
2.01125
 21
2.0821907958
 31
0.0
  0
LINE
  5
D3
330
1F
100
AcDbEntity
  8
0
  6
Continuous
 62
     7
370
    25
100
AcDbLine
 10
2.01125
 20
1.4161907958
 30
0.0
 11
2.045
 21
1.5491907958
 31
0.0
  0
LINE
  5
D4
330
1F
100
AcDbEntity
  8
0
  6
Continuous
 62
     7
370
    25
100
AcDbLine
 10
1.8359603467
 20
2.0821907958
 30
0.0
 11
1.8359603467
 21
2.0821907958
 31
0.0
  0
LINE
  5
D5
330
1F
100
AcDbEntity
  8
0
  6
Continuous
 62
     7
370
    25
100
AcDbLine
 10
1.8359603467
 20
1.4161907958
 30
0.0
 11
1.8359603467
 21
1.5491907958
 31
0.0
  0
LINE
  5
D6
330
1F
100
AcDbEntity
  8
0
  6
Continuous
 62
     7
370
    25
100
AcDbLine
 10
1.7540396533
 20
2.0821907958
 30
0.0
 11
1.7540396533
 21
2.0821907958
 31
0.0
  0
LINE
  5
D7
330
1F
100
AcDbEntity
  8
0
  6
Continuous
 62
     7
370
    25
100
AcDbLine
 10
1.7540396533
 20
1.4161907958
 30
0.0
 11
1.8359603467
 21
1.5491907958
 31
0.0
  0
LINE
  5
D8
330
1F
100
AcDbEntity
  8
0
  6
Continuous
 62
     7
370
    25
100
AcDbLine
 10
1.57625
 20
2.0821907958
 30
0.0
 11
1.57625
 21
2.0821907958
 31
0.0
  0
LINE
  5
D9
330
1F
100
AcDbEntity
  8
0
  6
Continuous
 62
     7
370
    25
100
AcDbLine
 10
1.57625
 20
1.4161907958
 30
0.0
 11
1.545
 21
1.5491907958
 31
0.0
  0
LINE
  5
DA
330
1F
100
AcDbEntity
  8
0
  6
Continuous
 62
     7
370
    25
100
AcDbLine
 10
2.04375
 20
1.5131907958
 30
0.0
 11
2.045
 21
1.5491907958
 31
0.0
  0
LINE
  5
DB
330
1F
100
AcDbEntity
  8
0
  6
Continuous
 62
     7
370
    25
100
AcDbLine
 10
1.54625
 20
1.5131907958
 30
0.0
 11
1.545
 21
1.5491907958
 31
0.0
  0
LINE
  5
DC
330
1F
100
AcDbEntity
  8
0
  6
Continuous
 62
     7
370
    25
100
AcDbLine
 10
0.9564700858
 20
0.1825672109
 30
0.0
 11
1.4475064897
 21
0.4660672109
 31
0.0
  0
LINE
  5
DD
330
1F
100
AcDbEntity
  8
0
  6
Continuous
 62
     7
370
    25
100
AcDbLine
 10
1.2287564897
 20
0.844953325
 30
0.0
 11
0.7377200858
 21
0.561453325
 31
0.0
  0
LINE
  5
DE
330
1F
100
AcDbEntity
  8
0
  6
Continuous
 62
     7
370
    25
100
AcDbLine
 10
1.0147306481
 20
0.2046569568
 30
0.0
 11
1.3992459274
 21
0.4266569568
 31
0.0
  0
LINE
  5
DF
330
1F
100
AcDbEntity
  8
0
  6
Continuous
 62
     7
370
    25
100
AcDbLine
 10
1.1769462449
 20
0.8366913014
 30
0.0
 11
0.7707803306
 21
0.6021913014
 31
0.0
  0
LINE
  5
E0
330
1F
100
AcDbEntity
  8
0
  6
Continuous
 62
     7
370
    25
100
AcDbLine
 10
0.6771110144
 20
1.428570457
 30
0.0
 11
0.5081155611
 21
1.3310008865
 31
0.0
  0
LINE
  5
E1
330
1F
100
AcDbEntity
  8
0
  6
Continuous
 62
     7
370
    25
100
AcDbLine
 10
0.460511996
 20
1.0148418208
 30
0.0
 11
0.9747145795
 21
1.3117168208
 31
0.0
  0
LINE
  5
E2
330
1F
100
AcDbEntity
  8
0
  6
Continuous
 62
     7
370
    25
100
AcDbLine
 10
0.9347145795
 20
1.3809988531
 30
0.0
 11
0.420511996
 21
1.0841238531
 31
0.0
  0
ARC
  5
E3
330
1F
100
AcDbEntity
  8
0
  6
Continuous
 62
     7
370
    25
100
AcDbCircle
 10
0.8633557476
 20
1.1351901729
 30
0.0
 40
0.3315839433277351
100
AcDbArc
 50
120.4833281443
 51
139.7728298562
  0
LWPOLYLINE
  5
E4
330
1F
100
AcDbEntity
  8
0
  6
Continuous
 62
     7
370
    25
100
AcDbPolyline
 90
        3
 70
   128
 43
0.0
 10
0.6101947687
 20
1.3493336534
 10
0.5567003315
 20
1.3348169297
 10
0.5057042592
 20
1.3115665248
  0
LINE
  5
E5
330
1F
100
AcDbEntity
  8
0
  6
Continuous
 62
     7
370
    25
100
AcDbLine
 10
0.5057042592
 20
1.3115665248
 30
0.0
 11
0.6951473163
 21
1.4209415248
 31
0.0
  0
LINE
  5
E6
330
1F
100
AcDbEntity
  8
0
  6
Continuous
 62
     7
370
    25
100
AcDbLine
 10
0.6776132878
 20
1.2325613531
 30
0.0
 11
0.6101947687
 21
1.3493336534
 31
0.0
  0
LWPOLYLINE
  5
E7
330
1F
100
AcDbEntity
  8
0
  6
Continuous
 62
     7
370
    25
100
AcDbPolyline
 90
        3
 70
   128
 43
0.0
 10
0.7996378258
 20
1.4587086534
 10
0.7461433886
 20
1.4441919297
 10
0.6951473163
 20
1.4209415248
  0
LINE
  5
E8
330
1F
100
AcDbEntity
  8
0
  6
Continuous
 62
     7
370
    25
100
AcDbLine
 10
0.9347145795
 20
1.3809988531
 30
0.0
 11
0.7996378258
 21
1.4587086534
 31
0.0
  0
LINE
  5
E9
330
1F
100
AcDbEntity
  8
0
  6
Continuous
 62
     7
370
    25
100
AcDbLine
 10
0.420511996
 20
1.0841238531
 30
0.0
 11
0.4207517117
 21
1.2399586534
 31
0.0
  0
ARC
  5
EA
330
1F
100
AcDbEntity
  8
0
  6
Continuous
 62
     7
370
    25
100
AcDbCircle
 10
0.6739126905
 20
1.0258151729
 30
0.0
 40
0.3315839433279145
100
AcDbArc
 50
120.4833281443
 51
139.7728298561
  0
LINE
  5
EB
330
1F
100
AcDbEntity
  8
0
  6
Continuous
 62
     7
370
    25
100
AcDbLine
 10
0.4207517117
 20
1.2399586534
 30
0.0
 11
0.4109827307
 21
1.2568790248
 31
0.0
  0
LINE
  5
EC
330
1F
100
AcDbEntity
  8
0
  6
Continuous
 62
     7
370
    25
100
AcDbLine
 10
0.4109827307
 20
1.2568790248
 30
0.0
 11
0.5057042592
 21
1.3115665248
 31
0.0
  0
LINE
  5
ED
330
1F
100
AcDbEntity
  8
0
  6
Continuous
 62
     7
370
    25
100
AcDbLine
 10
0.7898688448
 20
1.4756290248
 30
0.0
 11
0.7996378258
 21
1.4587086534
 31
0.0
  0
LINE
  5
EE
330
1F
100
AcDbEntity
  8
0
  6
Continuous
 62
     7
370
    25
100
AcDbLine
 10
0.6951473163
 20
1.4209415248
 30
0.0
 11
0.7898688448
 21
1.4756290248
 31
0.0
  0
LINE
  5
EF
330
1F
100
AcDbEntity
  8
0
  6
Continuous
 62
     7
370
    25
100
AcDbLine
 10
2.8522799142
 20
0.561453325
 30
0.0
 11
2.3612435103
 21
0.844953325
 31
0.0
  0
LINE
  5
F0
330
1F
100
AcDbEntity
  8
0
  6
Continuous
 62
     7
370
    25
100
AcDbLine
 10
2.1424935103
 20
0.4660672109
 30
0.0
 11
2.6335299142
 21
0.1825672109
 31
0.0
  0
LINE
  5
F1
330
1F
100
AcDbEntity
  8
0
  6
Continuous
 62
     7
370
    25
100
AcDbLine
 10
2.8192196694
 20
0.6021913014
 30
0.0
 11
2.4130537551
 21
0.8366913014
 31
0.0
  0
LINE
  5
F2
330
1F
100
AcDbEntity
  8
0
  6
Continuous
 62
     7
370
    25
100
AcDbLine
 10
2.1907540726
 20
0.4266569568
 30
0.0
 11
2.5752693519
 21
0.2046569568
 31
0.0
  0
LINE
  5
F3
330
1F
100
AcDbEntity
  8
0
  6
Continuous
 62
     7
370
    25
100
AcDbLine
 10
3.080195871
 20
1.3319757817
 30
0.0
 11
2.9145775535
 21
1.4275955618
 31
0.0
  0
LINE
  5
F4
330
1F
100
AcDbEntity
  8
0
  6
Continuous
 62
     8
370
    25
100
AcDbLine
 10
0.9168553491
 20
0.1931819476
 30
0.0
 11
1.4581212264
 21
0.5056819476
 31
0.0
  0
LINE
  5
F5
330
1F
100
AcDbEntity
  8
0
  6
Continuous
 62
     8
370
    25
100
AcDbLine
 10
1.2683712264
 20
0.8343385883
 30
0.0
 11
0.7271053491
 21
0.5218385883
 31
0.0
  0
LINE
  5
F6
330
1F
100
AcDbEntity
  8
0
  6
Continuous
 62
     8
370
    25
100
AcDbLine
 10
2.8628946509
 20
0.5218385883
 30
0.0
 11
2.3216287736
 21
0.8343385883
 31
0.0
  0
LINE
  5
F7
330
1F
100
AcDbEntity
  8
0
  6
Continuous
 62
     8
370
    25
100
AcDbLine
 10
2.1318787736
 20
0.5056819476
 30
0.0
 11
2.6731446509
 21
0.1931819476
 31
0.0
  0
LINE
  5
F8
330
1B
100
AcDbEntity
 67
     1
  8
0
  6
Continuous
 62
     7
370
    25
100
AcDbLine
 10
1.419375
 20
1.1632793208
 30
0.0
 11
1.419375
 21
1.2325613531
 31
0.0
  0
LINE
  5
F9
330
1B
100
AcDbEntity
 67
     1
  8
0
  6
Continuous
 62
     7
370
    25
100
AcDbLine
 10
0.825625
 20
1.2325613531
 30
0.0
 11
0.825625
 21
1.1632793208
 31
0.0
  0
LINE
  5
FA
330
1B
100
AcDbEntity
 67
     1
  8
0
  6
Continuous
 62
     7
370
    25
100
AcDbLine
 10
1.0275
 20
1.8304311798
 30
0.0
 11
1.0275
 21
1.7741341297
 31
0.0
  0
LINE
  5
FB
330
1B
100
AcDbEntity
 67
     1
  8
0
  6
Continuous
 62
     7
370
    25
100
AcDbLine
 10
1.2175
 20
1.7741341297
 30
0.0
 11
1.2175
 21
1.8304311798
 31
0.0
  0
LINE
  5
FC
330
1B
100
AcDbEntity
 67
     1
  8
0
  6
Continuous
 62
     7
370
    25
100
AcDbLine
 10
1.0275
 20
1.7741341297
 30
0.0
 11
1.0704433339
 21
1.7311907958
 31
0.0
  0
LINE
  5
FD
330
1B
100
AcDbEntity
 67
     1
  8
0
  6
Continuous
 62
     7
370
    25
100
AcDbLine
 10
1.1745566661
 20
1.7311907958
 30
0.0
 11
1.2175
 21
1.7741341297
 31
0.0
  0
LWPOLYLINE
  5
FE
330
1B
100
AcDbEntity
 67
     1
  8
0
  6
Continuous
 62
     7
370
    25
100
AcDbPolyline
 90
       68
 70
   128
 43
0.0
 10
1.1225
 20
0.1786819476
 10
1.1306111868
 20
0.1787371515
 10
1.1338622651
 20
0.1787902918
 10
1.1392615954
 20
0.1789178247
 10
1.1448588377
 20
0.1791019118
 10
1.1508534285
 20
0.1793578514
 10
1.1570981591
 20
0.1796894509
 10
1.1635316044
 20
0.1801008653
 10
1.1701038482
 20
0.1805948877
 10
1.1767782166
 20
0.1811735926
 10
1.1835264942
 20
0.1818385009
 10
1.1903264058
 20
0.1825907251
 10
1.1971598974
 20
0.1834310651
 10
1.2040119819
 20
0.1843600772
 10
1.2108699453
 20
0.1853781232
 10
1.2177227918
 20
0.1864854075
 10
1.2245608471
 20
0.1876820045
 10
1.2313754711
 20
0.1889678808
 10
1.2381588468
 20
0.1903429117
 10
1.244903821
 20
0.1918068958
 10
1.2516037849
 20
0.1933595664
 10
1.258252581
 20
0.1950006012
 10
1.2648444314
 20
0.1967296311
 10
1.2713738807
 20
0.1985462472
 10
1.2778357499
 20
0.2004500077
 10
1.2842250994
 20
0.2024404438
 10
1.2905371976
 20
0.2045170643
 10
1.2967674944
 20
0.2066793605
 10
1.3029115986
 20
0.20892681
 10
1.3089652568
 20
0.2112588793
 10
1.3149243352
 20
0.2136750265
 10
1.3207848014
 20
0.2161747016
 10
1.3265427076
 20
0.218757347
 10
1.3321941736
 20
0.2214223954
 10
1.3377353706
 20
0.2241692664
 10
1.3431625041
 20
0.2269973608
 10
1.3484717972
 20
0.2299060526
 10
1.3536594747
 20
0.2328946782
 10
1.3587217469
 20
0.2359625222
 10
1.363654795
 20
0.2391088007
 10
1.3684547592
 20
0.2423326402
 10
1.3731173066
 20
0.2456327476
 10
1.3776384147
 20
0.2490079032
 10
1.382014037
 20
0.2524567272
 10
1.386240093
 20
0.2559776392
 10
1.3903124913
 20
0.2595688358
 10
1.3942271602
 20
0.263228273
 10
1.3979800894
 20
0.2669536568
 10
1.4015673792
 20
0.2707424446
 10
1.4049852955
 20
0.2745918585
 10
1.4082303266
 20
0.2784989125
 10
1.4112992366
 20
0.2824604519
 10
1.4141891105
 20
0.2864732032
 10
1.4168973862
 20
0.2905338304
 10
1.4194218686
 20
0.2946389931
 10
1.4217607257
 20
0.2987854012
 10
1.4239124649
 20
0.3029698621
 10
1.4258758939
 20
0.3071893155
 10
1.4276500679
 20
0.3114408562
 10
1.4292342298
 20
0.3157217426
 10
1.430627747
 20
0.3200293937
 10
1.4318300495
 20
0.3243613766
 10
1.4328405728
 20
0.3287153873
 10
1.4336587072
 20
0.3330892283
 10
1.4342837555
 20
0.337480785
 10
1.4347148981
 20
0.3418880027
 10
1.4349511652
 20
0.3463088667
 10
1.4349796382
 20
0.3494443852
  0
LWPOLYLINE
  5
FF
330
1B
100
AcDbEntity
 67
     1
  8
0
  6
Continuous
 62
     7
370
    25
100
AcDbPolyline
 90
        3
 70
   128
 43
0.0
 10
1.1150326374
 20
0.178733214
 10
1.1189448536
 20
0.1786925512
 10
1.1225
 20
0.1786819476
  0
LINE
  5
100
330
1B
100
AcDbEntity
 67
     1
  8
0
  6
Continuous
 62
     7
370
    25
100
AcDbLine
 10
1.435
 20
0.3494319476
 30
0.0
 11
1.435
 21
0.5341907958
 31
0.0
  0
LINE
  5
101
330
1B
100
AcDbEntity
 67
     1
  8
0
  6
Continuous
 62
     7
370
    25
100
AcDbLine
 10
2.139375
 20
1.1632793208
 30
0.0
 11
2.139375
 21
1.2325613531
 31
0.0
  0
LINE
  5
102
330
1B
100
AcDbEntity
 67
     1
  8
0
  6
Continuous
 62
     7
370
    25
100
AcDbLine
 10
1.545625
 20
1.2325613531
 30
0.0
 11
1.545625
 21
1.1632793208
 31
0.0
  0
LWPOLYLINE
  5
103
330
1B
100
AcDbEntity
 67
     1
  8
0
  6
Continuous
 62
     7
370
    25
100
AcDbPolyline
 90
       68
 70
   128
 43
0.0
 10
1.8425
 20
0.1786819476
 10
1.8506111868
 20
0.1787371515
 10
1.8538622651
 20
0.1787902918
 10
1.8592615954
 20
0.1789178247
 10
1.8648588377
 20
0.1791019118
 10
1.8708534285
 20
0.1793578514
 10
1.8770981591
 20
0.1796894509
 10
1.8835316044
 20
0.1801008653
 10
1.8901038482
 20
0.1805948877
 10
1.8967782166
 20
0.1811735926
 10
1.9035264942
 20
0.1818385009
 10
1.9103264058
 20
0.1825907251
 10
1.9171598974
 20
0.1834310651
 10
1.9240119819
 20
0.1843600772
 10
1.9308699453
 20
0.1853781232
 10
1.9377227918
 20
0.1864854075
 10
1.9445608471
 20
0.1876820045
 10
1.9513754711
 20
0.1889678808
 10
1.9581588468
 20
0.1903429117
 10
1.964903821
 20
0.1918068958
 10
1.9716037849
 20
0.1933595664
 10
1.978252581
 20
0.1950006012
 10
1.9848444314
 20
0.1967296311
 10
1.9913738807
 20
0.1985462472
 10
1.9978357499
 20
0.2004500077
 10
2.0042250994
 20
0.2024404438
 10
2.0105371976
 20
0.2045170643
 10
2.0167674944
 20
0.2066793605
 10
2.0229115986
 20
0.20892681
 10
2.0289652568
 20
0.2112588793
 10
2.0349243352
 20
0.2136750265
 10
2.0407848014
 20
0.2161747016
 10
2.0465427076
 20
0.218757347
 10
2.0521941736
 20
0.2214223954
 10
2.0577353706
 20
0.2241692664
 10
2.0631625041
 20
0.2269973608
 10
2.0684717972
 20
0.2299060526
 10
2.0736594747
 20
0.2328946782
 10
2.0787217469
 20
0.2359625222
 10
2.083654795
 20
0.2391088007
 10
2.0884547592
 20
0.2423326402
 10
2.0931173066
 20
0.2456327476
 10
2.0976384147
 20
0.2490079032
 10
2.102014037
 20
0.2524567272
 10
2.106240093
 20
0.2559776392
 10
2.1103124913
 20
0.2595688358
 10
2.1142271602
 20
0.263228273
 10
2.1179800894
 20
0.2669536568
 10
2.1215673792
 20
0.2707424446
 10
2.1249852955
 20
0.2745918585
 10
2.1282303266
 20
0.2784989125
 10
2.1312992366
 20
0.2824604519
 10
2.1341891105
 20
0.2864732032
 10
2.1368973862
 20
0.2905338304
 10
2.1394218686
 20
0.2946389931
 10
2.1417607257
 20
0.2987854012
 10
2.1439124649
 20
0.3029698621
 10
2.1458758939
 20
0.3071893155
 10
2.1476500679
 20
0.3114408562
 10
2.1492342298
 20
0.3157217426
 10
2.150627747
 20
0.3200293937
 10
2.1518300495
 20
0.3243613766
 10
2.1528405728
 20
0.3287153873
 10
2.1536587072
 20
0.3330892283
 10
2.1542837555
 20
0.337480785
 10
2.1547148981
 20
0.3418880027
 10
2.1549511652
 20
0.3463088667
 10
2.1549796382
 20
0.3494443852
  0
LWPOLYLINE
  5
104
330
1B
100
AcDbEntity
 67
     1
  8
0
  6
Continuous
 62
     7
370
    25
100
AcDbPolyline
 90
        3
 70
   128
 43
0.0
 10
1.8350326374
 20
0.178733214
 10
1.8389448536
 20
0.1786925512
 10
1.8425
 20
0.1786819476
  0
LINE
  5
105
330
1B
100
AcDbEntity
 67
     1
  8
0
  6
Continuous
 62
     7
370
    25
100
AcDbLine
 10
2.155
 20
0.3494319476
 30
0.0
 11
2.155
 21
0.5341907958
 31
0.0
  0
LINE
  5
106
330
1B
100
AcDbEntity
 67
     1
  8
0
  6
Continuous
 62
     7
370
    25
100
AcDbLine
 10
1.7475
 20
1.8304311798
 30
0.0
 11
1.7475
 21
1.7741341297
 31
0.0
  0
LINE
  5
107
330
1B
100
AcDbEntity
 67
     1
  8
0
  6
Continuous
 62
     7
370
    25
100
AcDbLine
 10
1.9375
 20
1.7741341297
 30
0.0
 11
1.9375
 21
1.8304311798
 31
0.0
  0
LINE
  5
108
330
1B
100
AcDbEntity
 67
     1
  8
0
  6
Continuous
 62
     7
370
    25
100
AcDbLine
 10
1.7475
 20
1.7741341297
 30
0.0
 11
1.7904433339
 21
1.7311907958
 31
0.0
  0
LINE
  5
109
330
1B
100
AcDbEntity
 67
     1
  8
0
  6
Continuous
 62
     7
370
    25
100
AcDbLine
 10
1.8945566661
 20
1.7311907958
 30
0.0
 11
1.9375
 21
1.7741341297
 31
0.0
  0
LINE
  5
10A
330
1B
100
AcDbEntity
 67
     1
  8
0
  6
Continuous
 62
     7
370
    25
100
AcDbLine
 10
1.9328981602
 20
1.3880670766
 30
0.0
 11
1.9055732236
 21
1.4073887246
 31
0.0
  0
LINE
  5
10B
330
1B
100
AcDbEntity
 67
     1
  8
0
  6
Continuous
 62
     7
370
    25
100
AcDbLine
 10
1.7494267764
 20
1.4073887246
 30
0.0
 11
1.7320894403
 21
1.3951293767
 31
0.0
  0
LINE
  5
10C
330
1B
100
AcDbEntity
 67
     1
  8
0
  6
Continuous
 62
     7
370
    25
100
AcDbLine
 10
1.9576293916
 20
1.3490455732
 30
0.0
 11
1.9576293916
 21
1.3498994715
 31
0.0
  0
LINE
  5
10D
330
1B
100
AcDbEntity
 67
     1
  8
0
  6
Continuous
 62
     7
370
    25
100
AcDbLine
 10
2.14
 20
0.3494319476
 30
0.0
 11
2.14
 21
0.5341907958
 31
0.0
  0
LINE
  5
10E
330
1B
100
AcDbEntity
 67
     1
  8
0
  6
Continuous
 62
     7
370
    25
100
AcDbLine
 10
1.515
 20
0.5341907958
 30
0.0
 11
1.515
 21
0.3494319476
 31
0.0
  0
LWPOLYLINE
  5
10F
330
1B
100
AcDbEntity
 67
     1
  8
0
  6
Continuous
 62
     7
370
    25
100
AcDbPolyline
 90
       68
 70
   128
 43
0.0
 10
1.8275
 20
0.1786819476
 10
1.8356111868
 20
0.1787371515
 10
1.8388622651
 20
0.1787902918
 10
1.8442615954
 20
0.1789178247
 10
1.8498588377
 20
0.1791019118
 10
1.8558534286
 20
0.1793578514
 10
1.8620981591
 20
0.1796894509
 10
1.8685316044
 20
0.1801008653
 10
1.8751038482
 20
0.1805948877
 10
1.8817782166
 20
0.1811735926
 10
1.8885264942
 20
0.1818385009
 10
1.8953264058
 20
0.1825907251
 10
1.9021598974
 20
0.1834310651
 10
1.9090119819
 20
0.1843600772
 10
1.9158699453
 20
0.1853781232
 10
1.9227227918
 20
0.1864854075
 10
1.9295608471
 20
0.1876820045
 10
1.9363754711
 20
0.1889678808
 10
1.9431588468
 20
0.1903429117
 10
1.949903821
 20
0.1918068958
 10
1.9566037849
 20
0.1933595664
 10
1.963252581
 20
0.1950006012
 10
1.9698444314
 20
0.1967296311
 10
1.9763738807
 20
0.1985462472
 10
1.9828357499
 20
0.2004500077
 10
1.9892250994
 20
0.2024404438
 10
1.9955371976
 20
0.2045170643
 10
2.0017674944
 20
0.2066793605
 10
2.0079115986
 20
0.20892681
 10
2.0139652568
 20
0.2112588793
 10
2.0199243352
 20
0.2136750265
 10
2.0257848014
 20
0.2161747016
 10
2.0315427076
 20
0.218757347
 10
2.0371941736
 20
0.2214223954
 10
2.0427353706
 20
0.2241692664
 10
2.0481625041
 20
0.2269973608
 10
2.0534717972
 20
0.2299060526
 10
2.0586594747
 20
0.2328946782
 10
2.0637217469
 20
0.2359625222
 10
2.068654795
 20
0.2391088007
 10
2.0734547592
 20
0.2423326402
 10
2.0781173066
 20
0.2456327476
 10
2.0826384147
 20
0.2490079032
 10
2.087014037
 20
0.2524567272
 10
2.091240093
 20
0.2559776392
 10
2.0953124913
 20
0.2595688358
 10
2.0992271602
 20
0.263228273
 10
2.1029800894
 20
0.2669536568
 10
2.1065673792
 20
0.2707424446
 10
2.1099852955
 20
0.2745918585
 10
2.1132303266
 20
0.2784989125
 10
2.1162992366
 20
0.2824604519
 10
2.1191891105
 20
0.2864732032
 10
2.1218973862
 20
0.2905338304
 10
2.1244218686
 20
0.2946389931
 10
2.1267607257
 20
0.2987854012
 10
2.1289124649
 20
0.3029698621
 10
2.1308758939
 20
0.3071893155
 10
2.1326500679
 20
0.3114408562
 10
2.1342342298
 20
0.3157217426
 10
2.135627747
 20
0.3200293937
 10
2.1368300495
 20
0.3243613766
 10
2.1378405728
 20
0.3287153873
 10
2.1386587072
 20
0.3330892283
 10
2.1392837555
 20
0.337480785
 10
2.1397148981
 20
0.3418880027
 10
2.1399511652
 20
0.3463088667
 10
2.1399796662
 20
0.3494474673
  0
LWPOLYLINE
  5
110
330
1B
100
AcDbEntity
 67
     1
  8
0
  6
Continuous
 62
     7
370
    25
100
AcDbPolyline
 90
       67
 70
   128
 43
0.0
 10
1.5150207052
 20
0.3494573336
 10
1.515008584
 20
0.3481225124
 10
1.5151656765
 20
0.3436803346
 10
1.5155215033
 20
0.3392317891
 10
1.5160775645
 20
0.3347792411
 10
1.5168355643
 20
0.3303247495
 10
1.517797402
 20
0.3258704206
 10
1.5189651575
 20
0.3214184408
 10
1.5203410644
 20
0.3169711165
 10
1.5219274676
 20
0.3125309208
 10
1.5237267626
 20
0.3081005463
 10
1.5257413152
 20
0.3036829603
 10
1.5279733612
 20
0.2992814592
 10
1.530424888
 20
0.2948997146
 10
1.5330975037
 20
0.2905418056
 10
1.5359923011
 20
0.2862122289
 10
1.5391097288
 20
0.2819158823
 10
1.5424494805
 20
0.2776580164
 10
1.5460104164
 20
0.2734441554
 10
1.5497905252
 20
0.2692799915
 10
1.5537869347
 20
0.2651712604
 10
1.5579959678
 20
0.2611236102
 10
1.56241324
 20
0.2571424755
 10
1.5665517471
 20
0.2536296287
 10
1.5713369484
 20
0.2497987122
 10
1.5757932896
 20
0.2464295752
 10
1.5803940805
 20
0.2431313449
 10
1.5851349143
 20
0.2399059817
 10
1.5900117793
 20
0.2367549619
 10
1.5950202952
 20
0.2336798312
 10
1.6001565894
 20
0.2306816747
 10
1.6054169205
 20
0.2277614143
 10
1.6107976151
 20
0.2249198708
 10
1.6162950618
 20
0.2221577834
 10
1.6219057012
 20
0.2194758272
 10
1.6276260142
 20
0.2168746288
 10
1.633452511
 20
0.2143547777
 10
1.6393817195
 20
0.2119168358
 10
1.645410175
 20
0.209561345
 10
1.6515344093
 20
0.2072888317
 10
1.6577509417
 20
0.2050998113
 10
1.6640562694
 20
0.2029947898
 10
1.6704468591
 20
0.2009742654
 10
1.676919138
 20
0.1990387286
 10
1.6834694851
 20
0.1971886625
 10
1.6900942215
 20
0.1954245413
 10
1.6967895994
 20
0.1937468298
 10
1.7035517889
 20
0.1921559816
 10
1.7103768604
 20
0.1906524375
 10
1.7172607626
 20
0.189236624
 10
1.7241992901
 20
0.1879089518
 10
1.7311880382
 20
0.1866698133
 10
1.7382223349
 20
0.1855195818
 10
1.7452971362
 20
0.1844586095
 10
1.7524068604
 20
0.1834872267
 10
1.7595451104
 20
0.1826057406
 10
1.7667041925
 20
0.1818144359
 10
1.7738742244
 20
0.1811135766
 10
1.781041364
 20
0.1805034134
 10
1.7881839477
 20
0.1799842012
 10
1.7952629731
 20
0.1795562525
 10
1.8021942309
 20
0.1792201171
 10
1.8087412807
 20
0.1789774392
 10
1.8142278404
 20
0.1788297953
 10
1.818668786
 20
0.1787473896
 10
1.8239448536
 20
0.1786925512
 10
1.8275
 20
0.1786819476
  0
LINE
  5
111
330
1B
100
AcDbEntity
 67
     1
  8
0
  6
Continuous
 62
     7
370
    25
100
AcDbLine
 10
1.2128981602
 20
1.3880670766
 30
0.0
 11
1.1855732236
 21
1.4073887246
 31
0.0
  0
LINE
  5
112
330
1B
100
AcDbEntity
 67
     1
  8
0
  6
Continuous
 62
     7
370
    25
100
AcDbLine
 10
1.0294267764
 20
1.4073887246
 30
0.0
 11
1.0120894403
 21
1.3951293767
 31
0.0
  0
LINE
  5
113
330
1B
100
AcDbEntity
 67
     1
  8
0
  6
Continuous
 62
     7
370
    25
100
AcDbLine
 10
1.2376293916
 20
1.3490455732
 30
0.0
 11
1.2376293916
 21
1.3498994715
 31
0.0
  0
LINE
  5
114
330
1B
100
AcDbEntity
 67
     1
  8
0
  6
Continuous
 62
     7
370
    25
100
AcDbLine
 10
1.42
 20
0.3494319476
 30
0.0
 11
1.42
 21
0.5341907958
 31
0.0
  0
LINE
  5
115
330
1B
100
AcDbEntity
 67
     1
  8
0
  6
Continuous
 62
     7
370
    25
100
AcDbLine
 10
0.795
 20
0.5341907958
 30
0.0
 11
0.795
 21
0.3494319476
 31
0.0
  0
LWPOLYLINE
  5
116
330
1B
100
AcDbEntity
 67
     1
  8
0
  6
Continuous
 62
     7
370
    25
100
AcDbPolyline
 90
       68
 70
   128
 43
0.0
 10
1.1075
 20
0.1786819476
 10
1.1156111868
 20
0.1787371515
 10
1.1188622651
 20
0.1787902918
 10
1.1242615954
 20
0.1789178247
 10
1.1298588377
 20
0.1791019118
 10
1.1358534286
 20
0.1793578514
 10
1.1420981591
 20
0.1796894509
 10
1.1485316044
 20
0.1801008653
 10
1.1551038482
 20
0.1805948877
 10
1.1617782166
 20
0.1811735926
 10
1.1685264942
 20
0.1818385009
 10
1.1753264058
 20
0.1825907251
 10
1.1821598974
 20
0.1834310651
 10
1.1890119819
 20
0.1843600772
 10
1.1958699453
 20
0.1853781232
 10
1.2027227918
 20
0.1864854075
 10
1.2095608471
 20
0.1876820045
 10
1.2163754711
 20
0.1889678808
 10
1.2231588468
 20
0.1903429117
 10
1.229903821
 20
0.1918068958
 10
1.2366037849
 20
0.1933595664
 10
1.243252581
 20
0.1950006012
 10
1.2498444314
 20
0.1967296311
 10
1.2563738807
 20
0.1985462472
 10
1.2628357499
 20
0.2004500077
 10
1.2692250994
 20
0.2024404438
 10
1.2755371976
 20
0.2045170643
 10
1.2817674944
 20
0.2066793605
 10
1.2879115986
 20
0.20892681
 10
1.2939652568
 20
0.2112588793
 10
1.2999243352
 20
0.2136750265
 10
1.3057848014
 20
0.2161747016
 10
1.3115427076
 20
0.218757347
 10
1.3171941736
 20
0.2214223954
 10
1.3227353706
 20
0.2241692664
 10
1.3281625041
 20
0.2269973608
 10
1.3334717972
 20
0.2299060526
 10
1.3386594747
 20
0.2328946782
 10
1.3437217469
 20
0.2359625222
 10
1.348654795
 20
0.2391088007
 10
1.3534547592
 20
0.2423326402
 10
1.3581173066
 20
0.2456327476
 10
1.3626384147
 20
0.2490079032
 10
1.367014037
 20
0.2524567272
 10
1.371240093
 20
0.2559776392
 10
1.3753124913
 20
0.2595688358
 10
1.3792271602
 20
0.263228273
 10
1.3829800894
 20
0.2669536568
 10
1.3865673792
 20
0.2707424446
 10
1.3899852955
 20
0.2745918585
 10
1.3932303266
 20
0.2784989125
 10
1.3962992366
 20
0.2824604519
 10
1.3991891105
 20
0.2864732032
 10
1.4018973862
 20
0.2905338304
 10
1.4044218686
 20
0.2946389931
 10
1.4067607257
 20
0.2987854012
 10
1.4089124649
 20
0.3029698621
 10
1.4108758939
 20
0.3071893155
 10
1.4126500679
 20
0.3114408562
 10
1.4142342298
 20
0.3157217426
 10
1.415627747
 20
0.3200293937
 10
1.4168300495
 20
0.3243613766
 10
1.4178405728
 20
0.3287153873
 10
1.4186587072
 20
0.3330892283
 10
1.4192837555
 20
0.337480785
 10
1.4197148981
 20
0.3418880027
 10
1.4199511652
 20
0.3463088667
 10
1.4199796662
 20
0.3494474673
  0
LWPOLYLINE
  5
117
330
1B
100
AcDbEntity
 67
     1
  8
0
  6
Continuous
 62
     7
370
    25
100
AcDbPolyline
 90
       67
 70
   128
 43
0.0
 10
0.7950207052
 20
0.3494573336
 10
0.795008584
 20
0.3481225124
 10
0.7951656765
 20
0.3436803346
 10
0.7955215033
 20
0.3392317891
 10
0.7960775645
 20
0.3347792411
 10
0.7968355643
 20
0.3303247495
 10
0.797797402
 20
0.3258704206
 10
0.7989651575
 20
0.3214184408
 10
0.8003410644
 20
0.3169711165
 10
0.8019274676
 20
0.3125309208
 10
0.8037267626
 20
0.3081005463
 10
0.8057413152
 20
0.3036829603
 10
0.8079733612
 20
0.2992814592
 10
0.810424888
 20
0.2948997146
 10
0.8130975037
 20
0.2905418056
 10
0.8159923011
 20
0.2862122289
 10
0.8191097288
 20
0.2819158823
 10
0.8224494805
 20
0.2776580164
 10
0.8260104164
 20
0.2734441554
 10
0.8297905252
 20
0.2692799915
 10
0.8337869347
 20
0.2651712604
 10
0.8379959678
 20
0.2611236102
 10
0.84241324
 20
0.2571424755
 10
0.8465517471
 20
0.2536296287
 10
0.8513369484
 20
0.2497987122
 10
0.8557932896
 20
0.2464295752
 10
0.8603940805
 20
0.2431313449
 10
0.8651349143
 20
0.2399059817
 10
0.8700117793
 20
0.2367549619
 10
0.8750202952
 20
0.2336798312
 10
0.8801565894
 20
0.2306816747
 10
0.8854169205
 20
0.2277614143
 10
0.8907976151
 20
0.2249198708
 10
0.8962950618
 20
0.2221577834
 10
0.9019057012
 20
0.2194758272
 10
0.9076260142
 20
0.2168746288
 10
0.913452511
 20
0.2143547777
 10
0.9193817195
 20
0.2119168358
 10
0.925410175
 20
0.209561345
 10
0.9315344093
 20
0.2072888317
 10
0.9377509417
 20
0.2050998113
 10
0.9440562694
 20
0.2029947898
 10
0.9504468591
 20
0.2009742654
 10
0.956919138
 20
0.1990387286
 10
0.9634694851
 20
0.1971886625
 10
0.9700942215
 20
0.1954245413
 10
0.9767895994
 20
0.1937468298
 10
0.9835517889
 20
0.1921559816
 10
0.9903768604
 20
0.1906524375
 10
0.9972607626
 20
0.189236624
 10
1.0041992901
 20
0.1879089518
 10
1.0111880382
 20
0.1866698133
 10
1.0182223349
 20
0.1855195818
 10
1.0252971362
 20
0.1844586095
 10
1.0324068604
 20
0.1834872267
 10
1.0395451104
 20
0.1826057406
 10
1.0467041925
 20
0.1818144359
 10
1.0538742244
 20
0.1811135766
 10
1.061041364
 20
0.1805034134
 10
1.0681839477
 20
0.1799842012
 10
1.0752629731
 20
0.1795562525
 10
1.0821942309
 20
0.1792201171
 10
1.0887412807
 20
0.1789774392
 10
1.0942278404
 20
0.1788297953
 10
1.098668786
 20
0.1787473896
 10
1.1039448536
 20
0.1786925512
 10
1.1075
 20
0.1786819476
  0
ARC
  5
118
330
1B
100
AcDbEntity
 67
     1
  8
0
  6
Continuous
 62
     7
370
    25
100
AcDbCircle
 10
1.1274902653
 20
0.7398302491
 30
0.0
 40
0.5170728567818258
100
AcDbArc
 50
90.5529696156
 51
104.7085108093
  0
ARC
  5
119
330
1B
100
AcDbEntity
 67
     1
  8
0
  6
Continuous
 62
     7
370
    25
100
AcDbCircle
 10
0.6410478738
 20
0.9904097134
 30
0.0
 40
0.4340633524546421
100
AcDbArc
 50
35.0935842596
 51
47.7215904014
  0
ARC
  5
11A
330
1B
100
AcDbEntity
 67
     1
  8
0
  6
Continuous
 62
     7
370
    25
100
AcDbCircle
 10
1.1071798894
 20
1.5592773549
 30
0.0
 40
0.3027861553087605
100
AcDbArc
 50
234.8955320967
 51
272.9002403994
  0
LINE
  5
11B
330
1B
100
AcDbEntity
 67
     1
  8
0
  6
Continuous
 62
     7
370
    25
100
AcDbLine
 10
0.9962046286
 20
1.1231863531
 30
0.0
 11
1.2487953714
 21
1.1231863531
 31
0.0
  0
LINE
  5
11C
330
1B
100
AcDbEntity
 67
     1
  8
0
  6
Continuous
 62
     7
370
    25
100
AcDbLine
 10
0.9962046286
 20
1.1231863531
 30
0.0
 11
0.9962046286
 21
1.2399586534
 31
0.0
  0
ARC
  5
11D
330
1B
100
AcDbEntity
 67
     1
  8
0
  6
Continuous
 62
     7
370
    25
100
AcDbCircle
 10
1.1172244341
 20
0.7377007367
 30
0.0
 40
0.5192050909549502
100
AcDbArc
 50
75.3207035043
 51
89.4178160708
  0
LINE
  5
11E
330
1B
100
AcDbEntity
 67
     1
  8
0
  6
Continuous
 62
     7
370
    25
100
AcDbLine
 10
1.2487953714
 20
1.1231863531
 30
0.0
 11
1.2487953714
 21
1.2399586534
 31
0.0
  0
ARC
  5
11F
330
1B
100
AcDbEntity
 67
     1
  8
0
  6
Continuous
 62
     7
370
    25
100
AcDbCircle
 10
1.6031455619
 20
0.9911209854
 30
0.0
 40
0.4329945063226792
100
AcDbArc
 50
132.2627598562
 51
144.9220654828
  0
ARC
  5
120
330
1B
100
AcDbEntity
 67
     1
  8
0
  6
Continuous
 62
     7
370
    25
100
AcDbCircle
 10
1.1381958227
 20
1.5579758501
 30
0.0
 40
0.3015056500938313
100
AcDbArc
 50
267.0159395513
 51
305.1882879527
  0
ARC
  5
121
330
1B
100
AcDbEntity
 67
     1
  8
0
  6
Continuous
 62
     7
370
    25
100
AcDbCircle
 10
0.9714084274
 20
1.3662540248
 30
0.0
 40
0.0667949026174771
100
AcDbArc
 50
125.0413757956
 51
234.9586242044
  0
ARC
  5
122
330
1B
100
AcDbEntity
 67
     1
  8
0
  6
Continuous
 62
     7
370
    25
100
AcDbCircle
 10
1.1068041773
 20
1.1745321995
 30
0.0
 40
0.3015056500938307
100
AcDbArc
 50
87.0159395513
 51
125.1882879527
  0
ARC
  5
123
330
1B
100
AcDbEntity
 67
     1
  8
0
  6
Continuous
 62
     7
370
    25
100
AcDbCircle
 10
1.1378201106
 20
1.1732306947
 30
0.0
 40
0.3027861553087613
100
AcDbArc
 50
54.8955320967
 51
92.9002403994
  0
ARC
  5
124
330
1B
100
AcDbEntity
 67
     1
  8
0
  6
Continuous
 62
     7
370
    25
100
AcDbCircle
 10
1.2735915726
 20
1.3662540248
 30
0.0
 40
0.0667949026174776
100
AcDbArc
 50
305.0413757956
 51
54.9586242044
  0
LWPOLYLINE
  5
125
330
1B
100
AcDbEntity
 67
     1
  8
0
  6
Continuous
 62
     7
370
    25
100
AcDbPolyline
 90
      157
 70
   128
 43
0.0
 10
1.1225
 20
1.2987540248
 10
1.1279359019
 20
1.2988087674
 10
1.1333629868
 20
1.2989729065
 10
1.1387724518
 20
1.2992461758
 10
1.1441555229
 20
1.2996281321
 10
1.1495034687
 20
1.3001181558
 10
1.1548076147
 20
1.3007154521
 10
1.1600593576
 20
1.3014190523
 10
1.1652501792
 20
1.302227815
 10
1.1703716598
 20
1.3031404284
 10
1.1754154923
 20
1.3041554124
 10
1.1803734958
 20
1.3052711205
 10
1.1852376282
 20
1.3064857431
 10
1.19
 20
1.30779731
 10
1.1946528865
 20
1.309203694
 10
1.1991887408
 20
1.3107026139
 10
1.2036002057
 20
1.3122916383
 10
1.2078801257
 20
1.3139681899
 10
1.2120215589
 20
1.3157295493
 10
1.2160177877
 20
1.3175728596
 10
1.2198623304
 20
1.3194951309
 10
1.223548951
 20
1.3214932454
 10
1.2270716698
 20
1.323563962
 10
1.2304247731
 20
1.325703922
 10
1.2336028219
 20
1.3279096544
 10
1.2366006615
 20
1.3301775815
 10
1.2394134295
 20
1.3325040248
 10
1.2420365635
 20
1.3348852107
 10
1.2444658087
 20
1.3373172769
 10
1.2466972249
 20
1.3397962786
 10
1.2487271928
 20
1.3423181949
 10
1.2505524197
 20
1.3448789352
 10
1.2521699451
 20
1.347474346
 10
1.2535771454
 20
1.3501002175
 10
1.254771738
 20
1.3527522905
 10
1.2557517855
 20
1.3554262633
 10
1.256515698
 20
1.3581177989
 10
1.2570622366
 20
1.3608225314
 10
1.2573905148
 20
1.3635360738
 10
1.2575
 20
1.3662540248
 10
1.2573905148
 20
1.3689719758
 10
1.2570622366
 20
1.3716855182
 10
1.256515698
 20
1.3743902507
 10
1.2557517855
 20
1.3770817863
 10
1.254771738
 20
1.3797557591
 10
1.2535771454
 20
1.3824078321
 10
1.2521699451
 20
1.3850337036
 10
1.2505524197
 20
1.3876291144
 10
1.2487271928
 20
1.3901898547
 10
1.2466972249
 20
1.392711771
 10
1.2444658087
 20
1.3951907727
 10
1.2420365635
 20
1.3976228389
 10
1.2394134295
 20
1.4000040248
 10
1.2366006615
 20
1.4023304681
 10
1.2336028219
 20
1.4045983952
 10
1.2304247731
 20
1.4068041276
 10
1.2270716698
 20
1.4089440877
 10
1.223548951
 20
1.4110148042
 10
1.2198623304
 20
1.4130129187
 10
1.2160177877
 20
1.41493519
 10
1.2120215589
 20
1.4167785003
 10
1.2078801257
 20
1.4185398597
 10
1.2036002057
 20
1.4202164113
 10
1.1991887408
 20
1.4218054358
 10
1.1946528865
 20
1.4233043556
 10
1.19
 20
1.4247107396
 10
1.1852376282
 20
1.4260223065
 10
1.1803734958
 20
1.4272369291
 10
1.1754154923
 20
1.4283526372
 10
1.1703716598
 20
1.4293676212
 10
1.1652501792
 20
1.4302802346
 10
1.1600593576
 20
1.4310889973
 10
1.1548076147
 20
1.4317925975
 10
1.1495034687
 20
1.4323898938
 10
1.1441555229
 20
1.4328799175
 10
1.1387724518
 20
1.4332618738
 10
1.1333629868
 20
1.4335351431
 10
1.1279359019
 20
1.4336992822
 10
1.1225
 20
1.4337540248
 10
1.1170640981
 20
1.4336992822
 10
1.1116370132
 20
1.4335351431
 10
1.1062275482
 20
1.4332618738
 10
1.1008444771
 20
1.4328799175
 10
1.0954965313
 20
1.4323898938
 10
1.0901923853
 20
1.4317925975
 10
1.0849406424
 20
1.4310889973
 10
1.0797498208
 20
1.4302802346
 10
1.0746283402
 20
1.4293676212
 10
1.0695845077
 20
1.4283526372
 10
1.0646265042
 20
1.4272369291
 10
1.0597623718
 20
1.4260223065
 10
1.055
 20
1.4247107396
 10
1.0503471135
 20
1.4233043556
 10
1.0458112592
 20
1.4218054358
 10
1.0413997943
 20
1.4202164113
 10
1.0371198743
 20
1.4185398597
 10
1.0329784411
 20
1.4167785003
 10
1.0289822123
 20
1.41493519
 10
1.0251376696
 20
1.4130129187
 10
1.021451049
 20
1.4110148042
 10
1.0179283302
 20
1.4089440877
 10
1.0145752269
 20
1.4068041276
 10
1.0113971781
 20
1.4045983952
 10
1.0083993385
 20
1.4023304681
 10
1.0055865705
 20
1.4000040248
 10
1.0029634365
 20
1.3976228389
 10
1.0005341913
 20
1.3951907727
 10
0.9983027751
 20
1.392711771
 10
0.9962728072
 20
1.3901898547
 10
0.9944475803
 20
1.3876291144
 10
0.9928300549
 20
1.3850337036
 10
0.9914228546
 20
1.3824078321
 10
0.990228262
 20
1.3797557591
 10
0.9892482145
 20
1.3770817863
 10
0.988484302
 20
1.3743902507
 10
0.9879377634
 20
1.3716855182
 10
0.9876094852
 20
1.3689719758
 10
0.9875
 20
1.3662540248
 10
0.9876094852
 20
1.3635360738
 10
0.9879377634
 20
1.3608225314
 10
0.988484302
 20
1.3581177989
 10
0.9892482145
 20
1.3554262633
 10
0.990228262
 20
1.3527522905
 10
0.9914228546
 20
1.3501002175
 10
0.9928300549
 20
1.347474346
 10
0.9944475803
 20
1.3448789352
 10
0.9962728072
 20
1.3423181949
 10
0.9983027751
 20
1.3397962786
 10
1.0005341913
 20
1.3373172769
 10
1.0029634365
 20
1.3348852107
 10
1.0055865705
 20
1.3325040248
 10
1.0083993385
 20
1.3301775815
 10
1.0113971781
 20
1.3279096544
 10
1.0145752269
 20
1.325703922
 10
1.0179283302
 20
1.323563962
 10
1.021451049
 20
1.3214932454
 10
1.0251376696
 20
1.3194951309
 10
1.0289822123
 20
1.3175728596
 10
1.0329784411
 20
1.3157295493
 10
1.0371198743
 20
1.3139681899
 10
1.0413997943
 20
1.3122916383
 10
1.0458112592
 20
1.3107026139
 10
1.0503471135
 20
1.309203694
 10
1.055
 20
1.30779731
 10
1.0597623718
 20
1.3064857431
 10
1.0646265042
 20
1.3052711205
 10
1.0695845077
 20
1.3041554124
 10
1.0746283402
 20
1.3031404284
 10
1.0797498208
 20
1.302227815
 10
1.0849406424
 20
1.3014190523
 10
1.0901923853
 20
1.3007154521
 10
1.0954965313
 20
1.3001181558
 10
1.1008444771
 20
1.2996281321
 10
1.1062275482
 20
1.2992461758
 10
1.1116370132
 20
1.2989729065
 10
1.1170640981
 20
1.2988087674
 10
1.1225
 20
1.2987540248
  0
LWPOLYLINE
  5
126
330
1B
100
AcDbEntity
 67
     1
  8
0
  6
Continuous
 62
     7
370
    25
100
AcDbPolyline
 90
       59
 70
   128
 43
0.0
 10
1.1225
 20
1.0148418208
 10
1.1305739855
 20
1.0148967271
 10
1.1386419979
 20
1.0150614056
 10
1.1466980686
 20
1.0153357343
 10
1.1547362377
 20
1.0157195104
 10
1.1627505588
 20
1.0162124498
 10
1.170735103
 20
1.016814188
 10
1.1786839632
 20
1.0175242798
 10
1.186591259
 20
1.0183421998
 10
1.1944511407
 20
1.019267343
 10
1.2022577936
 20
1.020299025
 10
1.2100054424
 20
1.0214364824
 10
1.2176883555
 20
1.022678874
 10
1.2253008491
 20
1.0240252804
 10
1.2328372915
 20
1.0254747057
 10
1.2402921075
 20
1.0270260777
 10
1.2476597818
 20
1.0286782485
 10
1.2549348642
 20
1.030429996
 10
1.2621119724
 20
1.0322800242
 10
1.2691857969
 20
1.0342269646
 10
1.2761511047
 20
1.0362693766
 10
1.2830027427
 20
1.0384057495
 10
1.2897356422
 20
1.0406345027
 10
1.2963448224
 20
1.0429539875
 10
1.3028253937
 20
1.0453624878
 10
1.3091725619
 20
1.0478582219
 10
1.3153816315
 20
1.0504393435
 10
1.321448009
 20
1.0531039432
 10
1.3273672065
 20
1.0558500495
 10
1.3331348452
 20
1.0586756311
 10
1.3387466581
 20
1.0615785975
 10
1.3441984937
 20
1.0645568012
 10
1.3494863187
 20
1.0676080389
 10
1.3546062214
 20
1.0707300533
 10
1.3595544139
 20
1.0739205349
 10
1.3643272358
 20
1.0771771233
 10
1.368921156
 20
1.0804974093
 10
1.3733327761
 20
1.0838789366
 10
1.3775588324
 20
1.0873192036
 10
1.3815961985
 20
1.0908156652
 10
1.3854418876
 20
1.0943657348
 10
1.3890930547
 20
1.097966786
 10
1.3925469986
 20
1.1016161548
 10
1.3958011642
 20
1.1053111415
 10
1.3988531441
 20
1.1090490125
 10
1.4017006805
 20
1.1128270026
 10
1.4043416667
 20
1.1166423169
 10
1.406774149
 20
1.1204921328
 10
1.4089963279
 20
1.1243736022
 10
1.4110065593
 20
1.1282838538
 10
1.4128033563
 20
1.1322199947
 10
1.4143853895
 20
1.136179113
 10
1.4157514885
 20
1.1401582798
 10
1.4169006427
 20
1.1441545513
 10
1.4178320019
 20
1.1481649712
 10
1.4185448773
 20
1.1521865725
 10
1.4190387413
 20
1.1562163802
 10
1.4193132287
 20
1.1602514129
 10
1.419375
 20
1.1632793208
  0
LWPOLYLINE
  5
127
330
1B
100
AcDbEntity
 67
     1
  8
0
  6
Continuous
 62
     7
370
    25
100
AcDbPolyline
 90
       59
 70
   128
 43
0.0
 10
0.825625
 20
1.1632793208
 10
0.8256867713
 20
1.1602514129
 10
0.8259612587
 20
1.1562163802
 10
0.8264551227
 20
1.1521865725
 10
0.8271679981
 20
1.1481649712
 10
0.8280993573
 20
1.1441545513
 10
0.8292485115
 20
1.1401582798
 10
0.8306146105
 20
1.136179113
 10
0.8321966437
 20
1.1322199947
 10
0.8339934407
 20
1.1282838538
 10
0.8360036721
 20
1.1243736022
 10
0.838225851
 20
1.1204921328
 10
0.8406583333
 20
1.1166423169
 10
0.8432993195
 20
1.1128270026
 10
0.8461468559
 20
1.1090490125
 10
0.8491988358
 20
1.1053111415
 10
0.8524530014
 20
1.1016161548
 10
0.8559069453
 20
1.097966786
 10
0.8595581124
 20
1.0943657348
 10
0.8634038015
 20
1.0908156652
 10
0.8674411676
 20
1.0873192036
 10
0.8716672239
 20
1.0838789366
 10
0.876078844
 20
1.0804974093
 10
0.8806727642
 20
1.0771771233
 10
0.8854455861
 20
1.0739205349
 10
0.8903937786
 20
1.0707300533
 10
0.8955136813
 20
1.0676080389
 10
0.9008015063
 20
1.0645568012
 10
0.9062533419
 20
1.0615785975
 10
0.9118651548
 20
1.0586756311
 10
0.9176327935
 20
1.0558500495
 10
0.923551991
 20
1.0531039432
 10
0.9296183685
 20
1.0504393435
 10
0.9358274381
 20
1.0478582219
 10
0.9421746063
 20
1.0453624878
 10
0.9486551776
 20
1.0429539875
 10
0.9552643578
 20
1.0406345027
 10
0.9619972573
 20
1.0384057495
 10
0.9688488953
 20
1.0362693766
 10
0.9758142031
 20
1.0342269646
 10
0.9828880276
 20
1.0322800242
 10
0.9900651358
 20
1.030429996
 10
0.9973402182
 20
1.0286782485
 10
1.0047078925
 20
1.0270260777
 10
1.0121627085
 20
1.0254747057
 10
1.0196991509
 20
1.0240252804
 10
1.0273116445
 20
1.022678874
 10
1.0349945576
 20
1.0214364824
 10
1.0427422064
 20
1.020299025
 10
1.0505488593
 20
1.019267343
 10
1.058408741
 20
1.0183421998
 10
1.0663160368
 20
1.0175242798
 10
1.074264897
 20
1.016814188
 10
1.0822494412
 20
1.0162124498
 10
1.0902637623
 20
1.0157195104
 10
1.0983019314
 20
1.0153357343
 10
1.1063580021
 20
1.0150614056
 10
1.1144260145
 20
1.0148967271
 10
1.1225
 20
1.0148418208
  0
LWPOLYLINE
  5
128
330
1B
100
AcDbEntity
 67
     1
  8
0
  6
Continuous
 62
     7
370
    25
100
AcDbPolyline
 90
      158
 70
   128
 43
0.0
 10
1.3750907428
 20
1.3105560361
 10
1.3775588324
 20
1.3085214703
 10
1.3815961985
 20
1.3050250087
 10
1.3854418876
 20
1.3014749391
 10
1.3890930547
 20
1.2978738879
 10
1.3925469986
 20
1.2942245191
 10
1.3958011642
 20
1.2905295324
 10
1.3988531441
 20
1.2867916614
 10
1.4017006805
 20
1.2830136713
 10
1.4043416667
 20
1.279198357
 10
1.406774149
 20
1.2753485411
 10
1.4089963279
 20
1.2714670717
 10
1.4110065593
 20
1.2675568201
 10
1.4128033563
 20
1.2636206792
 10
1.4143853895
 20
1.2596615609
 10
1.4157514885
 20
1.2556823941
 10
1.4169006427
 20
1.2516861225
 10
1.4178320019
 20
1.2476757027
 10
1.4185448773
 20
1.2436541014
 10
1.4190387413
 20
1.2396242937
 10
1.4193132287
 20
1.235589261
 10
1.4193681363
 20
1.2315519882
 10
1.4192034236
 20
1.2275154622
 10
1.4188192124
 20
1.2234826691
 10
1.4182157869
 20
1.2194565923
 10
1.4173935935
 20
1.2154402102
 10
1.4163532406
 20
1.2114364943
 10
1.4150954976
 20
1.2074484063
 10
1.4136212952
 20
1.2034788967
 10
1.4119317239
 20
1.199530902
 10
1.4100280337
 20
1.1956073429
 10
1.4079116328
 20
1.191711122
 10
1.4055840869
 20
1.1878451218
 10
1.4030471181
 20
1.1840122023
 10
1.400302603
 20
1.180215199
 10
1.397352572
 20
1.1764569209
 10
1.3941992077
 20
1.1727401483
 10
1.3908448427
 20
1.1690676309
 10
1.3872919586
 20
1.1654420856
 10
1.3835431839
 20
1.1618661945
 10
1.3796012917
 20
1.1583426031
 10
1.3754691984
 20
1.154873918
 10
1.3711499608
 20
1.1514627054
 10
1.3666467741
 20
1.1481114888
 10
1.3619629699
 20
1.1448227475
 10
1.3571020132
 20
1.1415989144
 10
1.3520675
 20
1.1384423745
 10
1.3468631549
 20
1.1353554629
 10
1.3414928279
 20
1.1323404634
 10
1.3359604921
 20
1.1293996064
 10
1.3302702401
 20
1.1265350675
 10
1.3244262815
 20
1.1237489659
 10
1.3184329398
 20
1.1210433627
 10
1.3122946486
 20
1.1184202595
 10
1.306015949
 20
1.1158815968
 10
1.2996014861
 20
1.1134292528
 10
1.293056005
 20
1.1110650416
 10
1.2863843482
 20
1.1087907123
 10
1.2795914512
 20
1.1066079474
 10
1.2726823394
 20
1.1045183617
 10
1.265662124
 20
1.102523501
 10
1.2585359986
 20
1.1006248412
 10
1.2513092351
 20
1.0988237868
 10
1.2439871796
 20
1.0971216702
 10
1.236575249
 20
1.0955197507
 10
1.2290789265
 20
1.0940192133
 10
1.221503758
 20
1.0926211681
 10
1.2138553473
 20
1.0913266494
 10
1.2061393528
 20
1.0901366148
 10
1.1983614827
 20
1.0890519448
 10
1.1905274909
 20
1.0880734417
 10
1.182643173
 20
1.0872018295
 10
1.1747143617
 20
1.086437753
 10
1.1667469228
 20
1.0857817773
 10
1.1587467503
 20
1.0852343879
 10
1.1507197629
 20
1.0847959896
 10
1.1426718987
 20
1.0844669068
 10
1.1346091115
 20
1.0842473829
 10
1.1265373661
 20
1.0841375803
 10
1.1184626339
 20
1.0841375803
 10
1.1103908885
 20
1.0842473829
 10
1.1023281013
 20
1.0844669068
 10
1.0942802371
 20
1.0847959896
 10
1.0862532497
 20
1.0852343879
 10
1.0782530772
 20
1.0857817773
 10
1.0702856383
 20
1.086437753
 10
1.062356827
 20
1.0872018295
 10
1.0544725091
 20
1.0880734417
 10
1.0466385173
 20
1.0890519448
 10
1.0388606472
 20
1.0901366148
 10
1.0311446527
 20
1.0913266494
 10
1.023496242
 20
1.0926211681
 10
1.0159210735
 20
1.0940192133
 10
1.008424751
 20
1.0955197507
 10
1.0010128204
 20
1.0971216702
 10
0.9936907649
 20
1.0988237868
 10
0.9864640014
 20
1.1006248412
 10
0.979337876
 20
1.102523501
 10
0.9723176606
 20
1.1045183617
 10
0.9654085488
 20
1.1066079474
 10
0.9586156518
 20
1.1087907123
 10
0.951943995
 20
1.1110650416
 10
0.9453985139
 20
1.1134292528
 10
0.938984051
 20
1.1158815968
 10
0.9327053514
 20
1.1184202595
 10
0.9265670602
 20
1.1210433627
 10
0.9205737185
 20
1.1237489659
 10
0.9147297599
 20
1.1265350675
 10
0.9090395079
 20
1.1293996064
 10
0.9035071721
 20
1.1323404634
 10
0.8981368451
 20
1.1353554629
 10
0.8929325
 20
1.1384423745
 10
0.8878979868
 20
1.1415989144
 10
0.8830370301
 20
1.1448227475
 10
0.8783532259
 20
1.1481114888
 10
0.8738500392
 20
1.1514627054
 10
0.8695308016
 20
1.154873918
 10
0.8653987083
 20
1.1583426031
 10
0.8614568161
 20
1.1618661945
 10
0.8577080414
 20
1.1654420856
 10
0.8541551573
 20
1.1690676309
 10
0.8508007923
 20
1.1727401483
 10
0.847647428
 20
1.1764569209
 10
0.844697397
 20
1.180215199
 10
0.8419528819
 20
1.1840122023
 10
0.8394159131
 20
1.1878451218
 10
0.8370883672
 20
1.191711122
 10
0.8349719663
 20
1.1956073429
 10
0.8330682761
 20
1.199530902
 10
0.8313787048
 20
1.2034788967
 10
0.8299045024
 20
1.2074484063
 10
0.8286467594
 20
1.2114364943
 10
0.8276064065
 20
1.2154402102
 10
0.8267842131
 20
1.2194565923
 10
0.8261807876
 20
1.2234826691
 10
0.8257965764
 20
1.2275154622
 10
0.8256318637
 20
1.2315519882
 10
0.8256867713
 20
1.235589261
 10
0.8259612587
 20
1.2396242937
 10
0.8264551227
 20
1.2436541014
 10
0.8271679981
 20
1.2476757027
 10
0.8280993573
 20
1.2516861225
 10
0.8292485115
 20
1.2556823941
 10
0.8306146105
 20
1.2596615609
 10
0.8321966437
 20
1.2636206792
 10
0.8339934407
 20
1.2675568201
 10
0.8360036721
 20
1.2714670717
 10
0.838225851
 20
1.2753485411
 10
0.8406583333
 20
1.279198357
 10
0.8432993195
 20
1.2830136713
 10
0.8461468559
 20
1.2867916614
 10
0.8491988358
 20
1.2905295324
 10
0.8524530014
 20
1.2942245191
 10
0.8559069453
 20
1.2978738879
 10
0.8595581124
 20
1.3014749391
 10
0.8634038015
 20
1.3050250087
 10
0.8674411676
 20
1.3085214703
 10
0.8699092572
 20
1.3105560361
  0
LINE
  5
129
330
1B
100
AcDbEntity
 67
     1
  8
0
  6
Continuous
 62
     7
370
    25
100
AcDbLine
 10
0.8699092572
 20
1.2325613531
 30
0.0
 11
0.9962046286
 21
1.1231863531
 31
0.0
  0
LINE
  5
12A
330
1B
100
AcDbEntity
 67
     1
  8
0
  6
Continuous
 62
     7
370
    25
100
AcDbLine
 10
1.2487953714
 20
1.1231863531
 30
0.0
 11
1.3750907428
 21
1.2325613531
 31
0.0
  0
LINE
  5
12B
330
1B
100
AcDbEntity
 67
     1
  8
0
  6
Continuous
 62
     7
370
    25
100
AcDbLine
 10
0.8699092572
 20
1.2325613531
 30
0.0
 11
0.8699092572
 21
1.3493336534
 31
0.0
  0
ARC
  5
12C
330
1B
100
AcDbEntity
 67
     1
  8
0
  6
Continuous
 62
     7
370
    25
100
AcDbCircle
 10
0.8006346108
 20
1.1618286203
 30
0.0
 40
0.1998927564613313
100
AcDbArc
 50
48.51171592
 51
69.723004144
  0
ARC
  5
12D
330
1B
100
AcDbEntity
 67
     1
  8
0
  6
Continuous
 62
     7
370
    25
100
AcDbCircle
 10
1.4440954193
 20
1.1622800173
 30
0.0
 40
0.199375796320532
100
AcDbArc
 50
110.2491768511
 51
131.5161030849
  0
LINE
  5
12E
330
1B
100
AcDbEntity
 67
     1
  8
0
  6
Continuous
 62
     7
370
    25
100
AcDbLine
 10
1.3750907428
 20
1.2325613531
 30
0.0
 11
1.3750907428
 21
1.3493336534
 31
0.0
  0
ARC
  5
12F
330
1B
100
AcDbEntity
 67
     1
  8
0
  6
Continuous
 62
     7
370
    25
100
AcDbCircle
 10
1.0207405523
 20
1.1004959854
 30
0.0
 40
0.4329945063226677
100
AcDbArc
 50
35.0779345172
 51
47.7372401438
  0
ARC
  5
130
330
1B
100
AcDbEntity
 67
     1
  8
0
  6
Continuous
 62
     7
370
    25
100
AcDbCircle
 10
1.2250660121
 20
1.0997847134
 30
0.0
 40
0.4340633524546895
100
AcDbArc
 50
132.2784095986
 51
144.9064157404
  0
ARC
  5
131
330
1B
100
AcDbEntity
 67
     1
  8
0
  6
Continuous
 62
     7
370
    25
100
AcDbCircle
 10
1.1172512243
 20
0.9566507015
 30
0.0
 40
0.519004864793134
100
AcDbArc
 50
75.3179704423
 51
89.4205491329
  0
ARC
  5
132
330
1B
100
AcDbEntity
 67
     1
  8
0
  6
Continuous
 62
     7
370
    25
100
AcDbCircle
 10
1.1797906948
 20
1.2716550173
 30
0.0
 40
0.1993757963205084
100
AcDbArc
 50
48.4838969151
 51
69.7508231489
  0
ARC
  5
133
330
1B
100
AcDbEntity
 67
     1
  8
0
  6
Continuous
 62
     7
370
    25
100
AcDbCircle
 10
1.1275197771
 20
0.9583599703
 30
0.0
 40
0.5172934108587216
100
AcDbArc
 50
90.5560027396
 51
104.7054776852
  0
ARC
  5
134
330
1B
100
AcDbEntity
 67
     1
  8
0
  6
Continuous
 62
     7
370
    25
100
AcDbCircle
 10
1.065479275
 20
1.2712036203
 30
0.0
 40
0.1998927564617759
100
AcDbArc
 50
110.276995856
 51
131.48828408
  0
ARC
  5
135
330
1B
100
AcDbEntity
 67
     1
  8
0
  6
Continuous
 62
     7
370
    25
100
AcDbCircle
 10
1.1225
 20
1.7491907958
 30
0.0
 40
0.1250000000000007
100
AcDbArc
 50
358.624769248
 51
181.375230752
  0
LINE
  5
136
330
1B
100
AcDbEntity
 67
     1
  8
0
  6
Continuous
 62
     7
370
    25
100
AcDbLine
 10
0.9975360052
 20
1.7461907958
 30
0.0
 11
0.17
 21
1.7461907958
 31
0.0
  0
LINE
  5
137
330
1B
100
AcDbEntity
 67
     1
  8
0
  6
Continuous
 62
     7
370
    25
100
AcDbLine
 10
0.17
 20
1.7461907958
 30
0.0
 11
0.17
 21
1.8761907958
 31
0.0
  0
LINE
  5
138
330
1B
100
AcDbEntity
 67
     1
  8
0
  6
Continuous
 62
     7
370
    25
100
AcDbLine
 10
2.795
 20
1.8761907958
 30
0.0
 11
0.17
 21
1.8761907958
 31
0.0
  0
ARC
  5
139
330
1B
100
AcDbEntity
 67
     1
  8
0
  6
Continuous
 62
     7
370
    25
100
AcDbCircle
 10
1.8425
 20
1.7491907958
 30
0.0
 40
0.1250000000000009
100
AcDbArc
 50
358.624769248
 51
181.375230752
  0
LINE
  5
13A
330
1B
100
AcDbEntity
 67
     1
  8
0
  6
Continuous
 62
     7
370
    25
100
AcDbLine
 10
2.795
 20
1.7461907958
 30
0.0
 11
2.795
 21
1.8761907958
 31
0.0
  0
LINE
  5
13B
330
1B
100
AcDbEntity
 67
     1
  8
0
  6
Continuous
 62
     7
370
    25
100
AcDbLine
 10
2.795
 20
1.7461907958
 30
0.0
 11
1.9674639948
 21
1.7461907958
 31
0.0
  0
LINE
  5
13C
330
1B
100
AcDbEntity
 67
     1
  8
0
  6
Continuous
 62
     7
370
    25
100
AcDbLine
 10
1.7175360052
 20
1.7461907958
 30
0.0
 11
1.2474639948
 21
1.7461907958
 31
0.0
  0
LINE
  5
13D
330
1B
100
AcDbEntity
 67
     1
  8
0
  6
Continuous
 62
     7
370
    25
100
AcDbLine
 10
2.795
 20
1.9761907958
 30
0.0
 11
0.17
 21
1.9761907958
 31
0.0
  0
LINE
  5
13E
330
1B
100
AcDbEntity
 67
     1
  8
0
  6
Continuous
 62
     7
370
    25
100
AcDbLine
 10
2.795
 20
2.1061907958
 30
0.0
 11
0.17
 21
2.1061907958
 31
0.0
  0
LINE
  5
13F
330
1B
100
AcDbEntity
 67
     1
  8
0
  6
Continuous
 62
     7
370
    25
100
AcDbLine
 10
0.17
 20
1.9761907958
 30
0.0
 11
0.17
 21
2.1061907958
 31
0.0
  0
LINE
  5
140
330
1B
100
AcDbEntity
 67
     1
  8
0
  6
Continuous
 62
     7
370
    25
100
AcDbLine
 10
2.795
 20
1.9761907958
 30
0.0
 11
2.795
 21
2.1061907958
 31
0.0
  0
LINE
  5
141
330
1B
100
AcDbEntity
 67
     1
  8
0
  6
Continuous
 62
     7
370
    25
100
AcDbLine
 10
0.17
 20
1.8761907958
 30
0.0
 11
0.17
 21
1.9761907958
 31
0.0
  0
LINE
  5
142
330
1B
100
AcDbEntity
 67
     1
  8
0
  6
Continuous
 62
     7
370
    25
100
AcDbLine
 10
2.795
 20
1.8761907958
 30
0.0
 11
2.795
 21
1.9761907958
 31
0.0
  0
LINE
  5
143
330
1B
100
AcDbEntity
 67
     1
  8
0
  6
Continuous
 62
     7
370
    25
100
AcDbLine
 10
2.795
 20
0.9913595794
 30
0.0
 11
0.17
 21
0.9913595794
 31
0.0
  0
LINE
  5
144
330
1B
100
AcDbEntity
 67
     1
  8
0
  6
Continuous
 62
     7
370
    25
100
AcDbLine
 10
2.795
 20
0.5341907958
 30
0.0
 11
0.17
 21
0.5341907958
 31
0.0
  0
LINE
  5
145
330
1B
100
AcDbEntity
 67
     1
  8
0
  6
Continuous
 62
     7
370
    25
100
AcDbLine
 10
0.17
 20
0.5341907958
 30
0.0
 11
0.17
 21
0.9913595794
 31
0.0
  0
LINE
  5
146
330
1B
100
AcDbEntity
 67
     1
  8
0
  6
Continuous
 62
     7
370
    25
100
AcDbLine
 10
2.795
 20
0.5341907958
 30
0.0
 11
2.795
 21
0.9913595794
 31
0.0
  0
LINE
  5
147
330
1B
100
AcDbEntity
 67
     1
  8
0
  6
Continuous
 62
     7
370
    25
100
AcDbLine
 10
2.795
 20
1.3153838529
 30
0.0
 11
2.0950907428
 21
1.3153838529
 31
0.0
  0
LINE
  5
148
330
1B
100
AcDbEntity
 67
     1
  8
0
  6
Continuous
 62
     7
370
    25
100
AcDbLine
 10
1.5899092572
 20
1.3153838529
 30
0.0
 11
1.3750907428
 21
1.3153838529
 31
0.0
  0
LINE
  5
149
330
1B
100
AcDbEntity
 67
     1
  8
0
  6
Continuous
 62
     7
370
    25
100
AcDbLine
 10
0.8699092572
 20
1.3153838529
 30
0.0
 11
0.17
 21
1.3153838529
 31
0.0
  0
LINE
  5
14A
330
1B
100
AcDbEntity
 67
     1
  8
0
  6
Continuous
 62
     7
370
    25
100
AcDbLine
 10
0.17
 20
0.9913595794
 30
0.0
 11
0.17
 21
1.3153838529
 31
0.0
  0
LINE
  5
14B
330
1B
100
AcDbEntity
 67
     1
  8
0
  6
Continuous
 62
     7
370
    25
100
AcDbLine
 10
2.795
 20
0.9913595794
 30
0.0
 11
2.795
 21
1.3153838529
 31
0.0
  0
ARC
  5
14C
330
1B
100
AcDbEntity
 67
     1
  8
0
  6
Continuous
 62
     7
370
    25
100
AcDbCircle
 10
1.1225
 20
1.7491907958
 30
0.0
 40
0.1249999999999998
100
AcDbArc
 50
181.375230752
 51
358.624769248
  0
LINE
  5
14D
330
1B
100
AcDbEntity
 67
     1
  8
0
  6
Continuous
 62
     7
370
    25
100
AcDbLine
 10
0.17
 20
1.3153838529
 30
0.0
 11
0.17
 21
1.7311907958
 31
0.0
  0
LINE
  5
14E
330
1B
100
AcDbEntity
 67
     1
  8
0
  6
Continuous
 62
     7
370
    25
100
AcDbLine
 10
0.17
 20
1.7411907958
 30
0.0
 11
0.17
 21
1.7461907958
 31
0.0
  0
ARC
  5
14F
330
1B
100
AcDbEntity
 67
     1
  8
0
  6
Continuous
 62
     7
370
    25
100
AcDbCircle
 10
1.8425
 20
1.7491907958
 30
0.0
 40
0.1250000000000009
100
AcDbArc
 50
181.375230752
 51
358.624769248
  0
LINE
  5
150
330
1B
100
AcDbEntity
 67
     1
  8
0
  6
Continuous
 62
     7
370
    25
100
AcDbLine
 10
2.795
 20
1.3153838529
 30
0.0
 11
2.795
 21
1.7461907958
 31
0.0
  0
ARC
  5
151
330
1B
100
AcDbEntity
 67
     1
  8
0
  6
Continuous
 62
     7
370
    25
100
AcDbCircle
 10
1.8425
 20
1.7491907958
 30
0.0
 40
0.0987499999999997
100
AcDbArc
 50
164.1595056383
 51
270.0
  0
ARC
  5
152
330
1B
100
AcDbEntity
 67
     1
  8
0
  6
Continuous
 62
     7
370
    25
100
AcDbCircle
 10
1.8425
 20
1.7491907958
 30
0.0
 40
0.0987500000000003
100
AcDbArc
 50
270.0
 51
15.8404943617
  0
ARC
  5
153
330
1B
100
AcDbEntity
 67
     1
  8
0
  6
Continuous
 62
     7
370
    25
100
AcDbCircle
 10
1.1225
 20
1.7491907958
 30
0.0
 40
0.0987500000000001
100
AcDbArc
 50
164.1595056383
 51
270.0
  0
ARC
  5
154
330
1B
100
AcDbEntity
 67
     1
  8
0
  6
Continuous
 62
     7
370
    25
100
AcDbCircle
 10
1.1225
 20
1.7491907958
 30
0.0
 40
0.0987499999999997
100
AcDbArc
 50
270.0
 51
15.8404943617
  0
LINE
  5
155
330
1B
100
AcDbEntity
 67
     1
  8
0
  6
Continuous
 62
     7
370
    25
100
AcDbLine
 10
0.17
 20
2.0961907958
 30
0.0
 11
0.17
 21
2.1061907958
 31
0.0
  0
LINE
  5
156
330
1B
100
AcDbEntity
 67
     1
  8
0
  6
Continuous
 62
     7
370
    25
100
AcDbLine
 10
0.17
 20
2.1061907958
 30
0.0
 11
0.27
 21
2.1061907958
 31
0.0
  0
LINE
  5
157
330
1B
100
AcDbEntity
 67
     1
  8
0
  6
Continuous
 62
     7
370
    25
100
AcDbLine
 10
0.27
 20
2.0961907958
 30
0.0
 11
0.27
 21
2.1061907958
 31
0.0
  0
LINE
  5
158
330
1B
100
AcDbEntity
 67
     1
  8
0
  6
Continuous
 62
     7
370
    25
100
AcDbLine
 10
0.17
 20
2.0961907958
 30
0.0
 11
0.27
 21
2.0961907958
 31
0.0
  0
LINE
  5
159
330
1B
100
AcDbEntity
 67
     1
  8
0
  6
Continuous
 62
     7
370
    25
100
AcDbLine
 10
0.17
 20
1.7411907958
 30
0.0
 11
0.17
 21
1.7311907958
 31
0.0
  0
LINE
  5
15A
330
1B
100
AcDbEntity
 67
     1
  8
0
  6
Continuous
 62
     7
370
    25
100
AcDbLine
 10
0.17
 20
1.7311907958
 30
0.0
 11
0.27
 21
1.7311907958
 31
0.0
  0
LINE
  5
15B
330
1B
100
AcDbEntity
 67
     1
  8
0
  6
Continuous
 62
     7
370
    25
100
AcDbLine
 10
0.27
 20
1.7411907958
 30
0.0
 11
0.27
 21
1.7311907958
 31
0.0
  0
LINE
  5
15C
330
1B
100
AcDbEntity
 67
     1
  8
0
  6
Continuous
 62
     7
370
    25
100
AcDbLine
 10
0.17
 20
1.7411907958
 30
0.0
 11
0.27
 21
1.7411907958
 31
0.0
  0
LINE
  5
15D
330
1B
100
AcDbEntity
 67
     1
  8
0
  6
Continuous
 62
     7
370
    25
100
AcDbLine
 10
1.0275
 20
1.7741341297
 30
0.0
 11
1.2175
 21
1.7741341297
 31
0.0
  0
LINE
  5
15E
330
1B
100
AcDbEntity
 67
     1
  8
0
  6
Continuous
 62
     7
370
    25
100
AcDbLine
 10
1.0704433339
 20
1.7311907958
 30
0.0
 11
1.1745566661
 21
1.7311907958
 31
0.0
  0
ARC
  5
15F
330
1B
100
AcDbEntity
 67
     1
  8
0
  6
Continuous
 62
     7
370
    25
100
AcDbCircle
 10
1.8425
 20
1.7491907958
 30
0.0
 40
0.0885826771653554
100
AcDbArc
 50
180.0
 51
10.9978628617
  0
ARC
  5
160
330
1B
100
AcDbEntity
 67
     1
  8
0
  6
Continuous
 62
     7
370
    25
100
AcDbCircle
 10
1.8425
 20
1.7491907958
 30
0.0
 40
0.0885826771653544
100
AcDbArc
 50
169.0021371383
 51
180.0
  0
ARC
  5
161
330
1B
100
AcDbEntity
 67
     1
  8
0
  6
Continuous
 62
     7
370
    25
100
AcDbCircle
 10
1.8425
 20
1.7491907958
 30
0.0
 40
0.0984251968503928
100
AcDbArc
 50
164.8401529559
 51
180.0
  0
ARC
  5
162
330
1B
100
AcDbEntity
 67
     1
  8
0
  6
Continuous
 62
     7
370
    25
100
AcDbCircle
 10
1.8425
 20
1.7491907958
 30
0.0
 40
0.098425196850394
100
AcDbArc
 50
180.0
 51
15.1598470441
  0
ARC
  5
163
330
1B
100
AcDbEntity
 67
     1
  8
0
  6
Continuous
 62
     7
370
    25
100
AcDbCircle
 10
1.1225
 20
1.7491907958
 30
0.0
 40
0.0885826771653555
100
AcDbArc
 50
180.0
 51
10.9978628617
  0
ARC
  5
164
330
1B
100
AcDbEntity
 67
     1
  8
0
  6
Continuous
 62
     7
370
    25
100
AcDbCircle
 10
1.1225
 20
1.7491907958
 30
0.0
 40
0.0885826771653555
100
AcDbArc
 50
169.0021371383
 51
180.0
  0
ARC
  5
165
330
1B
100
AcDbEntity
 67
     1
  8
0
  6
Continuous
 62
     7
370
    25
100
AcDbCircle
 10
1.1225
 20
1.7491907958
 30
0.0
 40
0.0984251968503938
100
AcDbArc
 50
164.8401529559
 51
180.0
  0
ARC
  5
166
330
1B
100
AcDbEntity
 67
     1
  8
0
  6
Continuous
 62
     7
370
    25
100
AcDbCircle
 10
1.1225
 20
1.7491907958
 30
0.0
 40
0.0984251968503937
100
AcDbArc
 50
180.0
 51
15.1598470441
  0
ARC
  5
167
330
1B
100
AcDbEntity
 67
     1
  8
0
  6
Continuous
 62
     7
370
    25
100
AcDbCircle
 10
1.8474902653
 20
0.7398302491
 30
0.0
 40
0.5170728567818288
100
AcDbArc
 50
90.5529696156
 51
104.7085108093
  0
ARC
  5
168
330
1B
100
AcDbEntity
 67
     1
  8
0
  6
Continuous
 62
     7
370
    25
100
AcDbCircle
 10
1.3610478738
 20
0.9904097134
 30
0.0
 40
0.4340633524546253
100
AcDbArc
 50
35.0935842596
 51
47.7215904014
  0
ARC
  5
169
330
1B
100
AcDbEntity
 67
     1
  8
0
  6
Continuous
 62
     7
370
    25
100
AcDbCircle
 10
1.8271798894
 20
1.5592773549
 30
0.0
 40
0.3027861553087628
100
AcDbArc
 50
234.8955320967
 51
272.9002403994
  0
LINE
  5
16A
330
1B
100
AcDbEntity
 67
     1
  8
0
  6
Continuous
 62
     7
370
    25
100
AcDbLine
 10
1.7162046286
 20
1.1231863531
 30
0.0
 11
1.9687953714
 21
1.1231863531
 31
0.0
  0
LINE
  5
16B
330
1B
100
AcDbEntity
 67
     1
  8
0
  6
Continuous
 62
     7
370
    25
100
AcDbLine
 10
1.7162046286
 20
1.1231863531
 30
0.0
 11
1.7162046286
 21
1.2399586534
 31
0.0
  0
ARC
  5
16C
330
1B
100
AcDbEntity
 67
     1
  8
0
  6
Continuous
 62
     7
370
    25
100
AcDbCircle
 10
1.8372244341
 20
0.7377007367
 30
0.0
 40
0.519205090954932
100
AcDbArc
 50
75.3207035043
 51
89.4178160708
  0
LINE
  5
16D
330
1B
100
AcDbEntity
 67
     1
  8
0
  6
Continuous
 62
     7
370
    25
100
AcDbLine
 10
1.9687953714
 20
1.1231863531
 30
0.0
 11
1.9687953714
 21
1.2399586534
 31
0.0
  0
ARC
  5
16E
330
1B
100
AcDbEntity
 67
     1
  8
0
  6
Continuous
 62
     7
370
    25
100
AcDbCircle
 10
2.3231455619
 20
0.9911209854
 30
0.0
 40
0.4329945063227321
100
AcDbArc
 50
132.2627598562
 51
144.9220654828
  0
ARC
  5
16F
330
1B
100
AcDbEntity
 67
     1
  8
0
  6
Continuous
 62
     7
370
    25
100
AcDbCircle
 10
1.8581958227
 20
1.5579758501
 30
0.0
 40
0.3015056500938302
100
AcDbArc
 50
267.0159395513
 51
305.1882879527
  0
ARC
  5
170
330
1B
100
AcDbEntity
 67
     1
  8
0
  6
Continuous
 62
     7
370
    25
100
AcDbCircle
 10
1.6914084274
 20
1.3662540248
 30
0.0
 40
0.0667949026174774
100
AcDbArc
 50
125.0413757956
 51
234.9586242044
  0
ARC
  5
171
330
1B
100
AcDbEntity
 67
     1
  8
0
  6
Continuous
 62
     7
370
    25
100
AcDbCircle
 10
1.8268041773
 20
1.1745321995
 30
0.0
 40
0.3015056500938306
100
AcDbArc
 50
87.0159395513
 51
125.1882879527
  0
ARC
  5
172
330
1B
100
AcDbEntity
 67
     1
  8
0
  6
Continuous
 62
     7
370
    25
100
AcDbCircle
 10
1.8578201106
 20
1.1732306947
 30
0.0
 40
0.3027861553087581
100
AcDbArc
 50
54.8955320967
 51
92.9002403994
  0
ARC
  5
173
330
1B
100
AcDbEntity
 67
     1
  8
0
  6
Continuous
 62
     7
370
    25
100
AcDbCircle
 10
1.9935915726
 20
1.3662540248
 30
0.0
 40
0.066794902617477
100
AcDbArc
 50
305.0413757956
 51
54.9586242044
  0
LWPOLYLINE
  5
174
330
1B
100
AcDbEntity
 67
     1
  8
0
  6
Continuous
 62
     7
370
    25
100
AcDbPolyline
 90
      157
 70
   128
 43
0.0
 10
1.8425
 20
1.2987540248
 10
1.8479359019
 20
1.2988087674
 10
1.8533629868
 20
1.2989729065
 10
1.8587724518
 20
1.2992461758
 10
1.8641555229
 20
1.2996281321
 10
1.8695034687
 20
1.3001181558
 10
1.8748076147
 20
1.3007154521
 10
1.8800593576
 20
1.3014190523
 10
1.8852501792
 20
1.302227815
 10
1.8903716598
 20
1.3031404284
 10
1.8954154923
 20
1.3041554124
 10
1.9003734958
 20
1.3052711205
 10
1.9052376282
 20
1.3064857431
 10
1.91
 20
1.30779731
 10
1.9146528865
 20
1.309203694
 10
1.9191887408
 20
1.3107026139
 10
1.9236002057
 20
1.3122916383
 10
1.9278801257
 20
1.3139681899
 10
1.9320215589
 20
1.3157295493
 10
1.9360177877
 20
1.3175728596
 10
1.9398623304
 20
1.3194951309
 10
1.943548951
 20
1.3214932454
 10
1.9470716698
 20
1.323563962
 10
1.9504247731
 20
1.325703922
 10
1.9536028219
 20
1.3279096544
 10
1.9566006615
 20
1.3301775815
 10
1.9594134295
 20
1.3325040248
 10
1.9620365635
 20
1.3348852107
 10
1.9644658087
 20
1.3373172769
 10
1.9666972249
 20
1.3397962786
 10
1.9687271928
 20
1.3423181949
 10
1.9705524197
 20
1.3448789352
 10
1.9721699451
 20
1.347474346
 10
1.9735771454
 20
1.3501002175
 10
1.974771738
 20
1.3527522905
 10
1.9757517855
 20
1.3554262633
 10
1.976515698
 20
1.3581177989
 10
1.9770622366
 20
1.3608225314
 10
1.9773905148
 20
1.3635360738
 10
1.9775
 20
1.3662540248
 10
1.9773905148
 20
1.3689719758
 10
1.9770622366
 20
1.3716855182
 10
1.976515698
 20
1.3743902507
 10
1.9757517855
 20
1.3770817863
 10
1.974771738
 20
1.3797557591
 10
1.9735771454
 20
1.3824078321
 10
1.9721699451
 20
1.3850337036
 10
1.9705524197
 20
1.3876291144
 10
1.9687271928
 20
1.3901898547
 10
1.9666972249
 20
1.392711771
 10
1.9644658087
 20
1.3951907727
 10
1.9620365635
 20
1.3976228389
 10
1.9594134295
 20
1.4000040248
 10
1.9566006615
 20
1.4023304681
 10
1.9536028219
 20
1.4045983952
 10
1.9504247731
 20
1.4068041276
 10
1.9470716698
 20
1.4089440877
 10
1.943548951
 20
1.4110148042
 10
1.9398623304
 20
1.4130129187
 10
1.9360177877
 20
1.41493519
 10
1.9320215589
 20
1.4167785003
 10
1.9278801257
 20
1.4185398597
 10
1.9236002057
 20
1.4202164113
 10
1.9191887408
 20
1.4218054358
 10
1.9146528865
 20
1.4233043556
 10
1.91
 20
1.4247107396
 10
1.9052376282
 20
1.4260223065
 10
1.9003734958
 20
1.4272369291
 10
1.8954154923
 20
1.4283526372
 10
1.8903716598
 20
1.4293676212
 10
1.8852501792
 20
1.4302802346
 10
1.8800593576
 20
1.4310889973
 10
1.8748076147
 20
1.4317925975
 10
1.8695034687
 20
1.4323898938
 10
1.8641555229
 20
1.4328799175
 10
1.8587724518
 20
1.4332618738
 10
1.8533629868
 20
1.4335351431
 10
1.8479359019
 20
1.4336992822
 10
1.8425
 20
1.4337540248
 10
1.8370640981
 20
1.4336992822
 10
1.8316370132
 20
1.4335351431
 10
1.8262275482
 20
1.4332618738
 10
1.8208444771
 20
1.4328799175
 10
1.8154965313
 20
1.4323898938
 10
1.8101923853
 20
1.4317925975
 10
1.8049406424
 20
1.4310889973
 10
1.7997498208
 20
1.4302802346
 10
1.7946283402
 20
1.4293676212
 10
1.7895845077
 20
1.4283526372
 10
1.7846265042
 20
1.4272369291
 10
1.7797623718
 20
1.4260223065
 10
1.775
 20
1.4247107396
 10
1.7703471135
 20
1.4233043556
 10
1.7658112592
 20
1.4218054358
 10
1.7613997943
 20
1.4202164113
 10
1.7571198743
 20
1.4185398597
 10
1.7529784411
 20
1.4167785003
 10
1.7489822123
 20
1.41493519
 10
1.7451376696
 20
1.4130129187
 10
1.741451049
 20
1.4110148042
 10
1.7379283302
 20
1.4089440877
 10
1.7345752269
 20
1.4068041276
 10
1.7313971781
 20
1.4045983952
 10
1.7283993385
 20
1.4023304681
 10
1.7255865705
 20
1.4000040248
 10
1.7229634365
 20
1.3976228389
 10
1.7205341913
 20
1.3951907727
 10
1.7183027751
 20
1.392711771
 10
1.7162728072
 20
1.3901898547
 10
1.7144475803
 20
1.3876291144
 10
1.7128300549
 20
1.3850337036
 10
1.7114228546
 20
1.3824078321
 10
1.710228262
 20
1.3797557591
 10
1.7092482145
 20
1.3770817863
 10
1.708484302
 20
1.3743902507
 10
1.7079377634
 20
1.3716855182
 10
1.7076094852
 20
1.3689719758
 10
1.7075
 20
1.3662540248
 10
1.7076094852
 20
1.3635360738
 10
1.7079377634
 20
1.3608225314
 10
1.708484302
 20
1.3581177989
 10
1.7092482145
 20
1.3554262633
 10
1.710228262
 20
1.3527522905
 10
1.7114228546
 20
1.3501002175
 10
1.7128300549
 20
1.347474346
 10
1.7144475803
 20
1.3448789352
 10
1.7162728072
 20
1.3423181949
 10
1.7183027751
 20
1.3397962786
 10
1.7205341913
 20
1.3373172769
 10
1.7229634365
 20
1.3348852107
 10
1.7255865705
 20
1.3325040248
 10
1.7283993385
 20
1.3301775815
 10
1.7313971781
 20
1.3279096544
 10
1.7345752269
 20
1.325703922
 10
1.7379283302
 20
1.323563962
 10
1.741451049
 20
1.3214932454
 10
1.7451376696
 20
1.3194951309
 10
1.7489822123
 20
1.3175728596
 10
1.7529784411
 20
1.3157295493
 10
1.7571198743
 20
1.3139681899
 10
1.7613997943
 20
1.3122916383
 10
1.7658112592
 20
1.3107026139
 10
1.7703471135
 20
1.309203694
 10
1.775
 20
1.30779731
 10
1.7797623718
 20
1.3064857431
 10
1.7846265042
 20
1.3052711205
 10
1.7895845077
 20
1.3041554124
 10
1.7946283402
 20
1.3031404284
 10
1.7997498208
 20
1.302227815
 10
1.8049406424
 20
1.3014190523
 10
1.8101923853
 20
1.3007154521
 10
1.8154965313
 20
1.3001181558
 10
1.8208444771
 20
1.2996281321
 10
1.8262275482
 20
1.2992461758
 10
1.8316370132
 20
1.2989729065
 10
1.8370640981
 20
1.2988087674
 10
1.8425
 20
1.2987540248
  0
LWPOLYLINE
  5
175
330
1B
100
AcDbEntity
 67
     1
  8
0
  6
Continuous
 62
     7
370
    25
100
AcDbPolyline
 90
      158
 70
   128
 43
0.0
 10
2.0950907428
 20
1.3105560361
 10
2.0975588324
 20
1.3085214703
 10
2.1015961985
 20
1.3050250087
 10
2.1054418876
 20
1.3014749391
 10
2.1090930547
 20
1.2978738879
 10
2.1125469986
 20
1.2942245191
 10
2.1158011642
 20
1.2905295324
 10
2.1188531441
 20
1.2867916614
 10
2.1217006805
 20
1.2830136713
 10
2.1243416667
 20
1.279198357
 10
2.126774149
 20
1.2753485411
 10
2.1289963279
 20
1.2714670717
 10
2.1310065593
 20
1.2675568201
 10
2.1328033563
 20
1.2636206792
 10
2.1343853895
 20
1.2596615609
 10
2.1357514885
 20
1.2556823941
 10
2.1369006427
 20
1.2516861225
 10
2.1378320019
 20
1.2476757027
 10
2.1385448773
 20
1.2436541014
 10
2.1390387413
 20
1.2396242937
 10
2.1393132287
 20
1.235589261
 10
2.1393681363
 20
1.2315519882
 10
2.1392034236
 20
1.2275154622
 10
2.1388192124
 20
1.2234826691
 10
2.1382157869
 20
1.2194565923
 10
2.1373935935
 20
1.2154402102
 10
2.1363532406
 20
1.2114364943
 10
2.1350954976
 20
1.2074484063
 10
2.1336212952
 20
1.2034788967
 10
2.1319317239
 20
1.199530902
 10
2.1300280337
 20
1.1956073429
 10
2.1279116328
 20
1.191711122
 10
2.1255840869
 20
1.1878451218
 10
2.1230471181
 20
1.1840122023
 10
2.120302603
 20
1.180215199
 10
2.117352572
 20
1.1764569209
 10
2.1141992077
 20
1.1727401483
 10
2.1108448427
 20
1.1690676309
 10
2.1072919586
 20
1.1654420856
 10
2.1035431839
 20
1.1618661945
 10
2.0996012917
 20
1.1583426031
 10
2.0954691984
 20
1.154873918
 10
2.0911499608
 20
1.1514627054
 10
2.0866467741
 20
1.1481114888
 10
2.0819629699
 20
1.1448227475
 10
2.0771020132
 20
1.1415989144
 10
2.0720675
 20
1.1384423745
 10
2.0668631549
 20
1.1353554629
 10
2.0614928279
 20
1.1323404634
 10
2.0559604921
 20
1.1293996064
 10
2.0502702401
 20
1.1265350675
 10
2.0444262815
 20
1.1237489659
 10
2.0384329398
 20
1.1210433627
 10
2.0322946486
 20
1.1184202595
 10
2.026015949
 20
1.1158815968
 10
2.0196014861
 20
1.1134292528
 10
2.013056005
 20
1.1110650416
 10
2.0063843482
 20
1.1087907123
 10
1.9995914512
 20
1.1066079474
 10
1.9926823394
 20
1.1045183617
 10
1.985662124
 20
1.102523501
 10
1.9785359986
 20
1.1006248412
 10
1.9713092351
 20
1.0988237868
 10
1.9639871796
 20
1.0971216702
 10
1.956575249
 20
1.0955197507
 10
1.9490789265
 20
1.0940192133
 10
1.941503758
 20
1.0926211681
 10
1.9338553473
 20
1.0913266494
 10
1.9261393528
 20
1.0901366148
 10
1.9183614827
 20
1.0890519448
 10
1.9105274909
 20
1.0880734417
 10
1.902643173
 20
1.0872018295
 10
1.8947143617
 20
1.086437753
 10
1.8867469228
 20
1.0857817773
 10
1.8787467503
 20
1.0852343879
 10
1.8707197629
 20
1.0847959896
 10
1.8626718987
 20
1.0844669068
 10
1.8546091115
 20
1.0842473829
 10
1.8465373661
 20
1.0841375803
 10
1.8384626339
 20
1.0841375803
 10
1.8303908885
 20
1.0842473829
 10
1.8223281013
 20
1.0844669068
 10
1.8142802371
 20
1.0847959896
 10
1.8062532497
 20
1.0852343879
 10
1.7982530772
 20
1.0857817773
 10
1.7902856383
 20
1.086437753
 10
1.782356827
 20
1.0872018295
 10
1.7744725091
 20
1.0880734417
 10
1.7666385173
 20
1.0890519448
 10
1.7588606472
 20
1.0901366148
 10
1.7511446527
 20
1.0913266494
 10
1.743496242
 20
1.0926211681
 10
1.7359210735
 20
1.0940192133
 10
1.728424751
 20
1.0955197507
 10
1.7210128204
 20
1.0971216702
 10
1.7136907649
 20
1.0988237868
 10
1.7064640014
 20
1.1006248412
 10
1.699337876
 20
1.102523501
 10
1.6923176606
 20
1.1045183617
 10
1.6854085488
 20
1.1066079474
 10
1.6786156518
 20
1.1087907123
 10
1.671943995
 20
1.1110650416
 10
1.6653985139
 20
1.1134292528
 10
1.658984051
 20
1.1158815968
 10
1.6527053514
 20
1.1184202595
 10
1.6465670602
 20
1.1210433627
 10
1.6405737185
 20
1.1237489659
 10
1.6347297599
 20
1.1265350675
 10
1.6290395079
 20
1.1293996064
 10
1.6235071721
 20
1.1323404634
 10
1.6181368451
 20
1.1353554629
 10
1.6129325
 20
1.1384423745
 10
1.6078979868
 20
1.1415989144
 10
1.6030370301
 20
1.1448227475
 10
1.5983532259
 20
1.1481114888
 10
1.5938500392
 20
1.1514627054
 10
1.5895308016
 20
1.154873918
 10
1.5853987083
 20
1.1583426031
 10
1.5814568161
 20
1.1618661945
 10
1.5777080414
 20
1.1654420856
 10
1.5741551573
 20
1.1690676309
 10
1.5708007923
 20
1.1727401483
 10
1.567647428
 20
1.1764569209
 10
1.564697397
 20
1.180215199
 10
1.5619528819
 20
1.1840122023
 10
1.5594159131
 20
1.1878451218
 10
1.5570883672
 20
1.191711122
 10
1.5549719663
 20
1.1956073429
 10
1.5530682761
 20
1.199530902
 10
1.5513787048
 20
1.2034788967
 10
1.5499045024
 20
1.2074484063
 10
1.5486467594
 20
1.2114364943
 10
1.5476064065
 20
1.2154402102
 10
1.5467842131
 20
1.2194565923
 10
1.5461807876
 20
1.2234826691
 10
1.5457965764
 20
1.2275154622
 10
1.5456318637
 20
1.2315519882
 10
1.5456867713
 20
1.235589261
 10
1.5459612587
 20
1.2396242937
 10
1.5464551227
 20
1.2436541014
 10
1.5471679981
 20
1.2476757027
 10
1.5480993573
 20
1.2516861225
 10
1.5492485115
 20
1.2556823941
 10
1.5506146105
 20
1.2596615609
 10
1.5521966437
 20
1.2636206792
 10
1.5539934407
 20
1.2675568201
 10
1.5560036721
 20
1.2714670717
 10
1.558225851
 20
1.2753485411
 10
1.5606583333
 20
1.279198357
 10
1.5632993195
 20
1.2830136713
 10
1.5661468559
 20
1.2867916614
 10
1.5691988358
 20
1.2905295324
 10
1.5724530014
 20
1.2942245191
 10
1.5759069453
 20
1.2978738879
 10
1.5795581124
 20
1.3014749391
 10
1.5834038015
 20
1.3050250087
 10
1.5874411676
 20
1.3085214703
 10
1.5899092572
 20
1.3105560361
  0
LINE
  5
176
330
1B
100
AcDbEntity
 67
     1
  8
0
  6
Continuous
 62
     7
370
    25
100
AcDbLine
 10
1.5899092572
 20
1.2325613531
 30
0.0
 11
1.7162046286
 21
1.1231863531
 31
0.0
  0
LINE
  5
177
330
1B
100
AcDbEntity
 67
     1
  8
0
  6
Continuous
 62
     7
370
    25
100
AcDbLine
 10
1.9687953714
 20
1.1231863531
 30
0.0
 11
2.0950907428
 21
1.2325613531
 31
0.0
  0
LWPOLYLINE
  5
178
330
1B
100
AcDbEntity
 67
     1
  8
0
  6
Continuous
 62
     7
370
    25
100
AcDbPolyline
 90
       59
 70
   128
 43
0.0
 10
1.8425
 20
1.0148418208
 10
1.8505739855
 20
1.0148967271
 10
1.8586419979
 20
1.0150614056
 10
1.8666980686
 20
1.0153357343
 10
1.8747362377
 20
1.0157195104
 10
1.8827505588
 20
1.0162124498
 10
1.890735103
 20
1.016814188
 10
1.8986839632
 20
1.0175242798
 10
1.906591259
 20
1.0183421998
 10
1.9144511407
 20
1.019267343
 10
1.9222577936
 20
1.020299025
 10
1.9300054424
 20
1.0214364824
 10
1.9376883555
 20
1.022678874
 10
1.9453008491
 20
1.0240252804
 10
1.9528372915
 20
1.0254747057
 10
1.9602921075
 20
1.0270260777
 10
1.9676597818
 20
1.0286782485
 10
1.9749348642
 20
1.030429996
 10
1.9821119724
 20
1.0322800242
 10
1.9891857969
 20
1.0342269646
 10
1.9961511047
 20
1.0362693766
 10
2.0030027427
 20
1.0384057495
 10
2.0097356422
 20
1.0406345027
 10
2.0163448224
 20
1.0429539875
 10
2.0228253937
 20
1.0453624878
 10
2.0291725619
 20
1.0478582219
 10
2.0353816315
 20
1.0504393435
 10
2.041448009
 20
1.0531039432
 10
2.0473672065
 20
1.0558500495
 10
2.0531348452
 20
1.0586756311
 10
2.0587466581
 20
1.0615785975
 10
2.0641984937
 20
1.0645568012
 10
2.0694863187
 20
1.0676080389
 10
2.0746062214
 20
1.0707300533
 10
2.0795544139
 20
1.0739205349
 10
2.0843272358
 20
1.0771771233
 10
2.088921156
 20
1.0804974093
 10
2.0933327761
 20
1.0838789366
 10
2.0975588324
 20
1.0873192036
 10
2.1015961985
 20
1.0908156652
 10
2.1054418876
 20
1.0943657348
 10
2.1090930547
 20
1.097966786
 10
2.1125469986
 20
1.1016161548
 10
2.1158011642
 20
1.1053111415
 10
2.1188531441
 20
1.1090490125
 10
2.1217006805
 20
1.1128270026
 10
2.1243416667
 20
1.1166423169
 10
2.126774149
 20
1.1204921328
 10
2.1289963279
 20
1.1243736022
 10
2.1310065593
 20
1.1282838538
 10
2.1328033563
 20
1.1322199947
 10
2.1343853895
 20
1.136179113
 10
2.1357514885
 20
1.1401582798
 10
2.1369006427
 20
1.1441545513
 10
2.1378320019
 20
1.1481649712
 10
2.1385448773
 20
1.1521865725
 10
2.1390387413
 20
1.1562163802
 10
2.1393132287
 20
1.1602514129
 10
2.139375
 20
1.1632793208
  0
LWPOLYLINE
  5
179
330
1B
100
AcDbEntity
 67
     1
  8
0
  6
Continuous
 62
     7
370
    25
100
AcDbPolyline
 90
       59
 70
   128
 43
0.0
 10
1.545625
 20
1.1632793208
 10
1.5456867713
 20
1.1602514129
 10
1.5459612587
 20
1.1562163802
 10
1.5464551227
 20
1.1521865725
 10
1.5471679981
 20
1.1481649712
 10
1.5480993573
 20
1.1441545513
 10
1.5492485115
 20
1.1401582798
 10
1.5506146105
 20
1.136179113
 10
1.5521966437
 20
1.1322199947
 10
1.5539934407
 20
1.1282838538
 10
1.5560036721
 20
1.1243736022
 10
1.558225851
 20
1.1204921328
 10
1.5606583333
 20
1.1166423169
 10
1.5632993195
 20
1.1128270026
 10
1.5661468559
 20
1.1090490125
 10
1.5691988358
 20
1.1053111415
 10
1.5724530014
 20
1.1016161548
 10
1.5759069453
 20
1.097966786
 10
1.5795581124
 20
1.0943657348
 10
1.5834038015
 20
1.0908156652
 10
1.5874411676
 20
1.0873192036
 10
1.5916672239
 20
1.0838789366
 10
1.596078844
 20
1.0804974093
 10
1.6006727642
 20
1.0771771233
 10
1.6054455861
 20
1.0739205349
 10
1.6103937786
 20
1.0707300533
 10
1.6155136813
 20
1.0676080389
 10
1.6208015063
 20
1.0645568012
 10
1.6262533419
 20
1.0615785975
 10
1.6318651548
 20
1.0586756311
 10
1.6376327935
 20
1.0558500495
 10
1.643551991
 20
1.0531039432
 10
1.6496183685
 20
1.0504393435
 10
1.6558274381
 20
1.0478582219
 10
1.6621746063
 20
1.0453624878
 10
1.6686551776
 20
1.0429539875
 10
1.6752643578
 20
1.0406345027
 10
1.6819972573
 20
1.0384057495
 10
1.6888488953
 20
1.0362693766
 10
1.6958142031
 20
1.0342269646
 10
1.7028880276
 20
1.0322800242
 10
1.7100651358
 20
1.030429996
 10
1.7173402182
 20
1.0286782485
 10
1.7247078925
 20
1.0270260777
 10
1.7321627085
 20
1.0254747057
 10
1.7396991509
 20
1.0240252804
 10
1.7473116445
 20
1.022678874
 10
1.7549945576
 20
1.0214364824
 10
1.7627422064
 20
1.020299025
 10
1.7705488593
 20
1.019267343
 10
1.778408741
 20
1.0183421998
 10
1.7863160368
 20
1.0175242798
 10
1.794264897
 20
1.016814188
 10
1.8022494412
 20
1.0162124498
 10
1.8102637623
 20
1.0157195104
 10
1.8183019314
 20
1.0153357343
 10
1.8263580021
 20
1.0150614056
 10
1.8344260145
 20
1.0148967271
 10
1.8425
 20
1.0148418208
  0
ARC
  5
17A
330
1B
100
AcDbEntity
 67
     1
  8
0
  6
Continuous
 62
     7
370
    25
100
AcDbCircle
 10
2.1640954193
 20
1.1622800173
 30
0.0
 40
0.1993757963205472
100
AcDbArc
 50
110.2491768511
 51
131.5161030849
  0
LINE
  5
17B
330
1B
100
AcDbEntity
 67
     1
  8
0
  6
Continuous
 62
     7
370
    25
100
AcDbLine
 10
2.0950907428
 20
1.2325613531
 30
0.0
 11
2.0950907428
 21
1.3493336534
 31
0.0
  0
LINE
  5
17C
330
1B
100
AcDbEntity
 67
     1
  8
0
  6
Continuous
 62
     7
370
    25
100
AcDbLine
 10
1.5899092572
 20
1.2325613531
 30
0.0
 11
1.5899092572
 21
1.3493336534
 31
0.0
  0
ARC
  5
17D
330
1B
100
AcDbEntity
 67
     1
  8
0
  6
Continuous
 62
     7
370
    25
100
AcDbCircle
 10
1.5206346108
 20
1.1618286203
 30
0.0
 40
0.1998927564613316
100
AcDbArc
 50
48.51171592
 51
69.723004144
  0
ARC
  5
17E
330
1B
100
AcDbEntity
 67
     1
  8
0
  6
Continuous
 62
     7
370
    25
100
AcDbCircle
 10
1.7407405523
 20
1.1004959854
 30
0.0
 40
0.4329945063226714
100
AcDbArc
 50
35.0779345172
 51
47.7372401438
  0
ARC
  5
17F
330
1B
100
AcDbEntity
 67
     1
  8
0
  6
Continuous
 62
     7
370
    25
100
AcDbCircle
 10
1.9450660121
 20
1.0997847134
 30
0.0
 40
0.4340633524546144
100
AcDbArc
 50
132.2784095986
 51
144.9064157404
  0
ARC
  5
180
330
1B
100
AcDbEntity
 67
     1
  8
0
  6
Continuous
 62
     7
370
    25
100
AcDbCircle
 10
1.8372512243
 20
0.9566507015
 30
0.0
 40
0.5190048647930836
100
AcDbArc
 50
75.3179704423
 51
89.4205491329
  0
ARC
  5
181
330
1B
100
AcDbEntity
 67
     1
  8
0
  6
Continuous
 62
     7
370
    25
100
AcDbCircle
 10
1.8997906948
 20
1.2716550173
 30
0.0
 40
0.199375796320501
100
AcDbArc
 50
48.4838969151
 51
69.7508231489
  0
ARC
  5
182
330
1B
100
AcDbEntity
 67
     1
  8
0
  6
Continuous
 62
     7
370
    25
100
AcDbCircle
 10
1.8475197771
 20
0.9583599703
 30
0.0
 40
0.5172934108587203
100
AcDbArc
 50
90.5560027396
 51
104.7054776852
  0
ARC
  5
183
330
1B
100
AcDbEntity
 67
     1
  8
0
  6
Continuous
 62
     7
370
    25
100
AcDbCircle
 10
1.785479275
 20
1.2712036203
 30
0.0
 40
0.1998927564617803
100
AcDbArc
 50
110.276995856
 51
131.48828408
  0
LINE
  5
184
330
1B
100
AcDbEntity
 67
     1
  8
0
  6
Continuous
 62
     7
370
    25
100
AcDbLine
 10
1.7475
 20
1.7741341297
 30
0.0
 11
1.9375
 21
1.7741341297
 31
0.0
  0
LINE
  5
185
330
1B
100
AcDbEntity
 67
     1
  8
0
  6
Continuous
 62
     7
370
    25
100
AcDbLine
 10
1.7904433339
 20
1.7311907958
 30
0.0
 11
1.8945566661
 21
1.7311907958
 31
0.0
  0
ARC
  5
186
330
1B
100
AcDbEntity
 67
     1
  8
0
  6
Continuous
 62
     7
370
    25
100
AcDbCircle
 10
1.9215610237
 20
1.3498994715
 30
0.0
 40
0.0359235384780322
100
AcDbArc
 50
322.4164701749
 51
37.5835298235
  0
LWPOLYLINE
  5
187
330
1B
100
AcDbEntity
 67
     1
  8
0
  6
Continuous
 62
     7
370
    25
100
AcDbPolyline
 90
      132
 70
   128
 43
0.0
 10
1.8275
 20
1.4275955618
 10
1.8320844769
 20
1.4275405797
 10
1.8366584093
 20
1.4273757597
 10
1.8412112771
 20
1.427101481
 10
1.8457326085
 20
1.4267183745
 10
1.8502120044
 20
1.4262273212
 10
1.8546391619
 20
1.4256294506
 10
1.8590038985
 20
1.4249261379
 10
1.863296175
 20
1.4241190006
 10
1.8675061193
 20
1.4232098953
 10
1.8716240482
 20
1.4222009129
 10
1.8756404903
 20
1.4210943741
 10
1.8795462078
 20
1.4198928239
 10
1.8833322173
 20
1.418599026
 10
1.886989811
 20
1.4172159561
 10
1.8905105762
 20
1.4157467954
 10
1.893886415
 20
1.4141949229
 10
1.8971095629
 20
1.412563908
 10
1.9001726067
 20
1.4108575022
 10
1.9030685011
 20
1.4090796302
 10
1.9057905855
 20
1.4072343811
 10
1.9083325991
 20
1.4053259991
 10
1.9106886951
 20
1.4033588735
 10
1.9128534544
 20
1.4013375288
 10
1.9148218981
 20
1.3992666142
 10
1.9165894986
 20
1.3971508927
 10
1.9181521904
 20
1.3949952307
 10
1.9195063792
 20
1.3928045862
 10
1.9206489505
 20
1.3905839978
 10
1.9215772761
 20
1.3883385729
 10
1.922289221
 20
1.3860734761
 10
1.9227831477
 20
1.3837939171
 10
1.9230579201
 20
1.381505139
 10
1.9231129062
 20
1.3792124061
 10
1.9229479795
 20
1.3769209917
 10
1.9225635194
 20
1.3746361662
 10
1.9219604102
 20
1.3723631847
 10
1.921140039
 20
1.3701072751
 10
1.9201042928
 20
1.3678736262
 10
1.9188555537
 20
1.3656673753
 10
1.9173966939
 20
1.363493597
 10
1.9157310688
 20
1.361357291
 10
1.9138625094
 20
1.3592633709
 10
1.9117953135
 20
1.3572166527
 10
1.9095342356
 20
1.355221844
 10
1.9070844764
 20
1.3532835328
 10
1.9044516704
 20
1.3514061775
 10
1.901641873
 20
1.3495940958
 10
1.898661547
 20
1.3478514558
 10
1.8955175471
 20
1.3461822655
 10
1.8922171047
 20
1.3445903641
 10
1.8887678108
 20
1.343079413
 10
1.8851775991
 20
1.3416528875
 10
1.881454727
 20
1.3403140687
 10
1.8776077573
 20
1.3390660358
 10
1.8736455382
 20
1.3379116593
 10
1.8695771828
 20
1.3368535944
 10
1.8654120486
 20
1.3358942747
 10
1.8611597154
 20
1.3350359066
 10
1.8568299639
 20
1.3342804644
 10
1.8524327524
 20
1.3336296856
 10
1.8479781949
 20
1.3330850671
 10
1.8434765368
 20
1.3326478615
 10
1.8389381322
 20
1.3323190743
 10
1.8343734195
 20
1.3320994618
 10
1.8297928978
 20
1.3319895292
 10
1.8252071022
 20
1.3319895292
 10
1.8206265805
 20
1.3320994618
 10
1.8160618678
 20
1.3323190743
 10
1.8115234632
 20
1.3326478615
 10
1.8070218051
 20
1.3330850671
 10
1.8025672476
 20
1.3336296856
 10
1.7981700361
 20
1.3342804644
 10
1.7938402846
 20
1.3350359066
 10
1.7895879514
 20
1.3358942747
 10
1.7854228172
 20
1.3368535944
 10
1.7813544618
 20
1.3379116593
 10
1.7773922427
 20
1.3390660358
 10
1.773545273
 20
1.3403140687
 10
1.7698224009
 20
1.3416528875
 10
1.7662321892
 20
1.343079413
 10
1.7627828953
 20
1.3445903641
 10
1.7594824529
 20
1.3461822655
 10
1.756338453
 20
1.3478514558
 10
1.753358127
 20
1.3495940958
 10
1.7505483296
 20
1.3514061775
 10
1.7479155236
 20
1.3532835328
 10
1.7454657644
 20
1.355221844
 10
1.7432046865
 20
1.3572166527
 10
1.7411374906
 20
1.3592633709
 10
1.7392689312
 20
1.361357291
 10
1.7376033061
 20
1.363493597
 10
1.7361444463
 20
1.3656673753
 10
1.7348957072
 20
1.3678736262
 10
1.733859961
 20
1.3701072751
 10
1.7330395898
 20
1.3723631847
 10
1.7324364806
 20
1.3746361662
 10
1.7320520205
 20
1.3769209917
 10
1.7318870938
 20
1.3792124061
 10
1.7319420799
 20
1.381505139
 10
1.7322168523
 20
1.3837939171
 10
1.732710779
 20
1.3860734761
 10
1.7334227239
 20
1.3883385729
 10
1.7343510495
 20
1.3905839978
 10
1.7354936208
 20
1.3928045862
 10
1.7368478096
 20
1.3949952307
 10
1.7384105014
 20
1.3971508927
 10
1.7401781019
 20
1.3992666142
 10
1.7421465456
 20
1.4013375288
 10
1.7443113049
 20
1.4033588735
 10
1.7466674009
 20
1.4053259991
 10
1.7492094145
 20
1.4072343811
 10
1.7519314989
 20
1.4090796302
 10
1.7548273933
 20
1.4108575022
 10
1.7578904371
 20
1.412563908
 10
1.761113585
 20
1.4141949229
 10
1.7644894238
 20
1.4157467954
 10
1.768010189
 20
1.4172159561
 10
1.7716677827
 20
1.418599026
 10
1.7754537922
 20
1.4198928239
 10
1.7793595097
 20
1.4210943741
 10
1.7833759518
 20
1.4222009129
 10
1.7874938807
 20
1.4232098953
 10
1.791703825
 20
1.4241190006
 10
1.7959961015
 20
1.4249261379
 10
1.8003608381
 20
1.4256294506
 10
1.8047879956
 20
1.4262273212
 10
1.8092673915
 20
1.4267183745
 10
1.8137887229
 20
1.427101481
 10
1.8183415907
 20
1.4273757597
 10
1.8229155231
 20
1.4275405797
 10
1.8275
 20
1.4275955618
  0
ARC
  5
188
330
1B
100
AcDbEntity
 67
     1
  8
0
  6
Continuous
 62
     7
370
    25
100
AcDbCircle
 10
1.2015610237
 20
1.3498994715
 30
0.0
 40
0.0359235384780145
100
AcDbArc
 50
322.4164701744
 51
37.5835298235
  0
LWPOLYLINE
  5
189
330
1B
100
AcDbEntity
 67
     1
  8
0
  6
Continuous
 62
     7
370
    25
100
AcDbPolyline
 90
      132
 70
   128
 43
0.0
 10
1.1075
 20
1.4275955618
 10
1.1120844769
 20
1.4275405797
 10
1.1166584093
 20
1.4273757597
 10
1.1212112771
 20
1.427101481
 10
1.1257326085
 20
1.4267183745
 10
1.1302120044
 20
1.4262273212
 10
1.1346391619
 20
1.4256294506
 10
1.1390038985
 20
1.4249261379
 10
1.143296175
 20
1.4241190006
 10
1.1475061193
 20
1.4232098953
 10
1.1516240482
 20
1.4222009129
 10
1.1556404903
 20
1.4210943741
 10
1.1595462078
 20
1.4198928239
 10
1.1633322173
 20
1.418599026
 10
1.166989811
 20
1.4172159561
 10
1.1705105762
 20
1.4157467954
 10
1.173886415
 20
1.4141949229
 10
1.1771095629
 20
1.412563908
 10
1.1801726067
 20
1.4108575022
 10
1.1830685011
 20
1.4090796302
 10
1.1857905855
 20
1.4072343811
 10
1.1883325991
 20
1.4053259991
 10
1.1906886951
 20
1.4033588735
 10
1.1928534544
 20
1.4013375288
 10
1.1948218981
 20
1.3992666142
 10
1.1965894986
 20
1.3971508927
 10
1.1981521904
 20
1.3949952307
 10
1.1995063792
 20
1.3928045862
 10
1.2006489505
 20
1.3905839978
 10
1.2015772761
 20
1.3883385729
 10
1.202289221
 20
1.3860734761
 10
1.2027831477
 20
1.3837939171
 10
1.2030579201
 20
1.381505139
 10
1.2031129062
 20
1.3792124061
 10
1.2029479795
 20
1.3769209917
 10
1.2025635194
 20
1.3746361662
 10
1.2019604102
 20
1.3723631847
 10
1.201140039
 20
1.3701072751
 10
1.2001042928
 20
1.3678736262
 10
1.1988555537
 20
1.3656673753
 10
1.1973966939
 20
1.363493597
 10
1.1957310688
 20
1.361357291
 10
1.1938625094
 20
1.3592633709
 10
1.1917953135
 20
1.3572166527
 10
1.1895342356
 20
1.355221844
 10
1.1870844764
 20
1.3532835328
 10
1.1844516704
 20
1.3514061775
 10
1.181641873
 20
1.3495940958
 10
1.178661547
 20
1.3478514558
 10
1.1755175471
 20
1.3461822655
 10
1.1722171047
 20
1.3445903641
 10
1.1687678108
 20
1.343079413
 10
1.1651775991
 20
1.3416528875
 10
1.161454727
 20
1.3403140687
 10
1.1576077573
 20
1.3390660358
 10
1.1536455382
 20
1.3379116593
 10
1.1495771828
 20
1.3368535944
 10
1.1454120486
 20
1.3358942747
 10
1.1411597154
 20
1.3350359066
 10
1.1368299639
 20
1.3342804644
 10
1.1324327524
 20
1.3336296856
 10
1.1279781949
 20
1.3330850671
 10
1.1234765368
 20
1.3326478615
 10
1.1189381322
 20
1.3323190743
 10
1.1143734195
 20
1.3320994618
 10
1.1097928978
 20
1.3319895292
 10
1.1052071022
 20
1.3319895292
 10
1.1006265805
 20
1.3320994618
 10
1.0960618678
 20
1.3323190743
 10
1.0915234632
 20
1.3326478615
 10
1.0870218051
 20
1.3330850671
 10
1.0825672476
 20
1.3336296856
 10
1.0781700361
 20
1.3342804644
 10
1.0738402846
 20
1.3350359066
 10
1.0695879514
 20
1.3358942747
 10
1.0654228172
 20
1.3368535944
 10
1.0613544618
 20
1.3379116593
 10
1.0573922427
 20
1.3390660358
 10
1.053545273
 20
1.3403140687
 10
1.0498224009
 20
1.3416528875
 10
1.0462321892
 20
1.343079413
 10
1.0427828953
 20
1.3445903641
 10
1.0394824529
 20
1.3461822655
 10
1.036338453
 20
1.3478514558
 10
1.033358127
 20
1.3495940958
 10
1.0305483296
 20
1.3514061775
 10
1.0279155236
 20
1.3532835328
 10
1.0254657644
 20
1.355221844
 10
1.0232046865
 20
1.3572166527
 10
1.0211374906
 20
1.3592633709
 10
1.0192689312
 20
1.361357291
 10
1.0176033061
 20
1.363493597
 10
1.0161444463
 20
1.3656673753
 10
1.0148957072
 20
1.3678736262
 10
1.013859961
 20
1.3701072751
 10
1.0130395898
 20
1.3723631847
 10
1.0124364806
 20
1.3746361662
 10
1.0120520205
 20
1.3769209917
 10
1.0118870938
 20
1.3792124061
 10
1.0119420799
 20
1.381505139
 10
1.0122168523
 20
1.3837939171
 10
1.012710779
 20
1.3860734761
 10
1.0134227239
 20
1.3883385729
 10
1.0143510495
 20
1.3905839978
 10
1.0154936208
 20
1.3928045862
 10
1.0168478096
 20
1.3949952307
 10
1.0184105014
 20
1.3971508927
 10
1.0201781019
 20
1.3992666142
 10
1.0221465456
 20
1.4013375288
 10
1.0243113049
 20
1.4033588735
 10
1.0266674009
 20
1.4053259991
 10
1.0292094145
 20
1.4072343811
 10
1.0319314989
 20
1.4090796302
 10
1.0348273933
 20
1.4108575022
 10
1.0378904371
 20
1.412563908
 10
1.041113585
 20
1.4141949229
 10
1.0444894238
 20
1.4157467954
 10
1.048010189
 20
1.4172159561
 10
1.0516677827
 20
1.418599026
 10
1.0554537922
 20
1.4198928239
 10
1.0593595097
 20
1.4210943741
 10
1.0633759518
 20
1.4222009129
 10
1.0674938807
 20
1.4232098953
 10
1.071703825
 20
1.4241190006
 10
1.0759961015
 20
1.4249261379
 10
1.0803608381
 20
1.4256294506
 10
1.0847879956
 20
1.4262273212
 10
1.0892673915
 20
1.4267183745
 10
1.0937887229
 20
1.427101481
 10
1.0983415907
 20
1.4273757597
 10
1.1029155231
 20
1.4275405797
 10
1.1075
 20
1.4275955618
  0
ARC
  5
18A
330
1B
100
AcDbEntity
 67
     1
  8
0
  6
Continuous
 62
     8
370
    25
100
AcDbCircle
 10
1.3467331095
 20
0.3480153377
 30
0.0
 40
0.0882782574750655
100
AcDbArc
 50
0.9194704824
 51
33.9059898116
  0
ARC
  5
18B
330
1B
100
AcDbEntity
 67
     1
  8
0
  6
Continuous
 62
     8
370
    25
100
AcDbCircle
 10
2.0667331095
 20
0.3480153377
 30
0.0
 40
0.0882782574750653
100
AcDbArc
 50
0.9194704824
 51
33.9059898116
  0
ARC
  5
18C
330
1B
100
AcDbEntity
 67
     1
  8
0
  6
Continuous
 62
     8
370
    25
100
AcDbCircle
 10
1.8275
 20
1.1247635406
 30
0.0
 40
0.602997610375761
100
AcDbArc
 50
258.3487037987
 51
281.6512962013
  0
LWPOLYLINE
  5
18D
330
1B
100
AcDbEntity
 67
     1
  8
0
  6
Continuous
 62
     8
370
    25
100
AcDbPolyline
 90
      121
 70
   128
 43
0.0
 10
1.515
 20
0.3494319476
 10
1.5150274547
 20
0.3473608106
 10
1.5152470634
 20
0.3432199921
 10
1.5156861264
 20
0.3390835395
 10
1.5163443351
 20
0.3349543598
 10
1.517221227
 20
0.3308353551
 10
1.5183161857
 20
0.3267294203
 10
1.5196284418
 20
0.322639441
 10
1.5211570729
 20
0.3185682918
 10
1.5229010047
 20
0.3145188338
 10
1.5248590116
 20
0.3104939131
 10
1.5270297174
 20
0.3064963584
 10
1.5294115966
 20
0.3025289793
 10
1.5320029751
 20
0.298594564
 10
1.5348020318
 20
0.2946958777
 10
1.5378067994
 20
0.2908356604
 10
1.541015166
 20
0.2870166251
 10
1.544424877
 20
0.283241456
 10
1.5480335358
 20
0.2795128061
 10
1.5518386063
 20
0.2758332961
 10
1.5558374142
 20
0.2722055119
 10
1.5600271492
 20
0.2686320031
 10
1.5644048666
 20
0.2651152814
 10
1.5689674898
 20
0.2616578182
 10
1.5737118121
 20
0.2582620434
 10
1.5786344991
 20
0.2549303438
 10
1.5837320912
 20
0.2516650608
 10
1.5890010056
 20
0.2484684892
 10
1.5944375394
 20
0.2453428758
 10
1.6000378718
 20
0.2422904171
 10
1.6057980666
 20
0.2393132585
 10
1.6117140757
 20
0.2364134924
 10
1.6177817411
 20
0.2335931567
 10
1.6239967986
 20
0.2308542336
 10
1.63035488
 20
0.2281986481
 10
1.6368515169
 20
0.2256282664
 10
1.6434821433
 20
0.2231448952
 10
1.6502420992
 20
0.2207502797
 10
1.6571266337
 20
0.2184461029
 10
1.6641309082
 20
0.2162339842
 10
1.67125
 20
0.2141154782
 10
1.6784789058
 20
0.212092074
 10
1.685812545
 20
0.2101651936
 10
1.6932457636
 20
0.2083361911
 10
1.7007733372
 20
0.2066063521
 10
1.7083899756
 20
0.2049768922
 10
1.7160903256
 20
0.2034489567
 10
1.7238689755
 20
0.2020236195
 10
1.7317204581
 20
0.2007018822
 10
1.7396392556
 20
0.1994846739
 10
1.7476198024
 20
0.1983728499
 10
1.7556564897
 20
0.1973671916
 10
1.7637436694
 20
0.1964684059
 10
1.7718756576
 20
0.1956771245
 10
1.7800467391
 20
0.1949939033
 10
1.7882511713
 20
0.1944192227
 10
1.7964831878
 20
0.1939534866
 10
1.8047370033
 20
0.1935970221
 10
1.8130068169
 20
0.1933500799
 10
1.8212868164
 20
0.1932128336
 10
1.8295711825
 20
0.1931853795
 10
1.837854093
 20
0.1932677369
 10
1.8461297266
 20
0.1934598481
 10
1.854392267
 20
0.1937615779
 10
1.8626359073
 20
0.1941727144
 10
1.8708548537
 20
0.1946929684
 10
1.87904333
 20
0.1953219746
 10
1.8871955811
 20
0.1960592906
 10
1.8953058775
 20
0.1969043985
 10
1.9033685194
 20
0.1978567041
 10
1.9113778401
 20
0.1989155382
 10
1.9193282107
 20
0.2000801567
 10
1.9272140436
 20
0.2013497411
 10
1.9350297965
 20
0.202723399
 10
1.9427699764
 20
0.2042001651
 10
1.9504291435
 20
0.2057790015
 10
1.9580019148
 20
0.2074587985
 10
1.9654829682
 20
0.2092383756
 10
1.9728670458
 20
0.2111164821
 10
1.9801489581
 20
0.213091798
 10
1.9873235872
 20
0.215162935
 10
1.9943858908
 20
0.2173284376
 10
2.0013309055
 20
0.2195867837
 10
2.0081537501
 20
0.2219363863
 10
2.0148496295
 20
0.224375594
 10
2.0214138379
 20
0.2269026924
 10
2.0278417617
 20
0.2295159056
 10
2.0341288835
 20
0.2322133969
 10
2.0402707846
 20
0.2349932705
 10
2.0462631483
 20
0.2378535727
 10
2.0521017632
 20
0.2407922933
 10
2.0577825259
 20
0.2438073668
 10
2.0633014438
 20
0.2468966743
 10
2.0686546382
 20
0.2500580445
 10
2.0738383469
 20
0.2532892557
 10
2.0788489266
 20
0.2565880368
 10
2.083682856
 20
0.2599520695
 10
2.0883367376
 20
0.2633789896
 10
2.0928073007
 20
0.2668663885
 10
2.0970914032
 20
0.2704118152
 10
2.1011860344
 20
0.274012778
 10
2.1050883165
 20
0.2776667461
 10
2.1087955068
 20
0.2813711515
 10
2.112305
 20
0.2851233907
 10
2.1156143296
 20
0.2889208265
 10
2.1187211697
 20
0.2927607902
 10
2.1216233368
 20
0.2966405828
 10
2.1243187912
 20
0.3005574777
 10
2.1268056385
 20
0.3045087221
 10
2.129082131
 20
0.3084915389
 10
2.1311466688
 20
0.3125031291
 10
2.1329978007
 20
0.3165406731
 10
2.134634226
 20
0.3206013335
 10
2.1360547944
 20
0.3246822563
 10
2.1372585075
 20
0.3287805734
 10
2.1382445194
 20
0.3328934045
 10
2.1390121372
 20
0.337017859
 10
2.1395608213
 20
0.3411510383
 10
2.139890186
 20
0.3452900374
 10
2.14
 20
0.3494319476
 10
2.14
 20
0.3494319476
  0
ARC
  5
18E
330
1B
100
AcDbEntity
 67
     1
  8
0
  6
Continuous
 62
     8
370
    25
100
AcDbCircle
 10
1.1075
 20
1.1247635406
 30
0.0
 40
0.6029976103757613
100
AcDbArc
 50
258.3487037987
 51
281.6512962013
  0
LWPOLYLINE
  5
18F
330
1B
100
AcDbEntity
 67
     1
  8
0
  6
Continuous
 62
     8
370
    25
100
AcDbPolyline
 90
      121
 70
   128
 43
0.0
 10
0.795
 20
0.3494319476
 10
0.7950274547
 20
0.3473608106
 10
0.7952470634
 20
0.3432199921
 10
0.7956861264
 20
0.3390835395
 10
0.7963443351
 20
0.3349543598
 10
0.797221227
 20
0.3308353551
 10
0.7983161857
 20
0.3267294203
 10
0.7996284418
 20
0.322639441
 10
0.8011570729
 20
0.3185682918
 10
0.8029010047
 20
0.3145188338
 10
0.8048590116
 20
0.3104939131
 10
0.8070297174
 20
0.3064963584
 10
0.8094115966
 20
0.3025289793
 10
0.8120029751
 20
0.298594564
 10
0.8148020318
 20
0.2946958777
 10
0.8178067994
 20
0.2908356604
 10
0.821015166
 20
0.2870166251
 10
0.824424877
 20
0.283241456
 10
0.8280335358
 20
0.2795128061
 10
0.8318386063
 20
0.2758332961
 10
0.8358374142
 20
0.2722055119
 10
0.8400271492
 20
0.2686320031
 10
0.8444048666
 20
0.2651152814
 10
0.8489674898
 20
0.2616578182
 10
0.8537118121
 20
0.2582620434
 10
0.8586344991
 20
0.2549303438
 10
0.8637320912
 20
0.2516650608
 10
0.8690010056
 20
0.2484684892
 10
0.8744375394
 20
0.2453428758
 10
0.8800378718
 20
0.2422904171
 10
0.8857980666
 20
0.2393132585
 10
0.8917140757
 20
0.2364134924
 10
0.8977817411
 20
0.2335931567
 10
0.9039967986
 20
0.2308542336
 10
0.91035488
 20
0.2281986481
 10
0.9168515169
 20
0.2256282664
 10
0.9234821433
 20
0.2231448952
 10
0.9302420992
 20
0.2207502797
 10
0.9371266337
 20
0.2184461029
 10
0.9441309082
 20
0.2162339842
 10
0.95125
 20
0.2141154782
 10
0.9584789058
 20
0.212092074
 10
0.965812545
 20
0.2101651936
 10
0.9732457636
 20
0.2083361911
 10
0.9807733372
 20
0.2066063521
 10
0.9883899756
 20
0.2049768922
 10
0.9960903256
 20
0.2034489567
 10
1.0038689755
 20
0.2020236195
 10
1.0117204581
 20
0.2007018822
 10
1.0196392556
 20
0.1994846739
 10
1.0276198024
 20
0.1983728499
 10
1.0356564897
 20
0.1973671916
 10
1.0437436694
 20
0.1964684059
 10
1.0518756576
 20
0.1956771245
 10
1.0600467391
 20
0.1949939033
 10
1.0682511713
 20
0.1944192227
 10
1.0764831878
 20
0.1939534866
 10
1.0847370033
 20
0.1935970221
 10
1.0930068169
 20
0.1933500799
 10
1.1012868164
 20
0.1932128336
 10
1.1095711825
 20
0.1931853795
 10
1.117854093
 20
0.1932677369
 10
1.1261297266
 20
0.1934598481
 10
1.134392267
 20
0.1937615779
 10
1.1426359073
 20
0.1941727144
 10
1.1508548537
 20
0.1946929684
 10
1.15904333
 20
0.1953219746
 10
1.1671955811
 20
0.1960592906
 10
1.1753058775
 20
0.1969043985
 10
1.1833685194
 20
0.1978567041
 10
1.1913778401
 20
0.1989155382
 10
1.1993282107
 20
0.2000801567
 10
1.2072140436
 20
0.2013497411
 10
1.2150297965
 20
0.202723399
 10
1.2227699764
 20
0.2042001651
 10
1.2304291435
 20
0.2057790015
 10
1.2380019148
 20
0.2074587985
 10
1.2454829682
 20
0.2092383756
 10
1.2528670458
 20
0.2111164821
 10
1.2601489581
 20
0.213091798
 10
1.2673235872
 20
0.215162935
 10
1.2743858908
 20
0.2173284376
 10
1.2813309055
 20
0.2195867837
 10
1.2881537501
 20
0.2219363863
 10
1.2948496295
 20
0.224375594
 10
1.3014138379
 20
0.2269026924
 10
1.3078417617
 20
0.2295159056
 10
1.3141288835
 20
0.2322133969
 10
1.3202707846
 20
0.2349932705
 10
1.3262631483
 20
0.2378535727
 10
1.3321017632
 20
0.2407922933
 10
1.3377825259
 20
0.2438073668
 10
1.3433014438
 20
0.2468966743
 10
1.3486546382
 20
0.2500580445
 10
1.3538383469
 20
0.2532892557
 10
1.3588489266
 20
0.2565880368
 10
1.363682856
 20
0.2599520695
 10
1.3683367376
 20
0.2633789896
 10
1.3728073007
 20
0.2668663885
 10
1.3770914032
 20
0.2704118152
 10
1.3811860344
 20
0.274012778
 10
1.3850883165
 20
0.2776667461
 10
1.3887955068
 20
0.2813711515
 10
1.392305
 20
0.2851233907
 10
1.3956143296
 20
0.2889208265
 10
1.3987211697
 20
0.2927607902
 10
1.4016233368
 20
0.2966405828
 10
1.4043187912
 20
0.3005574777
 10
1.4068056385
 20
0.3045087221
 10
1.409082131
 20
0.3084915389
 10
1.4111466688
 20
0.3125031291
 10
1.4129978007
 20
0.3165406731
 10
1.414634226
 20
0.3206013335
 10
1.4160547944
 20
0.3246822563
 10
1.4172585075
 20
0.3287805734
 10
1.4182445194
 20
0.3328934045
 10
1.4190121372
 20
0.337017859
 10
1.4195608213
 20
0.3411510383
 10
1.419890186
 20
0.3452900374
 10
1.42
 20
0.3494319476
 10
1.42
 20
0.3494319476
  0
ENDSEC
  0
SECTION
  2
OBJECTS
  0
DICTIONARY
  5
C
330
0
100
AcDbDictionary
281
     1
  3
ACAD_DETAILVIEWSTYLE
350
2EC
  3
ACAD_GROUP
350
D
  3
ACAD_LAYOUT
350
1A
  3
ACAD_MATERIAL
350
43
  3
ACAD_MLEADERSTYLE
350
6B
  3
ACAD_MLINESTYLE
350
17
  3
ACAD_PLOTSETTINGS
350
19
  3
ACAD_PLOTSTYLENAME
350
E
  3
ACAD_SCALELIST
350
47
  3
ACAD_SECTIONVIEWSTYLE
350
2ED
  3
ACAD_TABLESTYLE
350
69
  3
ACAD_VISUALSTYLE
350
2A
  3
ACDB_RECOMPOSE_DATA
350
2E9
  3
AcDbVariableDictionary
350
2E5
  0
SUN
  5
6D
330
29
100
AcDbSun
 90
        1
290
     0
 63
     7
421
 16777215
 40
1.0
291
     1
 91
  2455826
 92
 54000000
292
     0
 70
     2
 71
   256
280
     1
  0
DICTIONARY
  5
2EC
102
{ACAD_REACTORS
330
C
102
}
330
C
100
AcDbDictionary
281
     1
  0
DICTIONARY
  5
D
102
{ACAD_REACTORS
330
C
102
}
330
C
100
AcDbDictionary
281
     1
  0
DICTIONARY
  5
1A
102
{ACAD_REACTORS
330
C
102
}
330
C
100
AcDbDictionary
281
     1
  3
Back
350
258
  3
Left
350
26
  3
Model
350
22
  3
Right
350
1E
  3
Top
350
1FA
  0
DICTIONARY
  5
43
102
{ACAD_REACTORS
330
C
102
}
330
C
100
AcDbDictionary
281
     1
  3
ByBlock
350
45
  3
ByLayer
350
44
  3
Global
350
46
  0
DICTIONARY
  5
6B
102
{ACAD_REACTORS
330
C
102
}
330
C
100
AcDbDictionary
281
     1
  3
Standard
350
6C
  0
DICTIONARY
  5
17
102
{ACAD_REACTORS
330
C
102
}
330
C
100
AcDbDictionary
281
     1
  3
Standard
350
18
  0
DICTIONARY
  5
19
102
{ACAD_REACTORS
330
C
102
}
330
C
100
AcDbDictionary
281
     1
  0
ACDBDICTIONARYWDFLT
  5
E
102
{ACAD_REACTORS
330
C
102
}
330
C
100
AcDbDictionary
281
     1
  3
Normal
350
F
100
AcDbDictionaryWithDefault
340
F
  0
DICTIONARY
  5
47
102
{ACAD_REACTORS
330
C
102
}
330
C
100
AcDbDictionary
281
     1
  3
A0
350
48
  3
A1
350
49
  3
A2
350
4A
  3
A3
350
4B
  3
A4
350
4C
  3
A5
350
4D
  3
A6
350
4E
  3
A7
350
4F
  3
A8
350
50
  3
A9
350
51
  3
B0
350
52
  3
B1
350
53
  3
B2
350
54
  3
B3
350
55
  3
B4
350
56
  3
B5
350
57
  3
B6
350
58
  3
B7
350
59
  3
B8
350
5A
  3
B9
350
5B
  3
C0
350
5C
  3
C1
350
5D
  3
C2
350
5E
  3
C3
350
5F
  3
C4
350
60
  3
C5
350
61
  3
C6
350
62
  3
C7
350
63
  3
C8
350
64
  3
C9
350
65
  3
D0
350
66
  3
D1
350
67
  3
D2
350
68
  0
DICTIONARY
  5
2ED
102
{ACAD_REACTORS
330
C
102
}
330
C
100
AcDbDictionary
281
     1
  0
DICTIONARY
  5
69
102
{ACAD_REACTORS
330
C
102
}
330
C
100
AcDbDictionary
281
     1
  3
Standard
350
6A
  0
DICTIONARY
  5
2A
102
{ACAD_REACTORS
330
C
102
}
330
C
100
AcDbDictionary
281
     1
  3
2dWireframe
350
2F
  3
Basic
350
32
  3
Brighten
350
36
  3
ColorChange
350
3A
  3
Conceptual
350
34
  3
Dim
350
35
  3
EdgeColorOff
350
3D
  3
Facepattern
350
39
  3
Flat
350
2B
  3
FlatWithEdges
350
2C
  3
Gouraud
350
2D
  3
GouraudWithEdges
350
2E
  3
Hidden
350
31
  3
JitterOff
350
3B
  3
Linepattern
350
38
  3
OverhangOff
350
3C
  3
Realistic
350
33
  3
Shaded
350
42
  3
Shaded with edges
350
41
  3
Shades of Gray
350
3E
  3
Sketchy
350
3F
  3
Thicken
350
37
  3
Wireframe
350
30
  3
X-Ray
350
40
  0
XRECORD
  5
2E9
102
{ACAD_REACTORS
330
C
102
}
330
C
100
AcDbXrecord
280
     1
 90
        1
330
6A
  0
DICTIONARY
  5
2E5
102
{ACAD_REACTORS
330
C
102
}
330
C
100
AcDbDictionary
281
     1
  3
CANNOSCALE
350
2E6
  3
CMLEADERSTYLE
350
2EB
  3
CTABLESTYLE
350
2EA
  0
LAYOUT
  5
258
102
{ACAD_REACTORS
330
1A
102
}
330
1A
100
AcDbPlotSettings
  1

  2
none_device
  4
ANSI_A_(11.00_x_8.50_Inches)
  6

 40
6.35
 41
19.05
 42
6.35000508
 43
19.05000254
 44
279.4
 45
215.9
 46
0.0
 47
0.0
 48
0.0
 49
0.0
140
0.0
141
0.0
142
1.0
143
1.0
 70
  4832
 72
     0
 73
     0
 74
     1
  7

 75
    16
 76
     0
 77
     2
 78
   300
147
1.0
148
0.0
149
0.0
100
AcDbLayout
  1
Back
 70
     1
 71
     4
 10
0.0
 20
0.0
 11
11.0
 21
8.5
 12
0.0
 22
0.0
 32
0.0
 14
0.0
 24
0.0
 34
0.0
 15
11.0
 25
8.5
 35
0.0
146
0.0
 13
0.0
 23
0.0
 33
0.0
 16
1.0
 26
0.0
 36
0.0
 17
0.0
 27
1.0
 37
0.0
 76
     0
330
257
  0
LAYOUT
  5
26
102
{ACAD_REACTORS
330
1A
102
}
330
1A
100
AcDbPlotSettings
  1

  2
none_device
  4
ANSI_A_(11.00_x_8.50_Inches)
  6

 40
6.35
 41
19.05
 42
6.35000508
 43
19.05000254
 44
279.4
 45
215.9
 46
0.0
 47
0.0
 48
0.0
 49
0.0
140
0.0
141
0.0
142
1.0
143
1.0
 70
  4832
 72
     0
 73
     0
 74
     1
  7

 75
    16
 76
     0
 77
     2
 78
   300
147
1.0
148
0.0
149
0.0
100
AcDbLayout
  1
Left
 70
     1
 71
     2
 10
0.0
 20
0.0
 11
11.0
 21
8.5
 12
0.0
 22
0.0
 32
0.0
 14
0.0
 24
0.0
 34
0.0
 15
11.0
 25
8.5
 35
0.0
146
0.0
 13
0.0
 23
0.0
 33
0.0
 16
1.0
 26
0.0
 36
0.0
 17
0.0
 27
1.0
 37
0.0
 76
     0
330
23
  0
LAYOUT
  5
22
102
{ACAD_REACTORS
330
1A
102
}
330
1A
100
AcDbPlotSettings
  1

  2
none_device
  4
Letter_(8.50_x_11.00_Inches)
  6

 40
6.35
 41
6.35
 42
6.35000508
 43
6.35000508
 44
215.9
 45
279.4
 46
0.0
 47
0.0
 48
0.0
 49
0.0
140
0.0
141
0.0
142
1.0
143
1.0
 70
  1712
 72
     0
 73
     0
 74
     0
  7

 75
     0
 76
     0
 77
     2
 78
   300
147
1.0
148
0.0
149
0.0
100
AcDbLayout
  1
Model
 70
     1
 71
     0
 10
0.0
 20
0.0
 11
11.0
 21
8.5
 12
0.0
 22
0.0
 32
0.0
 14
0.0
 24
0.0
 34
0.0
 15
11.0
 25
8.5
 35
0.0
146
0.0
 13
0.0
 23
0.0
 33
0.0
 16
1.0
 26
0.0
 36
0.0
 17
0.0
 27
1.0
 37
0.0
 76
     0
330
1F
331
29
  0
LAYOUT
  5
1E
102
{ACAD_REACTORS
330
1A
102
}
330
1A
100
AcDbPlotSettings
  1

  2
none_device
  4
ANSI_A_(11.00_x_8.50_Inches)
  6

 40
6.35
 41
19.05
 42
6.35000508
 43
19.05000254
 44
279.4
 45
215.9
 46
0.0
 47
0.0
 48
0.0
 49
0.0
140
0.0
141
0.0
142
1.0
143
1.0
 70
  4832
 72
     0
 73
     0
 74
     1
  7

 75
     0
 76
     0
 77
     2
 78
   300
147
1.0
148
0.0
149
0.0
100
AcDbLayout
  1
Right
 70
     1
 71
     1
 10
0.0
 20
0.0
 11
11.0
 21
8.5
 12
0.0
 22
0.0
 32
0.0
 14
0.0
 24
0.0
 34
0.0
 15
11.0
 25
8.5
 35
0.0
146
0.0
 13
0.0
 23
0.0
 33
0.0
 16
1.0
 26
0.0
 36
0.0
 17
0.0
 27
1.0
 37
0.0
 76
     0
330
1B
  0
LAYOUT
  5
1FA
102
{ACAD_REACTORS
330
1A
102
}
330
1A
100
AcDbPlotSettings
  1

  2
none_device
  4
ANSI_A_(11.00_x_8.50_Inches)
  6

 40
6.35
 41
19.05
 42
6.35000508
 43
19.05000254
 44
279.4
 45
215.9
 46
0.0
 47
0.0
 48
0.0
 49
0.0
140
0.0
141
0.0
142
1.0
143
1.0
 70
  4832
 72
     0
 73
     0
 74
     1
  7

 75
    16
 76
     0
 77
     2
 78
   300
147
1.0
148
0.0
149
0.0
100
AcDbLayout
  1
Top
 70
     1
 71
     3
 10
0.0
 20
0.0
 11
11.0
 21
8.5
 12
0.0
 22
0.0
 32
0.0
 14
0.0
 24
0.0
 34
0.0
 15
11.0
 25
8.5
 35
0.0
146
0.0
 13
0.0
 23
0.0
 33
0.0
 16
1.0
 26
0.0
 36
0.0
 17
0.0
 27
1.0
 37
0.0
 76
     0
330
1F9
  0
MATERIAL
  5
45
102
{ACAD_REACTORS
330
43
102
}
330
43
100
AcDbMaterial
  1
ByBlock
 72
     1
 94
      127
  0
MATERIAL
  5
44
102
{ACAD_REACTORS
330
43
102
}
330
43
100
AcDbMaterial
  1
ByLayer
 72
     1
 94
      127
  0
MATERIAL
  5
46
102
{ACAD_REACTORS
330
43
102
}
330
43
100
AcDbMaterial
  1
Global
 72
     1
 94
      127
  0
MLEADERSTYLE
  5
6C
102
{ACAD_REACTORS
330
6B
102
}
330
6B
100
AcDbMLeaderStyle
179
     2
170
     2
171
     1
172
     0
 90
        2
 40
0.0
 41
0.0
173
     1
 91
-1056964608
340
14
 92
       -2
290
     1
 42
0.09
291
     1
 43
0.36
  3
Standard
341
0
 44
0.18
300

342
11
174
     1
178
     6
175
     1
176
     0
 93
-1056964608
 45
0.18
292
     0
297
     0
 46
0.18
343
0
 94
-1056964608
 47
1.0
 49
1.0
140
1.0
293
     1
141
0.0
294
     1
177
     0
142
1.0
295
     0
296
     0
143
0.125
271
     0
272
     9
273
     9
298
     0
  0
MLINESTYLE
  5
18
102
{ACAD_REACTORS
330
17
102
}
330
17
100
AcDbMlineStyle
  2
Standard
 70
     0
  3

 62
   256
 51
90.0
 52
90.0
 71
     2
 49
0.5
 62
   256
  6
BYLAYER
 49
-0.5
 62
   256
  6
BYLAYER
  0
ACDBPLACEHOLDER
  5
F
102
{ACAD_REACTORS
330
E
102
}
330
E
  0
SCALE
  5
48
102
{ACAD_REACTORS
330
47
102
}
330
47
100
AcDbScale
 70
     0
300
1:1
140
1.0
141
1.0
290
     1
  0
SCALE
  5
49
102
{ACAD_REACTORS
330
47
102
}
330
47
100
AcDbScale
 70
     0
300
1:2
140
1.0
141
2.0
290
     0
  0
SCALE
  5
4A
102
{ACAD_REACTORS
330
47
102
}
330
47
100
AcDbScale
 70
     0
300
1:4
140
1.0
141
4.0
290
     0
  0
SCALE
  5
4B
102
{ACAD_REACTORS
330
47
102
}
330
47
100
AcDbScale
 70
     0
300
1:5
140
1.0
141
5.0
290
     0
  0
SCALE
  5
4C
102
{ACAD_REACTORS
330
47
102
}
330
47
100
AcDbScale
 70
     0
300
1:8
140
1.0
141
8.0
290
     0
  0
SCALE
  5
4D
102
{ACAD_REACTORS
330
47
102
}
330
47
100
AcDbScale
 70
     0
300
1:10
140
1.0
141
10.0
290
     0
  0
SCALE
  5
4E
102
{ACAD_REACTORS
330
47
102
}
330
47
100
AcDbScale
 70
     0
300
1:16
140
1.0
141
16.0
290
     0
  0
SCALE
  5
4F
102
{ACAD_REACTORS
330
47
102
}
330
47
100
AcDbScale
 70
     0
300
1:20
140
1.0
141
20.0
290
     0
  0
SCALE
  5
50
102
{ACAD_REACTORS
330
47
102
}
330
47
100
AcDbScale
 70
     0
300
1:30
140
1.0
141
30.0
290
     0
  0
SCALE
  5
51
102
{ACAD_REACTORS
330
47
102
}
330
47
100
AcDbScale
 70
     0
300
1:40
140
1.0
141
40.0
290
     0
  0
SCALE
  5
52
102
{ACAD_REACTORS
330
47
102
}
330
47
100
AcDbScale
 70
     0
300
1:50
140
1.0
141
50.0
290
     0
  0
SCALE
  5
53
102
{ACAD_REACTORS
330
47
102
}
330
47
100
AcDbScale
 70
     0
300
1:100
140
1.0
141
100.0
290
     0
  0
SCALE
  5
54
102
{ACAD_REACTORS
330
47
102
}
330
47
100
AcDbScale
 70
     0
300
2:1
140
2.0
141
1.0
290
     0
  0
SCALE
  5
55
102
{ACAD_REACTORS
330
47
102
}
330
47
100
AcDbScale
 70
     0
300
4:1
140
4.0
141
1.0
290
     0
  0
SCALE
  5
56
102
{ACAD_REACTORS
330
47
102
}
330
47
100
AcDbScale
 70
     0
300
8:1
140
8.0
141
1.0
290
     0
  0
SCALE
  5
57
102
{ACAD_REACTORS
330
47
102
}
330
47
100
AcDbScale
 70
     0
300
10:1
140
10.0
141
1.0
290
     0
  0
SCALE
  5
58
102
{ACAD_REACTORS
330
47
102
}
330
47
100
AcDbScale
 70
     0
300
100:1
140
100.0
141
1.0
290
     0
  0
SCALE
  5
59
102
{ACAD_REACTORS
330
47
102
}
330
47
100
AcDbScale
 70
     0
300
1/128" = 1'-0"
140
0.0078125
141
12.0
290
     0
  0
SCALE
  5
5A
102
{ACAD_REACTORS
330
47
102
}
330
47
100
AcDbScale
 70
     0
300
1/64" = 1'-0"
140
0.015625
141
12.0
290
     0
  0
SCALE
  5
5B
102
{ACAD_REACTORS
330
47
102
}
330
47
100
AcDbScale
 70
     0
300
1/32" = 1'-0"
140
0.03125
141
12.0
290
     0
  0
SCALE
  5
5C
102
{ACAD_REACTORS
330
47
102
}
330
47
100
AcDbScale
 70
     0
300
1/16" = 1'-0"
140
0.0625
141
12.0
290
     0
  0
SCALE
  5
5D
102
{ACAD_REACTORS
330
47
102
}
330
47
100
AcDbScale
 70
     0
300
3/32" = 1'-0"
140
0.09375
141
12.0
290
     0
  0
SCALE
  5
5E
102
{ACAD_REACTORS
330
47
102
}
330
47
100
AcDbScale
 70
     0
300
1/8" = 1'-0"
140
0.125
141
12.0
290
     0
  0
SCALE
  5
5F
102
{ACAD_REACTORS
330
47
102
}
330
47
100
AcDbScale
 70
     0
300
3/16" = 1'-0"
140
0.1875
141
12.0
290
     0
  0
SCALE
  5
60
102
{ACAD_REACTORS
330
47
102
}
330
47
100
AcDbScale
 70
     0
300
1/4" = 1'-0"
140
0.25
141
12.0
290
     0
  0
SCALE
  5
61
102
{ACAD_REACTORS
330
47
102
}
330
47
100
AcDbScale
 70
     0
300
3/8" = 1'-0"
140
0.375
141
12.0
290
     0
  0
SCALE
  5
62
102
{ACAD_REACTORS
330
47
102
}
330
47
100
AcDbScale
 70
     0
300
1/2" = 1'-0"
140
0.5
141
12.0
290
     0
  0
SCALE
  5
63
102
{ACAD_REACTORS
330
47
102
}
330
47
100
AcDbScale
 70
     0
300
3/4" = 1'-0"
140
0.75
141
12.0
290
     0
  0
SCALE
  5
64
102
{ACAD_REACTORS
330
47
102
}
330
47
100
AcDbScale
 70
     0
300
1" = 1'-0"
140
1.0
141
12.0
290
     0
  0
SCALE
  5
65
102
{ACAD_REACTORS
330
47
102
}
330
47
100
AcDbScale
 70
     0
300
1-1/2" = 1'-0"
140
1.5
141
12.0
290
     0
  0
SCALE
  5
66
102
{ACAD_REACTORS
330
47
102
}
330
47
100
AcDbScale
 70
     0
300
3" = 1'-0"
140
3.0
141
12.0
290
     0
  0
SCALE
  5
67
102
{ACAD_REACTORS
330
47
102
}
330
47
100
AcDbScale
 70
     0
300
6" = 1'-0"
140
6.0
141
12.0
290
     0
  0
SCALE
  5
68
102
{ACAD_REACTORS
330
47
102
}
330
47
100
AcDbScale
 70
     0
300
1'-0" = 1'-0"
140
12.0
141
12.0
290
     0
  0
TABLESTYLE
  5
6A
102
{ACAD_REACTORS
330
69
102
}
102
{ACAD_XDICTIONARY
360
2E7
102
}
330
69
100
AcDbTableStyle
  3
Standard
 70
     0
 71
     0
 40
0.06
 41
0.06
280
     0
281
     0
  7
Standard
140
0.18
170
     2
 62
     0
 63
   257
283
     0
 90
        4
 91
        0
  1

274
    -2
284
     1
 64
     0
275
    -2
285
     1
 65
     0
276
    -2
286
     1
 66
     0
277
    -2
287
     1
 67
     0
278
    -2
288
     1
 68
     0
279
    -2
289
     1
 69
     0
  7
Standard
140
0.25
170
     5
 62
     0
 63
   257
283
     0
 90
        4
 91
        0
  1

274
    -2
284
     1
 64
     0
275
    -2
285
     1
 65
     0
276
    -2
286
     1
 66
     0
277
    -2
287
     1
 67
     0
278
    -2
288
     1
 68
     0
279
    -2
289
     1
 69
     0
  7
Standard
140
0.18
170
     5
 62
     0
 63
   257
283
     0
 90
        4
 91
        0
  1

274
    -2
284
     1
 64
     0
275
    -2
285
     1
 65
     0
276
    -2
286
     1
 66
     0
277
    -2
287
     1
 67
     0
278
    -2
288
     1
 68
     0
279
    -2
289
     1
 69
     0
  0
VISUALSTYLE
  5
2F
102
{ACAD_REACTORS
330
2A
102
}
330
2A
100
AcDbVisualStyle
  2
2dWireframe
 70
     4
177
     3
291
     0
 70
    58
 90
        0
176
     1
 90
        2
176
     1
 90
        0
176
     1
 90
        0
176
     1
 40
0.6
176
     1
 40
30.0
176
     1
 62
     7
420
 16777215
176
     1
 90
        1
176
     1
 90
        4
176
     1
 62
     7
176
     1
 62
   257
176
     1
 90
        1
176
     1
 90
        1
176
     1
 40
1.0
176
     1
 90
        0
176
     1
 62
   257
176
     1
 40
1.0
176
     1
 90
        1
176
     1
 90
        6
176
     1
 90
        2
176
     1
 62
     7
176
     1
 90
        5
176
     1
 90
        0
176
     1
 90
        0
176
     1
290
     0
176
     1
 90
        1
176
     1
 40
0.0
176
     1
 90
        0
176
     1
290
     1
176
     1
290
     1
176
     1
290
     0
176
     1
290
     0
176
     1
290
     0
176
     1
290
     0
176
     1
290
     0
176
     1
290
     0
176
     1
290
     0
176
     1
 90
       50
176
     1
 40
0.0
176
     1
 40
1.0
176
     1
 90
        0
176
     1
 62
    18
420
        0
176
     1
 90
       50
176
     1
 90
        3
176
     1
 62
     5
420
      255
176
     1
290
     0
176
     1
 90
       50
176
     1
 90
       50
176
     1
 90
       50
176
     1
290
     0
176
     1
 90
       50
176
     1
 62
   256
176
     0
 40
1.0
176
     0
 90
        2
176
     1
  1
strokes_ogs.tif
176
     1
290
     0
176
     1
 40
1.0
176
     1
 40
1.0
176
     1
  0
VISUALSTYLE
  5
32
102
{ACAD_REACTORS
330
2A
102
}
330
2A
100
AcDbVisualStyle
  2
Basic
 70
     7
177
     3
291
     1
 70
    58
 90
        1
176
     1
 90
        0
176
     1
 90
        1
176
     1
 90
        0
176
     1
 40
0.6
176
     1
 40
30.0
176
     1
 62
     7
420
 16777215
176
     1
 90
        0
176
     1
 90
        4
176
     1
 62
     7
176
     1
 62
   257
176
     1
 90
        1
176
     1
 90
        1
176
     1
 40
1.0
176
     1
 90
        8
176
     1
 62
     7
176
     1
 40
1.0
176
     1
 90
        1
176
     1
 90
        6
176
     1
 90
        2
176
     1
 62
     7
176
     1
 90
        5
176
     1
 90
        0
176
     1
 90
        0
176
     1
290
     0
176
     1
 90
        1
176
     1
 40
0.0
176
     1
 90
        0
176
     1
290
     0
176
     1
290
     1
176
     1
290
     1
176
     1
290
     0
176
     1
290
     0
176
     1
290
     0
176
     1
290
     0
176
     1
290
     0
176
     1
290
     0
176
     1
 90
       50
176
     1
 40
0.0
176
     1
 40
1.0
176
     1
 90
        0
176
     1
 62
    18
420
        0
176
     1
 90
       50
176
     1
 90
        3
176
     1
 62
     5
420
      255
176
     1
290
     0
176
     1
 90
       50
176
     1
 90
       50
176
     1
 90
       50
176
     1
290
     0
176
     1
 90
       50
176
     1
 62
   256
176
     0
 40
1.0
176
     0
 90
        2
176
     1
  1
strokes_ogs.tif
176
     1
290
     0
176
     1
 40
1.0
176
     1
 40
1.0
176
     1
  0
VISUALSTYLE
  5
36
102
{ACAD_REACTORS
330
2A
102
}
330
2A
100
AcDbVisualStyle
  2
Brighten
 70
    12
177
     3
291
     1
 70
    58
 90
        2
176
     1
 90
        2
176
     1
 90
        0
176
     1
 90
        0
176
     1
 40
0.6
176
     1
 40
30.0
176
     1
 62
     7
420
 16777215
176
     1
 90
        1
176
     1
 90
        4
176
     1
 62
     7
176
     1
 62
   257
176
     1
 90
        1
176
     1
 90
        1
176
     1
 40
1.0
176
     1
 90
        8
176
     1
 62
     7
176
     1
 40
1.0
176
     1
 90
        1
176
     1
 90
        6
176
     1
 90
        2
176
     1
 62
     7
176
     1
 90
        5
176
     1
 90
        0
176
     1
 90
        0
176
     1
290
     0
176
     1
 90
        1
176
     1
 40
50.0
176
     1
 90
        0
176
     1
290
     0
176
     1
290
     1
176
     1
290
     1
176
     1
290
     0
176
     1
290
     0
176
     1
290
     0
176
     1
290
     0
176
     1
290
     0
176
     1
290
     0
176
     1
 90
       50
176
     1
 40
0.0
176
     1
 40
1.0
176
     1
 90
        0
176
     1
 62
    18
420
        0
176
     1
 90
       50
176
     1
 90
        3
176
     1
 62
     5
420
      255
176
     1
290
     0
176
     1
 90
       50
176
     1
 90
       50
176
     1
 90
       50
176
     1
290
     0
176
     1
 90
       50
176
     1
 62
   256
176
     0
 40
1.0
176
     0
 90
        2
176
     1
  1
strokes_ogs.tif
176
     1
290
     0
176
     1
 40
1.0
176
     1
 40
1.0
176
     1
  0
VISUALSTYLE
  5
3A
102
{ACAD_REACTORS
330
2A
102
}
330
2A
100
AcDbVisualStyle
  2
ColorChange
 70
    16
177
     3
291
     1
 70
    58
 90
        2
176
     1
 90
        2
176
     1
 90
        3
176
     1
 90
        0
176
     1
 40
0.6
176
     1
 40
30.0
176
     1
 62
     8
420
  8421504
176
     1
 90
        1
176
     1
 90
        4
176
     1
 62
     7
176
     1
 62
   257
176
     1
 90
        1
176
     1
 90
        1
176
     1
 40
1.0
176
     1
 90
        8
176
     1
 62
     8
420
  8421504
176
     1
 40
1.0
176
     1
 90
        1
176
     1
 90
        6
176
     1
 90
        2
176
     1
 62
     7
176
     1
 90
        5
176
     1
 90
        0
176
     1
 90
        0
176
     1
290
     0
176
     1
 90
        1
176
     1
 40
0.0
176
     1
 90
        0
176
     1
290
     0
176
     1
290
     1
176
     1
290
     1
176
     1
290
     0
176
     1
290
     0
176
     1
290
     0
176
     1
290
     0
176
     1
290
     0
176
     1
290
     0
176
     1
 90
       50
176
     1
 40
0.0
176
     1
 40
1.0
176
     1
 90
        0
176
     1
 62
    18
420
        0
176
     1
 90
       50
176
     1
 90
        3
176
     1
 62
     5
420
      255
176
     1
290
     0
176
     1
 90
       50
176
     1
 90
       50
176
     1
 90
       50
176
     1
290
     0
176
     1
 90
       50
176
     1
 62
   256
176
     0
 40
1.0
176
     0
 90
        2
176
     1
  1
strokes_ogs.tif
176
     1
290
     0
176
     1
 40
1.0
176
     1
 40
1.0
176
     1
  0
VISUALSTYLE
  5
34
102
{ACAD_REACTORS
330
2A
102
}
330
2A
100
AcDbVisualStyle
  2
Conceptual
 70
     9
177
     3
291
     0
 70
    58
 90
        3
176
     1
 90
        2
176
     1
 90
        0
176
     1
 90
        0
176
     1
 40
0.6
176
     1
 40
30.0
176
     1
 62
     7
420
 16777215
176
     1
 90
        2
176
     1
 90
        2
176
     1
 62
     7
176
     1
 62
   257
176
     1
 90
        1
176
     1
 90
        1
176
     1
 40
179.0
176
     1
 90
        8
176
     1
 62
     7
176
     1
 40
1.0
176
     1
 90
        1
176
     1
 90
        6
176
     1
 90
        2
176
     1
 62
     7
176
     1
 90
        3
176
     1
 90
        0
176
     1
 90
        0
176
     1
290
     0
176
     1
 90
        1
176
     1
 40
0.0
176
     1
 90
        0
176
     1
290
     0
176
     1
290
     1
176
     1
290
     1
176
     1
290
     0
176
     1
290
     0
176
     1
290
     0
176
     1
290
     0
176
     1
290
     0
176
     1
290
     0
176
     1
 90
       50
176
     1
 40
0.0
176
     1
 40
1.0
176
     1
 90
        0
176
     1
 62
    18
420
        0
176
     1
 90
       50
176
     1
 90
        3
176
     1
 62
     5
420
      255
176
     1
290
     0
176
     1
 90
       50
176
     1
 90
       50
176
     1
 90
       50
176
     1
290
     0
176
     1
 90
       50
176
     1
 62
   256
176
     0
 40
1.0
176
     0
 90
        2
176
     1
  1
strokes_ogs.tif
176
     1
290
     0
176
     1
 40
1.0
176
     1
 40
1.0
176
     1
  0
VISUALSTYLE
  5
35
102
{ACAD_REACTORS
330
2A
102
}
330
2A
100
AcDbVisualStyle
  2
Dim
 70
    11
177
     3
291
     1
 70
    58
 90
        2
176
     1
 90
        2
176
     1
 90
        0
176
     1
 90
        0
176
     1
 40
0.6
176
     1
 40
30.0
176
     1
 62
     7
420
 16777215
176
     1
 90
        1
176
     1
 90
        4
176
     1
 62
     7
176
     1
 62
   257
176
     1
 90
        1
176
     1
 90
        1
176
     1
 40
1.0
176
     1
 90
        8
176
     1
 62
     7
176
     1
 40
1.0
176
     1
 90
        1
176
     1
 90
        6
176
     1
 90
        2
176
     1
 62
     7
176
     1
 90
        5
176
     1
 90
        0
176
     1
 90
        0
176
     1
290
     0
176
     1
 90
        1
176
     1
 40
-50.0
176
     1
 90
        0
176
     1
290
     0
176
     1
290
     1
176
     1
290
     1
176
     1
290
     0
176
     1
290
     0
176
     1
290
     0
176
     1
290
     0
176
     1
290
     0
176
     1
290
     0
176
     1
 90
       50
176
     1
 40
0.0
176
     1
 40
1.0
176
     1
 90
        0
176
     1
 62
    18
420
        0
176
     1
 90
       50
176
     1
 90
        3
176
     1
 62
     5
420
      255
176
     1
290
     0
176
     1
 90
       50
176
     1
 90
       50
176
     1
 90
       50
176
     1
290
     0
176
     1
 90
       50
176
     1
 62
   256
176
     0
 40
1.0
176
     0
 90
        2
176
     1
  1
strokes_ogs.tif
176
     1
290
     0
176
     1
 40
1.0
176
     1
 40
1.0
176
     1
  0
VISUALSTYLE
  5
3D
102
{ACAD_REACTORS
330
2A
102
}
330
2A
100
AcDbVisualStyle
  2
EdgeColorOff
 70
    22
177
     3
291
     1
 70
    58
 90
        2
176
     0
 90
        2
176
     0
 90
        0
176
     0
 90
        0
176
     0
 40
0.6
176
     0
 40
30.0
176
     0
 62
     7
420
 16777215
176
     0
 90
        1
176
     0
 90
        4
176
     0
 62
     7
176
     0
 62
   257
176
     0
 90
        1
176
     0
 90
        1
176
     0
 40
1.0
176
     0
 90
        8
176
     2
 62
     7
176
     0
 40
1.0
176
     0
 90
        1
176
     0
 90
        6
176
     0
 90
        2
176
     0
 62
     7
176
     0
 90
        5
176
     0
 90
        0
176
     0
 90
        0
176
     0
290
     0
176
     0
 90
        1
176
     0
 40
0.0
176
     0
 90
        0
176
     0
290
     0
176
     0
290
     1
176
     0
290
     1
176
     0
290
     0
176
     0
290
     0
176
     0
290
     0
176
     0
290
     0
176
     0
290
     0
176
     0
290
     0
176
     0
 90
       50
176
     0
 40
0.0
176
     0
 40
1.0
176
     0
 90
        0
176
     0
 62
    18
420
        0
176
     0
 90
       50
176
     0
 90
        3
176
     0
 62
     5
420
      255
176
     0
290
     0
176
     0
 90
       50
176
     0
 90
       50
176
     0
 90
       50
176
     0
290
     0
176
     0
 90
       50
176
     0
 62
   256
176
     0
 40
1.0
176
     0
 90
        2
176
     0
  1
strokes_ogs.tif
176
     0
290
     0
176
     0
 40
1.0
176
     0
 40
1.0
176
     0
  0
VISUALSTYLE
  5
39
102
{ACAD_REACTORS
330
2A
102
}
330
2A
100
AcDbVisualStyle
  2
Facepattern
 70
    15
177
     3
291
     1
 70
    58
 90
        2
176
     1
 90
        2
176
     1
 90
        0
176
     1
 90
        0
176
     1
 40
0.6
176
     1
 40
30.0
176
     1
 62
     7
420
 16777215
176
     1
 90
        1
176
     1
 90
        4
176
     1
 62
     7
176
     1
 62
   257
176
     1
 90
        1
176
     1
 90
        1
176
     1
 40
1.0
176
     1
 90
        8
176
     1
 62
     7
176
     1
 40
1.0
176
     1
 90
        1
176
     1
 90
        6
176
     1
 90
        2
176
     1
 62
     7
176
     1
 90
        5
176
     1
 90
        0
176
     1
 90
        0
176
     1
290
     0
176
     1
 90
        1
176
     1
 40
0.0
176
     1
 90
        0
176
     1
290
     0
176
     1
290
     1
176
     1
290
     1
176
     1
290
     0
176
     1
290
     0
176
     1
290
     0
176
     1
290
     0
176
     1
290
     0
176
     1
290
     0
176
     1
 90
       50
176
     1
 40
0.0
176
     1
 40
1.0
176
     1
 90
        0
176
     1
 62
    18
420
        0
176
     1
 90
       50
176
     1
 90
        3
176
     1
 62
     5
420
      255
176
     1
290
     0
176
     1
 90
       50
176
     1
 90
       50
176
     1
 90
       50
176
     1
290
     0
176
     1
 90
       50
176
     1
 62
   256
176
     0
 40
1.0
176
     0
 90
        2
176
     1
  1
strokes_ogs.tif
176
     1
290
     0
176
     1
 40
1.0
176
     1
 40
1.0
176
     1
  0
VISUALSTYLE
  5
2B
102
{ACAD_REACTORS
330
2A
102
}
330
2A
100
AcDbVisualStyle
  2
Flat
 70
     0
177
     3
291
     1
 70
    58
 90
        2
176
     1
 90
        1
176
     1
 90
        1
176
     1
 90
        2
176
     1
 40
0.6
176
     1
 40
30.0
176
     1
 62
     7
420
 16777215
176
     1
 90
        0
176
     1
 90
        0
176
     1
 62
     7
176
     1
 62
   257
176
     1
 90
        1
176
     1
 90
        1
176
     1
 40
1.0
176
     1
 90
        8
176
     1
 62
     7
176
     1
 40
1.0
176
     1
 90
        1
176
     1
 90
        6
176
     1
 90
        2
176
     1
 62
     7
176
     1
 90
        5
176
     1
 90
        0
176
     1
 90
        0
176
     1
290
     0
176
     1
 90
       13
176
     1
 40
0.0
176
     1
 90
        0
176
     1
290
     0
176
     1
290
     1
176
     1
290
     1
176
     1
290
     0
176
     1
290
     0
176
     1
290
     0
176
     1
290
     0
176
     1
290
     0
176
     1
290
     0
176
     1
 90
       50
176
     1
 40
0.0
176
     1
 40
1.0
176
     1
 90
        0
176
     1
 62
    18
420
        0
176
     1
 90
       50
176
     1
 90
        3
176
     1
 62
     5
420
      255
176
     1
290
     0
176
     1
 90
       50
176
     1
 90
       50
176
     1
 90
       50
176
     1
290
     0
176
     1
 90
       50
176
     1
 62
   256
176
     0
 40
1.0
176
     0
 90
        2
176
     1
  1
strokes_ogs.tif
176
     1
290
     0
176
     1
 40
1.0
176
     1
 40
1.0
176
     1
  0
VISUALSTYLE
  5
2C
102
{ACAD_REACTORS
330
2A
102
}
330
2A
100
AcDbVisualStyle
  2
FlatWithEdges
 70
     1
177
     3
291
     1
 70
    58
 90
        2
176
     1
 90
        1
176
     1
 90
        1
176
     1
 90
        2
176
     1
 40
0.6
176
     1
 40
30.0
176
     1
 62
     7
420
 16777215
176
     1
 90
        1
176
     1
 90
        0
176
     1
 62
     7
176
     1
 62
   257
176
     1
 90
        1
176
     1
 90
        1
176
     1
 40
1.0
176
     1
 90
        0
176
     1
 62
   257
176
     1
 40
1.0
176
     1
 90
        1
176
     1
 90
        6
176
     1
 90
        2
176
     1
 62
     7
176
     1
 90
        5
176
     1
 90
        0
176
     1
 90
        0
176
     1
290
     0
176
     1
 90
       13
176
     1
 40
0.0
176
     1
 90
        0
176
     1
290
     0
176
     1
290
     1
176
     1
290
     1
176
     1
290
     0
176
     1
290
     0
176
     1
290
     0
176
     1
290
     0
176
     1
290
     0
176
     1
290
     0
176
     1
 90
       50
176
     1
 40
0.0
176
     1
 40
1.0
176
     1
 90
        0
176
     1
 62
    18
420
        0
176
     1
 90
       50
176
     1
 90
        3
176
     1
 62
     5
420
      255
176
     1
290
     0
176
     1
 90
       50
176
     1
 90
       50
176
     1
 90
       50
176
     1
290
     0
176
     1
 90
       50
176
     1
 62
   256
176
     0
 40
1.0
176
     0
 90
        2
176
     1
  1
strokes_ogs.tif
176
     1
290
     0
176
     1
 40
1.0
176
     1
 40
1.0
176
     1
  0
VISUALSTYLE
  5
2D
102
{ACAD_REACTORS
330
2A
102
}
330
2A
100
AcDbVisualStyle
  2
Gouraud
 70
     2
177
     3
291
     1
 70
    58
 90
        2
176
     1
 90
        2
176
     1
 90
        1
176
     1
 90
        2
176
     1
 40
0.6
176
     1
 40
30.0
176
     1
 62
     7
420
 16777215
176
     1
 90
        0
176
     1
 90
        0
176
     1
 62
     7
176
     1
 62
   257
176
     1
 90
        1
176
     1
 90
        1
176
     1
 40
1.0
176
     1
 90
        0
176
     1
 62
     7
176
     1
 40
1.0
176
     1
 90
        1
176
     1
 90
        6
176
     1
 90
        2
176
     1
 62
     7
176
     1
 90
        5
176
     1
 90
        0
176
     1
 90
        0
176
     1
290
     0
176
     1
 90
       13
176
     1
 40
0.0
176
     1
 90
        0
176
     1
290
     0
176
     1
290
     1
176
     1
290
     1
176
     1
290
     0
176
     1
290
     0
176
     1
290
     0
176
     1
290
     0
176
     1
290
     0
176
     1
290
     0
176
     1
 90
       50
176
     1
 40
0.0
176
     1
 40
1.0
176
     1
 90
        0
176
     1
 62
    18
420
        0
176
     1
 90
       50
176
     1
 90
        3
176
     1
 62
     5
420
      255
176
     1
290
     0
176
     1
 90
       50
176
     1
 90
       50
176
     1
 90
       50
176
     1
290
     0
176
     1
 90
       50
176
     1
 62
   256
176
     0
 40
1.0
176
     0
 90
        2
176
     1
  1
strokes_ogs.tif
176
     1
290
     0
176
     1
 40
1.0
176
     1
 40
1.0
176
     1
  0
VISUALSTYLE
  5
2E
102
{ACAD_REACTORS
330
2A
102
}
330
2A
100
AcDbVisualStyle
  2
GouraudWithEdges
 70
     3
177
     3
291
     1
 70
    58
 90
        2
176
     1
 90
        2
176
     1
 90
        1
176
     1
 90
        2
176
     1
 40
0.6
176
     1
 40
30.0
176
     1
 62
     7
420
 16777215
176
     1
 90
        1
176
     1
 90
        0
176
     1
 62
     7
176
     1
 62
   257
176
     1
 90
        1
176
     1
 90
        1
176
     1
 40
1.0
176
     1
 90
        0
176
     1
 62
   257
176
     1
 40
1.0
176
     1
 90
        1
176
     1
 90
        6
176
     1
 90
        2
176
     1
 62
     7
176
     1
 90
        5
176
     1
 90
        0
176
     1
 90
        0
176
     1
290
     0
176
     1
 90
       13
176
     1
 40
0.0
176
     1
 90
        0
176
     1
290
     0
176
     1
290
     1
176
     1
290
     1
176
     1
290
     0
176
     1
290
     0
176
     1
290
     0
176
     1
290
     0
176
     1
290
     0
176
     1
290
     0
176
     1
 90
       50
176
     1
 40
0.0
176
     1
 40
1.0
176
     1
 90
        0
176
     1
 62
    18
420
        0
176
     1
 90
       50
176
     1
 90
        3
176
     1
 62
     5
420
      255
176
     1
290
     0
176
     1
 90
       50
176
     1
 90
       50
176
     1
 90
       50
176
     1
290
     0
176
     1
 90
       50
176
     1
 62
   256
176
     0
 40
1.0
176
     0
 90
        2
176
     1
  1
strokes_ogs.tif
176
     1
290
     0
176
     1
 40
1.0
176
     1
 40
1.0
176
     1
  0
VISUALSTYLE
  5
31
102
{ACAD_REACTORS
330
2A
102
}
330
2A
100
AcDbVisualStyle
  2
Hidden
 70
     6
177
     3
291
     0
 70
    58
 90
        1
176
     1
 90
        2
176
     1
 90
        2
176
     1
 90
        0
176
     1
 40
0.6
176
     1
 40
30.0
176
     1
 62
     7
420
 16777215
176
     1
 90
        2
176
     1
 90
        2
176
     1
 62
     7
176
     1
 62
   257
176
     1
 90
        2
176
     1
 90
        1
176
     1
 40
40.0
176
     1
 90
        0
176
     1
 62
   257
176
     1
 40
1.0
176
     1
 90
        1
176
     1
 90
        6
176
     1
 90
        2
176
     1
 62
     7
176
     1
 90
        3
176
     1
 90
        0
176
     1
 90
        0
176
     1
290
     0
176
     1
 90
        1
176
     1
 40
0.0
176
     1
 90
        0
176
     1
290
     0
176
     1
290
     1
176
     1
290
     1
176
     1
290
     0
176
     1
290
     0
176
     1
290
     0
176
     1
290
     0
176
     1
290
     0
176
     1
290
     0
176
     1
 90
       50
176
     1
 40
0.0
176
     1
 40
1.0
176
     1
 90
        0
176
     1
 62
    18
420
        0
176
     1
 90
       50
176
     1
 90
        3
176
     1
 62
     5
420
      255
176
     1
290
     0
176
     1
 90
       50
176
     1
 90
       50
176
     1
 90
       50
176
     1
290
     0
176
     1
 90
       50
176
     1
 62
   256
176
     0
 40
1.0
176
     0
 90
        2
176
     1
  1
strokes_ogs.tif
176
     1
290
     0
176
     1
 40
1.0
176
     1
 40
1.0
176
     1
  0
VISUALSTYLE
  5
3B
102
{ACAD_REACTORS
330
2A
102
}
330
2A
100
AcDbVisualStyle
  2
JitterOff
 70
    20
177
     3
291
     1
 70
    58
 90
        2
176
     0
 90
        2
176
     0
 90
        0
176
     0
 90
        0
176
     0
 40
0.6
176
     0
 40
30.0
176
     0
 62
     7
420
 16777215
176
     0
 90
        1
176
     0
 90
        4
176
     0
 62
     7
176
     0
 62
   257
176
     0
 90
        1
176
     0
 90
        1
176
     0
 40
1.0
176
     0
 90
       10
176
     2
 62
     7
176
     0
 40
1.0
176
     0
 90
        1
176
     0
 90
        6
176
     0
 90
        2
176
     0
 62
     7
176
     0
 90
        5
176
     0
 90
        0
176
     0
 90
        0
176
     0
290
     0
176
     0
 90
        1
176
     0
 40
0.0
176
     0
 90
        0
176
     0
290
     0
176
     0
290
     1
176
     0
290
     1
176
     0
290
     0
176
     0
290
     0
176
     0
290
     0
176
     0
290
     0
176
     0
290
     0
176
     0
290
     0
176
     0
 90
       50
176
     0
 40
0.0
176
     0
 40
1.0
176
     0
 90
        0
176
     0
 62
    18
420
        0
176
     0
 90
       50
176
     0
 90
        3
176
     0
 62
     5
420
      255
176
     0
290
     0
176
     0
 90
       50
176
     0
 90
       50
176
     0
 90
       50
176
     0
290
     0
176
     0
 90
       50
176
     0
 62
   256
176
     0
 40
1.0
176
     0
 90
        2
176
     0
  1
strokes_ogs.tif
176
     0
290
     0
176
     0
 40
1.0
176
     0
 40
1.0
176
     0
  0
VISUALSTYLE
  5
38
102
{ACAD_REACTORS
330
2A
102
}
330
2A
100
AcDbVisualStyle
  2
Linepattern
 70
    14
177
     3
291
     1
 70
    58
 90
        2
176
     1
 90
        2
176
     1
 90
        0
176
     1
 90
        0
176
     1
 40
0.6
176
     1
 40
30.0
176
     1
 62
     7
420
 16777215
176
     1
 90
        1
176
     1
 90
        4
176
     1
 62
     7
176
     1
 62
   257
176
     1
 90
        7
176
     1
 90
        7
176
     1
 40
1.0
176
     1
 90
        8
176
     1
 62
     7
176
     1
 40
1.0
176
     1
 90
        1
176
     1
 90
        6
176
     1
 90
        2
176
     1
 62
     7
176
     1
 90
        5
176
     1
 90
        0
176
     1
 90
        0
176
     1
290
     0
176
     1
 90
        1
176
     1
 40
0.0
176
     1
 90
        0
176
     1
290
     0
176
     1
290
     1
176
     1
290
     1
176
     1
290
     0
176
     1
290
     0
176
     1
290
     0
176
     1
290
     0
176
     1
290
     0
176
     1
290
     0
176
     1
 90
       50
176
     1
 40
0.0
176
     1
 40
1.0
176
     1
 90
        0
176
     1
 62
    18
420
        0
176
     1
 90
       50
176
     1
 90
        3
176
     1
 62
     5
420
      255
176
     1
290
     0
176
     1
 90
       50
176
     1
 90
       50
176
     1
 90
       50
176
     1
290
     0
176
     1
 90
       50
176
     1
 62
   256
176
     0
 40
1.0
176
     0
 90
        2
176
     1
  1
strokes_ogs.tif
176
     1
290
     0
176
     1
 40
1.0
176
     1
 40
1.0
176
     1
  0
VISUALSTYLE
  5
3C
102
{ACAD_REACTORS
330
2A
102
}
330
2A
100
AcDbVisualStyle
  2
OverhangOff
 70
    21
177
     3
291
     1
 70
    58
 90
        2
176
     0
 90
        2
176
     0
 90
        0
176
     0
 90
        0
176
     0
 40
0.6
176
     0
 40
30.0
176
     0
 62
     7
420
 16777215
176
     0
 90
        1
176
     0
 90
        4
176
     0
 62
     7
176
     0
 62
   257
176
     0
 90
        1
176
     0
 90
        1
176
     0
 40
1.0
176
     0
 90
        9
176
     2
 62
     7
176
     0
 40
1.0
176
     0
 90
        1
176
     0
 90
        6
176
     0
 90
        2
176
     0
 62
     7
176
     0
 90
        5
176
     0
 90
        0
176
     0
 90
        0
176
     0
290
     0
176
     0
 90
        1
176
     0
 40
0.0
176
     0
 90
        0
176
     0
290
     0
176
     0
290
     1
176
     0
290
     1
176
     0
290
     0
176
     0
290
     0
176
     0
290
     0
176
     0
290
     0
176
     0
290
     0
176
     0
290
     0
176
     0
 90
       50
176
     0
 40
0.0
176
     0
 40
1.0
176
     0
 90
        0
176
     0
 62
    18
420
        0
176
     0
 90
       50
176
     0
 90
        3
176
     0
 62
     5
420
      255
176
     0
290
     0
176
     0
 90
       50
176
     0
 90
       50
176
     0
 90
       50
176
     0
290
     0
176
     0
 90
       50
176
     0
 62
   256
176
     0
 40
1.0
176
     0
 90
        2
176
     0
  1
strokes_ogs.tif
176
     0
290
     0
176
     0
 40
1.0
176
     0
 40
1.0
176
     0
  0
VISUALSTYLE
  5
33
102
{ACAD_REACTORS
330
2A
102
}
330
2A
100
AcDbVisualStyle
  2
Realistic
 70
     8
177
     3
291
     0
 70
    58
 90
        2
176
     1
 90
        3
176
     1
 90
        0
176
     1
 90
        2
176
     1
 40
0.6
176
     1
 40
30.0
176
     1
 62
     7
420
 16777215
176
     1
 90
        0
176
     1
 90
        0
176
     1
 62
     7
176
     1
 62
   257
176
     1
 90
        1
176
     1
 90
        1
176
     1
 40
1.0
176
     1
 90
        8
176
     1
 62
   257
176
     1
 40
1.0
176
     1
 90
        1
176
     1
 90
        6
176
     1
 90
        2
176
     1
 62
     7
176
     1
 90
        3
176
     1
 90
        0
176
     1
 90
        0
176
     1
290
     0
176
     1
 90
       13
176
     1
 40
0.0
176
     1
 90
        0
176
     1
290
     0
176
     1
290
     1
176
     1
290
     1
176
     1
290
     0
176
     1
290
     0
176
     1
290
     0
176
     1
290
     0
176
     1
290
     0
176
     1
290
     0
176
     1
 90
       50
176
     1
 40
0.0
176
     1
 40
1.0
176
     1
 90
        0
176
     1
 62
    18
420
        0
176
     1
 90
       50
176
     1
 90
        3
176
     1
 62
     5
420
      255
176
     1
290
     0
176
     1
 90
       50
176
     1
 90
       50
176
     1
 90
       50
176
     1
290
     0
176
     1
 90
       50
176
     1
 62
   256
176
     0
 40
1.0
176
     0
 90
        2
176
     1
  1
strokes_ogs.tif
176
     1
290
     0
176
     1
 40
1.0
176
     1
 40
1.0
176
     1
  0
VISUALSTYLE
  5
42
102
{ACAD_REACTORS
330
2A
102
}
330
2A
100
AcDbVisualStyle
  2
Shaded
 70
    27
177
     3
291
     0
 70
    58
 90
        2
176
     1
 90
        2
176
     1
 90
        1
176
     1
 90
        2
176
     1
 40
0.6
176
     1
 40
30.0
176
     1
 62
     7
420
 16777215
176
     1
 90
        0
176
     1
 90
        4
176
     1
 62
     7
176
     1
 62
   257
176
     1
 90
        1
176
     1
 90
        1
176
     1
 40
1.0
176
     1
 90
        8
176
     1
 62
   257
176
     1
 40
1.0
176
     1
 90
        1
176
     1
 90
        6
176
     1
 90
        2
176
     1
 62
     8
420
  7895160
176
     1
 90
        3
176
     1
 90
        0
176
     1
 90
        0
176
     1
290
     0
176
     1
 90
        5
176
     1
 40
0.0
176
     1
 90
        0
176
     1
290
     0
176
     1
290
     1
176
     1
290
     1
176
     1
290
     0
176
     1
290
     0
176
     1
290
     0
176
     1
290
     0
176
     1
290
     0
176
     1
290
     0
176
     1
 90
       50
176
     1
 40
0.0
176
     1
 40
1.0
176
     1
 90
        0
176
     1
 62
    18
420
        0
176
     1
 90
       50
176
     1
 90
        3
176
     1
 62
     5
420
      255
176
     1
290
     0
176
     1
 90
       50
176
     1
 90
       50
176
     1
 90
       50
176
     1
290
     0
176
     1
 90
       50
176
     1
 62
   256
176
     0
 40
1.0
176
     0
 90
        2
176
     1
  1
strokes_ogs.tif
176
     1
290
     0
176
     1
 40
1.0
176
     1
 40
1.0
176
     1
  0
VISUALSTYLE
  5
41
102
{ACAD_REACTORS
330
2A
102
}
330
2A
100
AcDbVisualStyle
  2
Shaded with edges
 70
    26
177
     3
291
     0
 70
    58
 90
        2
176
     1
 90
        2
176
     1
 90
        1
176
     1
 90
        2
176
     1
 40
0.6
176
     1
 40
30.0
176
     1
 62
     7
420
 16777215
176
     1
 90
        1
176
     1
 90
       10
176
     1
 62
     7
176
     1
 62
   257
176
     1
 90
        2
176
     1
 90
        1
176
     1
 40
1.0
176
     1
 90
        8
176
     1
 62
   257
176
     1
 40
1.0
176
     1
 90
        1
176
     1
 90
        6
176
     1
 90
        2
176
     1
 62
     7
176
     1
 90
        3
176
     1
 90
        0
176
     1
 90
        0
176
     1
290
     0
176
     1
 90
        5
176
     1
 40
0.0
176
     1
 90
        0
176
     1
290
     0
176
     1
290
     1
176
     1
290
     1
176
     1
290
     0
176
     1
290
     0
176
     1
290
     0
176
     1
290
     0
176
     1
290
     0
176
     1
290
     0
176
     1
 90
       50
176
     1
 40
0.0
176
     1
 40
1.0
176
     1
 90
        0
176
     1
 62
    18
420
        0
176
     1
 90
       50
176
     1
 90
        3
176
     1
 62
     5
420
      255
176
     1
290
     0
176
     1
 90
       50
176
     1
 90
       50
176
     1
 90
       50
176
     1
290
     0
176
     1
 90
       50
176
     1
 62
   256
176
     0
 40
1.0
176
     0
 90
        2
176
     1
  1
strokes_ogs.tif
176
     1
290
     0
176
     1
 40
1.0
176
     1
 40
1.0
176
     1
  0
VISUALSTYLE
  5
3E
102
{ACAD_REACTORS
330
2A
102
}
330
2A
100
AcDbVisualStyle
  2
Shades of Gray
 70
    23
177
     3
291
     0
 70
    58
 90
        2
176
     1
 90
        2
176
     1
 90
        3
176
     1
 90
        0
176
     1
 40
0.6
176
     1
 40
30.0
176
     1
 62
     7
420
 16777215
176
     1
 90
        2
176
     1
 90
        2
176
     1
 62
     7
176
     1
 62
     7
176
     1
 90
        1
176
     1
 90
        1
176
     1
 40
40.0
176
     1
 90
        8
176
     1
 62
     7
176
     1
 40
1.0
176
     1
 90
        1
176
     1
 90
        6
176
     1
 90
        2
176
     1
 62
     7
176
     1
 90
        3
176
     1
 90
        0
176
     1
 90
        0
176
     1
290
     0
176
     1
 90
        1
176
     1
 40
0.0
176
     1
 90
        0
176
     1
290
     0
176
     1
290
     1
176
     1
290
     1
176
     1
290
     0
176
     1
290
     0
176
     1
290
     0
176
     1
290
     0
176
     1
290
     0
176
     1
290
     0
176
     1
 90
       50
176
     1
 40
0.0
176
     1
 40
1.0
176
     1
 90
        0
176
     1
 62
    18
420
        0
176
     1
 90
       50
176
     1
 90
        3
176
     1
 62
     5
420
      255
176
     1
290
     0
176
     1
 90
       50
176
     1
 90
       50
176
     1
 90
       50
176
     1
290
     0
176
     1
 90
       50
176
     1
 62
   256
176
     0
 40
1.0
176
     0
 90
        2
176
     1
  1
strokes_ogs.tif
176
     1
290
     0
176
     1
 40
1.0
176
     1
 40
1.0
176
     1
  0
VISUALSTYLE
  5
3F
102
{ACAD_REACTORS
330
2A
102
}
330
2A
100
AcDbVisualStyle
  2
Sketchy
 70
    24
177
     3
291
     0
 70
    58
 90
        1
176
     1
 90
        2
176
     1
 90
        2
176
     1
 90
        0
176
     1
 40
0.6
176
     1
 40
30.0
176
     1
 62
     7
420
 16777215
176
     1
 90
        2
176
     1
 90
        2
176
     1
 62
     7
176
     1
 62
     7
176
     1
 90
        1
176
     1
 90
        1
176
     1
 40
40.0
176
     1
 90
       11
176
     1
 62
     7
176
     1
 40
1.0
176
     1
 90
        1
176
     1
 90
        6
176
     1
 90
        2
176
     1
 62
     7
176
     1
 90
        6
176
     1
 90
        0
176
     1
 90
        0
176
     1
290
     0
176
     1
 90
        1
176
     1
 40
0.0
176
     1
 90
        0
176
     1
290
     0
176
     1
290
     1
176
     1
290
     1
176
     1
290
     0
176
     1
290
     0
176
     1
290
     0
176
     1
290
     0
176
     1
290
     0
176
     1
290
     0
176
     1
 90
       50
176
     1
 40
0.0
176
     1
 40
1.0
176
     1
 90
        0
176
     1
 62
    18
420
        0
176
     1
 90
       50
176
     1
 90
        3
176
     1
 62
     5
420
      255
176
     1
290
     0
176
     1
 90
       50
176
     1
 90
       50
176
     1
 90
       50
176
     1
290
     0
176
     1
 90
       50
176
     1
 62
   256
176
     0
 40
1.0
176
     0
 90
        2
176
     1
  1
strokes_ogs.tif
176
     1
290
     0
176
     1
 40
1.0
176
     1
 40
1.0
176
     1
  0
VISUALSTYLE
  5
37
102
{ACAD_REACTORS
330
2A
102
}
330
2A
100
AcDbVisualStyle
  2
Thicken
 70
    13
177
     3
291
     1
 70
    58
 90
        2
176
     1
 90
        2
176
     1
 90
        0
176
     1
 90
        0
176
     1
 40
0.6
176
     1
 40
30.0
176
     1
 62
     7
420
 16777215
176
     1
 90
        1
176
     1
 90
        4
176
     1
 62
     7
176
     1
 62
   257
176
     1
 90
        1
176
     1
 90
        1
176
     1
 40
1.0
176
     1
 90
       12
176
     1
 62
     7
176
     1
 40
1.0
176
     1
 90
        1
176
     1
 90
        6
176
     1
 90
        2
176
     1
 62
     7
176
     1
 90
        5
176
     1
 90
        0
176
     1
 90
        0
176
     1
290
     0
176
     1
 90
        1
176
     1
 40
0.0
176
     1
 90
        0
176
     1
290
     0
176
     1
290
     1
176
     1
290
     1
176
     1
290
     0
176
     1
290
     0
176
     1
290
     0
176
     1
290
     0
176
     1
290
     0
176
     1
290
     0
176
     1
 90
       50
176
     1
 40
0.0
176
     1
 40
1.0
176
     1
 90
        0
176
     1
 62
    18
420
        0
176
     1
 90
       50
176
     1
 90
        3
176
     1
 62
     5
420
      255
176
     1
290
     0
176
     1
 90
       50
176
     1
 90
       50
176
     1
 90
       50
176
     1
290
     0
176
     1
 90
       50
176
     1
 62
   256
176
     0
 40
1.0
176
     0
 90
        2
176
     1
  1
strokes_ogs.tif
176
     1
290
     0
176
     1
 40
1.0
176
     1
 40
1.0
176
     1
  0
VISUALSTYLE
  5
30
102
{ACAD_REACTORS
330
2A
102
}
330
2A
100
AcDbVisualStyle
  2
Wireframe
 70
     5
177
     3
291
     0
 70
    58
 90
        0
176
     1
 90
        2
176
     1
 90
        0
176
     1
 90
        0
176
     1
 40
0.6
176
     1
 40
30.0
176
     1
 62
     7
420
 16777215
176
     1
 90
        1
176
     1
 90
        4
176
     1
 62
     7
176
     1
 62
   257
176
     1
 90
        1
176
     1
 90
        1
176
     1
 40
1.0
176
     1
 90
        0
176
     1
 62
   257
176
     1
 40
1.0
176
     1
 90
        1
176
     1
 90
        6
176
     1
 90
        2
176
     1
 62
     7
176
     1
 90
        3
176
     1
 90
        0
176
     1
 90
        0
176
     1
290
     0
176
     1
 90
        1
176
     1
 40
0.0
176
     1
 90
        0
176
     1
290
     0
176
     1
290
     1
176
     1
290
     1
176
     1
290
     0
176
     1
290
     0
176
     1
290
     0
176
     1
290
     0
176
     1
290
     0
176
     1
290
     0
176
     1
 90
       50
176
     1
 40
0.0
176
     1
 40
1.0
176
     1
 90
        0
176
     1
 62
    18
420
        0
176
     1
 90
       50
176
     1
 90
        3
176
     1
 62
     5
420
      255
176
     1
290
     0
176
     1
 90
       50
176
     1
 90
       50
176
     1
 90
       50
176
     1
290
     0
176
     1
 90
       50
176
     1
 62
   256
176
     0
 40
1.0
176
     0
 90
        2
176
     1
  1
strokes_ogs.tif
176
     1
290
     0
176
     1
 40
1.0
176
     1
 40
1.0
176
     1
  0
VISUALSTYLE
  5
40
102
{ACAD_REACTORS
330
2A
102
}
330
2A
100
AcDbVisualStyle
  2
X-Ray
 70
    25
177
     3
291
     0
 70
    58
 90
        2
176
     1
 90
        2
176
     1
 90
        1
176
     1
 90
        1
176
     1
 40
0.5
176
     1
 40
30.0
176
     1
 62
     7
420
 16777215
176
     1
 90
        1
176
     1
 90
        0
176
     1
 62
     7
176
     1
 62
   257
176
     1
 90
        1
176
     1
 90
        1
176
     1
 40
1.0
176
     1
 90
        8
176
     1
 62
     7
176
     1
 40
1.0
176
     1
 90
        1
176
     1
 90
        6
176
     1
 90
        2
176
     1
 62
     7
176
     1
 90
        3
176
     1
 90
        0
176
     1
 90
        0
176
     1
290
     0
176
     1
 90
       13
176
     1
 40
0.0
176
     1
 90
        0
176
     1
290
     0
176
     1
290
     1
176
     1
290
     1
176
     1
290
     0
176
     1
290
     0
176
     1
290
     0
176
     1
290
     0
176
     1
290
     0
176
     1
290
     0
176
     1
 90
       50
176
     1
 40
0.0
176
     1
 40
1.0
176
     1
 90
        0
176
     1
 62
    18
420
        0
176
     1
 90
       50
176
     1
 90
        3
176
     1
 62
     5
420
      255
176
     1
290
     0
176
     1
 90
       50
176
     1
 90
       50
176
     1
 90
       50
176
     1
290
     0
176
     1
 90
       50
176
     1
 62
   256
176
     0
 40
1.0
176
     0
 90
        2
176
     1
  1
strokes_ogs.tif
176
     1
290
     0
176
     1
 40
1.0
176
     1
 40
1.0
176
     1
  0
DICTIONARYVAR
  5
2E6
102
{ACAD_REACTORS
330
2E5
102
}
330
2E5
100
DictionaryVariables
280
     0
  1
1:1
  0
DICTIONARYVAR
  5
2EB
102
{ACAD_REACTORS
330
2E5
102
}
330
2E5
100
DictionaryVariables
280
     0
  1
Standard
  0
DICTIONARYVAR
  5
2EA
102
{ACAD_REACTORS
330
2E5
102
}
330
2E5
100
DictionaryVariables
280
     0
  1
Standard
  0
DICTIONARY
  5
2E7
330
6A
100
AcDbDictionary
280
     1
281
     1
  3
ACAD_ROUNDTRIP_2008_TABLESTYLE_CELLSTYLEMAP
360
2E8
  0
CELLSTYLEMAP
  5
2E8
102
{ACAD_REACTORS
330
2E7
102
}
330
2E7
100
AcDbCellStyleMap
 90
        3
300
CELLSTYLE
  1
TABLEFORMAT_BEGIN
 90
        5
170
     1
 91
        0
 92
    32768
 62
   257
 93
        1
300
CONTENTFORMAT
  1
CONTENTFORMAT_BEGIN
 90
        0
 91
        0
 92
        4
 93
        0
300

 40
0.0
140
1.0
 94
        5
 62
     0
340
11
144
0.25
309
CONTENTFORMAT_END
171
     1
301
MARGIN
  1
CELLMARGIN_BEGIN
 40
0.06
 40
0.06
 40
0.06
 40
0.06
 40
0.06
 40
0.06
309
CELLMARGIN_END
 94
        6
 95
        1
302
GRIDFORMAT
  1
GRIDFORMAT_BEGIN
 90
        0
 91
        1
 62
     0
 92
       -2
340
14
 93
        0
 40
0.045
309
GRIDFORMAT_END
 95
        2
302
GRIDFORMAT
  1
GRIDFORMAT_BEGIN
 90
        0
 91
        1
 62
     0
 92
       -2
340
14
 93
        0
 40
0.045
309
GRIDFORMAT_END
 95
        4
302
GRIDFORMAT
  1
GRIDFORMAT_BEGIN
 90
        0
 91
        1
 62
     0
 92
       -2
340
14
 93
        0
 40
0.045
309
GRIDFORMAT_END
 95
        8
302
GRIDFORMAT
  1
GRIDFORMAT_BEGIN
 90
        0
 91
        1
 62
     0
 92
       -2
340
14
 93
        0
 40
0.045
309
GRIDFORMAT_END
 95
       16
302
GRIDFORMAT
  1
GRIDFORMAT_BEGIN
 90
        0
 91
        1
 62
     0
 92
       -2
340
14
 93
        0
 40
0.045
309
GRIDFORMAT_END
 95
       32
302
GRIDFORMAT
  1
GRIDFORMAT_BEGIN
 90
        0
 91
        1
 62
     0
 92
       -2
340
14
 93
        0
 40
0.045
309
GRIDFORMAT_END
309
TABLEFORMAT_END
  1
CELLSTYLE_BEGIN
 90
        1
 91
        1
300
_TITLE
309
CELLSTYLE_END
300
CELLSTYLE
  1
TABLEFORMAT_BEGIN
 90
        5
170
     1
 91
        0
 92
        0
 62
   257
 93
        1
300
CONTENTFORMAT
  1
CONTENTFORMAT_BEGIN
 90
        0
 91
        0
 92
        4
 93
        0
300

 40
0.0
140
1.0
 94
        5
 62
     0
340
11
144
0.18
309
CONTENTFORMAT_END
171
     1
301
MARGIN
  1
CELLMARGIN_BEGIN
 40
0.06
 40
0.06
 40
0.06
 40
0.06
 40
0.06
 40
0.06
309
CELLMARGIN_END
 94
        6
 95
        1
302
GRIDFORMAT
  1
GRIDFORMAT_BEGIN
 90
        0
 91
        1
 62
     0
 92
       -2
340
14
 93
        0
 40
0.045
309
GRIDFORMAT_END
 95
        2
302
GRIDFORMAT
  1
GRIDFORMAT_BEGIN
 90
        0
 91
        1
 62
     0
 92
       -2
340
14
 93
        0
 40
0.045
309
GRIDFORMAT_END
 95
        4
302
GRIDFORMAT
  1
GRIDFORMAT_BEGIN
 90
        0
 91
        1
 62
     0
 92
       -2
340
14
 93
        0
 40
0.045
309
GRIDFORMAT_END
 95
        8
302
GRIDFORMAT
  1
GRIDFORMAT_BEGIN
 90
        0
 91
        1
 62
     0
 92
       -2
340
14
 93
        0
 40
0.045
309
GRIDFORMAT_END
 95
       16
302
GRIDFORMAT
  1
GRIDFORMAT_BEGIN
 90
        0
 91
        1
 62
     0
 92
       -2
340
14
 93
        0
 40
0.045
309
GRIDFORMAT_END
 95
       32
302
GRIDFORMAT
  1
GRIDFORMAT_BEGIN
 90
        0
 91
        1
 62
     0
 92
       -2
340
14
 93
        0
 40
0.045
309
GRIDFORMAT_END
309
TABLEFORMAT_END
  1
CELLSTYLE_BEGIN
 90
        2
 91
        1
300
_HEADER
309
CELLSTYLE_END
300
CELLSTYLE
  1
TABLEFORMAT_BEGIN
 90
        5
170
     1
 91
        0
 92
        0
 62
   257
 93
        1
300
CONTENTFORMAT
  1
CONTENTFORMAT_BEGIN
 90
        0
 91
        0
 92
        4
 93
        0
300

 40
0.0
140
1.0
 94
        2
 62
     0
340
11
144
0.18
309
CONTENTFORMAT_END
171
     1
301
MARGIN
  1
CELLMARGIN_BEGIN
 40
0.06
 40
0.06
 40
0.06
 40
0.06
 40
0.06
 40
0.06
309
CELLMARGIN_END
 94
        6
 95
        1
302
GRIDFORMAT
  1
GRIDFORMAT_BEGIN
 90
        0
 91
        1
 62
     0
 92
       -2
340
14
 93
        0
 40
0.045
309
GRIDFORMAT_END
 95
        2
302
GRIDFORMAT
  1
GRIDFORMAT_BEGIN
 90
        0
 91
        1
 62
     0
 92
       -2
340
14
 93
        0
 40
0.045
309
GRIDFORMAT_END
 95
        4
302
GRIDFORMAT
  1
GRIDFORMAT_BEGIN
 90
        0
 91
        1
 62
     0
 92
       -2
340
14
 93
        0
 40
0.045
309
GRIDFORMAT_END
 95
        8
302
GRIDFORMAT
  1
GRIDFORMAT_BEGIN
 90
        0
 91
        1
 62
     0
 92
       -2
340
14
 93
        0
 40
0.045
309
GRIDFORMAT_END
 95
       16
302
GRIDFORMAT
  1
GRIDFORMAT_BEGIN
 90
        0
 91
        1
 62
     0
 92
       -2
340
14
 93
        0
 40
0.045
309
GRIDFORMAT_END
 95
       32
302
GRIDFORMAT
  1
GRIDFORMAT_BEGIN
 90
        0
 91
        1
 62
     0
 92
       -2
340
14
 93
        0
 40
0.045
309
GRIDFORMAT_END
309
TABLEFORMAT_END
  1
CELLSTYLE_BEGIN
 90
        3
 91
        2
300
_DATA
309
CELLSTYLE_END
  0
ENDSEC
  0
EOF
