  0
SECTION
  2
HEADER
  9
$ACADVER
  1
AC1027
  9
$ACADMAINTVER
 70
   105
  9
$DWGCODEPAGE
  3
ANSI_1252
  9
$REQUIREDVERSIONS
160
                 0
  9
$INSBASE
 10
0.0
 20
0.0
 30
0.0
  9
$EXTMIN
 10
0.0
 20
0.0
 30
0.0
  9
$EXTMAX
 10
11.0
 20
8.5
 30
0.0
  9
$LIMMIN
 10
0.0
 20
0.0
  9
$LIMMAX
 10
11.0
 20
8.5
  9
$ORTHOMODE
 70
     0
  9
$REGENMODE
 70
     1
  9
$FILLMODE
 70
     1
  9
$QTEXTMODE
 70
     0
  9
$MIRRTEXT
 70
     1
  9
$LTSCALE
 40
1.0
  9
$ATTMODE
 70
     1
  9
$TEXTSIZE
 40
0.1377952756
  9
$TRACEWID
 40
0.05
  9
$TEXTSTYLE
  7
Standard
  9
$CLAYER
  8
0
  9
$CELTYPE
  6
ByLayer
  9
$CECOLOR
 62
   256
  9
$CELTSCALE
 40
1.0
  9
$DISPSILH
 70
     0
  9
$DIMSCALE
 40
1.0
  9
$DIMASZ
 40
0.13
  9
$DIMEXO
 40
0.0393700787
  9
$DIMDLI
 40
0.38
  9
$DIMRND
 40
0.0
  9
$DIMDLE
 40
0.0
  9
$DIMEXE
 40
0.0393700787
  9
$DIMTP
 40
0.0
  9
$DIMTM
 40
0.0
  9
$DIMTXT
 40
0.1377952756
  9
$DIMCEN
 40
0.09
  9
$DIMTSZ
 40
0.0
  9
$DIMTOL
 70
     0
  9
$DIMLIM
 70
     0
  9
$DIMTIH
 70
     1
  9
$DIMTOH
 70
     1
  9
$DIMSE1
 70
     0
  9
$DIMSE2
 70
     0
  9
$DIMTAD
 70
     1
  9
$DIMZIN
 70
     0
  9
$DIMBLK
  1

  9
$DIMASO
 70
     1
  9
$DIMSHO
 70
     1
  9
$DIMPOST
  1

  9
$DIMAPOST
  1

  9
$DIMALT
 70
     0
  9
$DIMALTD
 70
     2
  9
$DIMALTF
 40
25.4
  9
$DIMLFAC
 40
1.0
  9
$DIMTOFL
 70
     0
  9
$DIMTVP
 40
0.0
  9
$DIMTIX
 70
     0
  9
$DIMSOXD
 70
     0
  9
$DIMSAH
 70
     0
  9
$DIMBLK1
  1

  9
$DIMBLK2
  1

  9
$DIMSTYLE
  2
Standard
  9
$DIMCLRD
 70
     0
  9
$DIMCLRE
 70
     0
  9
$DIMCLRT
 70
     0
  9
$DIMTFAC
 40
1.0
  9
$DIMGAP
 40
0.06
  9
$DIMJUST
 70
     0
  9
$DIMSD1
 70
     0
  9
$DIMSD2
 70
     0
  9
$DIMTOLJ
 70
     1
  9
$DIMTZIN
 70
     0
  9
$DIMALTZ
 70
     0
  9
$DIMALTTZ
 70
     0
  9
$DIMUPT
 70
     0
  9
$DIMDEC
 70
     2
  9
$DIMTDEC
 70
     2
  9
$DIMALTU
 70
     2
  9
$DIMALTTD
 70
     2
  9
$DIMTXSTY
  7
Standard
  9
$DIMAUNIT
 70
     0
  9
$DIMADEC
 70
     2
  9
$DIMALTRND
 40
0.0
  9
$DIMAZIN
 70
     0
  9
$DIMDSEP
 70
    46
  9
$DIMATFIT
 70
     3
  9
$DIMFRAC
 70
     0
  9
$DIMLDRBLK
  1

  9
$DIMLUNIT
 70
     2
  9
$DIMLWD
 70
    -2
  9
$DIMLWE
 70
    -2
  9
$DIMTMOVE
 70
     0
  9
$DIMFXL
 40
1.0
  9
$DIMFXLON
 70
     0
  9
$DIMJOGANG
 40
0.7853981634
  9
$DIMTFILL
 70
     0
  9
$DIMTFILLCLR
 70
     0
  9
$DIMARCSYM
 70
     0
  9
$DIMLTYPE
  6

  9
$DIMLTEX1
  6

  9
$DIMLTEX2
  6

  9
$DIMTXTDIRECTION
 70
     0
  9
$LUNITS
 70
     2
  9
$LUPREC
 70
     2
  9
$SKETCHINC
 40
0.1
  9
$FILLETRAD
 40
0.5
  9
$AUNITS
 70
     0
  9
$AUPREC
 70
     2
  9
$MENU
  1
.
  9
$ELEVATION
 40
0.0
  9
$PELEVATION
 40
0.0
  9
$THICKNESS
 40
0.0
  9
$LIMCHECK
 70
     0
  9
$CHAMFERA
 40
0.0
  9
$CHAMFERB
 40
0.0
  9
$CHAMFERC
 40
0.0
  9
$CHAMFERD
 40
0.0
  9
$SKPOLY
 70
     0
  9
$TDCREATE
 40
2459674.668842512
  9
$TDUCREATE
 40
2459674.877175845
  9
$TDUPDATE
 40
2459674.668846852
  9
$TDUUPDATE
 40
2459674.877180185
  9
$TDINDWG
 40
0.0000000116
  9
$TDUSRTIMER
 40
0.0000000116
  9
$USRTIMER
 70
     1
  9
$ANGBASE
 50
0.0
  9
$ANGDIR
 70
     0
  9
$PDMODE
 70
     0
  9
$PDSIZE
 40
-1.0
  9
$PLINEWID
 40
0.0
  9
$SPLFRAME
 70
     0
  9
$SPLINETYPE
 70
     6
  9
$SPLINESEGS
 70
     8
  9
$HANDSEED
  5
4ED
  9
$SURFTAB1
 70
     6
  9
$SURFTAB2
 70
     6
  9
$SURFTYPE
 70
     6
  9
$SURFU
 70
     6
  9
$SURFV
 70
     6
  9
$UCSBASE
  2

  9
$UCSNAME
  2

  9
$UCSORG
 10
0.0
 20
0.0
 30
0.0
  9
$UCSXDIR
 10
1.0
 20
0.0
 30
0.0
  9
$UCSYDIR
 10
0.0
 20
1.0
 30
0.0
  9
$UCSORTHOREF
  2

  9
$UCSORTHOVIEW
 70
     0
  9
$UCSORGTOP
 10
0.0
 20
0.0
 30
0.0
  9
$UCSORGBOTTOM
 10
0.0
 20
0.0
 30
0.0
  9
$UCSORGLEFT
 10
0.0
 20
0.0
 30
0.0
  9
$UCSORGRIGHT
 10
0.0
 20
0.0
 30
0.0
  9
$UCSORGFRONT
 10
0.0
 20
0.0
 30
0.0
  9
$UCSORGBACK
 10
0.0
 20
0.0
 30
0.0
  9
$PUCSBASE
  2

  9
$PUCSNAME
  2

  9
$PUCSORG
 10
0.0
 20
0.0
 30
0.0
  9
$PUCSXDIR
 10
1.0
 20
0.0
 30
0.0
  9
$PUCSYDIR
 10
0.0
 20
1.0
 30
0.0
  9
$PUCSORTHOREF
  2

  9
$PUCSORTHOVIEW
 70
     0
  9
$PUCSORGTOP
 10
0.0
 20
0.0
 30
0.0
  9
$PUCSORGBOTTOM
 10
0.0
 20
0.0
 30
0.0
  9
$PUCSORGLEFT
 10
0.0
 20
0.0
 30
0.0
  9
$PUCSORGRIGHT
 10
0.0
 20
0.0
 30
0.0
  9
$PUCSORGFRONT
 10
0.0
 20
0.0
 30
0.0
  9
$PUCSORGBACK
 10
0.0
 20
0.0
 30
0.0
  9
$USERI1
 70
     0
  9
$USERI2
 70
     0
  9
$USERI3
 70
     0
  9
$USERI4
 70
     0
  9
$USERI5
 70
     0
  9
$USERR1
 40
0.0
  9
$USERR2
 40
0.0
  9
$USERR3
 40
0.0
  9
$USERR4
 40
0.0
  9
$USERR5
 40
0.0
  9
$WORLDVIEW
 70
     1
  9
$SHADEDGE
 70
     3
  9
$SHADEDIF
 70
    70
  9
$TILEMODE
 70
     1
  9
$MAXACTVP
 70
    64
  9
$PINSBASE
 10
0.0
 20
0.0
 30
0.0
  9
$PLIMCHECK
 70
     0
  9
$PEXTMIN
 10
0.0
 20
0.0
 30
0.0
  9
$PEXTMAX
 10
11.0
 20
8.5
 30
0.0
  9
$PLIMMIN
 10
0.0
 20
0.0
  9
$PLIMMAX
 10
11.0
 20
8.5
  9
$UNITMODE
 70
     0
  9
$VISRETAIN
 70
     1
  9
$PLINEGEN
 70
     0
  9
$PSLTSCALE
 70
     1
  9
$TREEDEPTH
 70
  3020
  9
$CMLSTYLE
  2
Standard
  9
$CMLJUST
 70
     0
  9
$CMLSCALE
 40
1.0
  9
$PROXYGRAPHICS
 70
     1
  9
$MEASUREMENT
 70
     0
  9
$CELWEIGHT
370
    -1
  9
$ENDCAPS
280
     0
  9
$JOINSTYLE
280
     0
  9
$LWDISPLAY
290
     1
  9
$INSUNITS
 70
     1
  9
$HYPERLINKBASE
  1

  9
$STYLESHEET
  1

  9
$XEDIT
290
     1
  9
$CEPSNTYPE
380
     0
  9
$PSTYLEMODE
290
     1
  9
$FINGERPRINTGUID
  2
{8950b982-46fd-40cf-9530-5d7dac48bb5d}
  9
$VERSIONGUID
  2
{FAEB1C32-E019-11D5-929B-00C0DF256EC4}
  9
$EXTNAMES
290
     1
  9
$PSVPSCALE
 40
0.0
  9
$OLESTARTUP
290
     0
  9
$SORTENTS
280
   127
  9
$INDEXCTL
280
     0
  9
$HIDETEXT
280
     1
  9
$XCLIPFRAME
280
     2
  9
$HALOGAP
280
     0
  9
$OBSCOLOR
 70
   257
  9
$OBSLTYPE
280
     0
  9
$INTERSECTIONDISPLAY
280
     0
  9
$INTERSECTIONCOLOR
 70
   257
  9
$DIMASSOC
280
     2
  9
$PROJECTNAME
  1

  9
$CAMERADISPLAY
290
     0
  9
$LENSLENGTH
 40
50.0
  9
$CAMERAHEIGHT
 40
0.0
  9
$STEPSPERSEC
 40
2.0
  9
$STEPSIZE
 40
6.0
  9
$3DDWFPREC
 40
2.0
  9
$PSOLWIDTH
 40
0.25
  9
$PSOLHEIGHT
 40
4.0
  9
$LOFTANG1
 40
1.5707963268
  9
$LOFTANG2
 40
1.5707963268
  9
$LOFTMAG1
 40
0.0
  9
$LOFTMAG2
 40
0.0
  9
$LOFTPARAM
 70
     7
  9
$LOFTNORMALS
280
     1
  9
$LATITUDE
 40
37.795
  9
$LONGITUDE
 40
-122.394
  9
$NORTHDIRECTION
 40
0.0
  9
$TIMEZONE
 70
 -8000
  9
$LIGHTGLYPHDISPLAY
280
     1
  9
$TILEMODELIGHTSYNCH
280
     1
  9
$CMATERIAL
347
44
  9
$SOLIDHIST
280
     0
  9
$SHOWHIST
280
     1
  9
$DWFFRAME
280
     2
  9
$DGNFRAME
280
     2
  9
$REALWORLDSCALE
290
     1
  9
$INTERFERECOLOR
 62
   256
  9
$CSHADOW
280
     0
  9
$SHADOWPLANELOCATION
 40
0.0
  0
ENDSEC
  0
SECTION
  2
CLASSES
  0
CLASS
  1
ACDBDICTIONARYWDFLT
  2
AcDbDictionaryWithDefault
  3
ObjectDBX Classes
 90
        0
 91
        3
280
     0
281
     0
  0
CLASS
  1
VISUALSTYLE
  2
AcDbVisualStyle
  3
ObjectDBX Classes
 90
     4095
 91
        3
280
     0
281
     0
  0
CLASS
  1
MATERIAL
  2
AcDbMaterial
  3
ObjectDBX Classes
 90
     1153
 91
        3
280
     0
281
     0
  0
CLASS
  1
SCALE
  2
AcDbScale
  3
ObjectDBX Classes
 90
     1153
 91
        3
280
     0
281
     0
  0
CLASS
  1
TABLESTYLE
  2
AcDbTableStyle
  3
ObjectDBX Classes
 90
     4095
 91
        3
280
     0
281
     0
  0
CLASS
  1
MLEADERSTYLE
  2
AcDbMLeaderStyle
  3
ACDB_MLEADERSTYLE_CLASS
 90
     4095
 91
        3
280
     0
281
     0
  0
CLASS
  1
SUN
  2
AcDbSun
  3
SCENEOE
 90
     1153
 91
        3
280
     0
281
     0
  0
CLASS
  1
DICTIONARYVAR
  2
AcDbDictionaryVar
  3
ObjectDBX Classes
 90
        0
 91
        3
280
     0
281
     0
  0
CLASS
  1
CELLSTYLEMAP
  2
AcDbCellStyleMap
  3
ObjectDBX Classes
 90
     1152
 91
        3
280
     0
281
     0
  0
ENDSEC
  0
SECTION
  2
TABLES
  0
TABLE
  2
VPORT
  5
8
330
0
100
AcDbSymbolTable
 70
     1
  0
VPORT
  5
29
330
8
100
AcDbSymbolTableRecord
100
AcDbViewportTableRecord
  2
*Active
 70
     0
 10
0.0
 20
0.0
 11
1.0
 21
1.0
 12
5.5
 22
4.25
 13
0.0
 23
0.0
 14
0.5
 24
0.5
 15
0.5
 25
0.5
 16
0.0
 26
0.0
 36
1.0
 17
0.0
 27
0.0
 37
0.0
 40
8.5
 41
1.2941176471
 42
50.0
 43
0.0
 44
0.0
 50
0.0
 51
0.0
 71
     0
 72
  2000
 73
     1
 74
     3
 75
     0
 76
     0
 77
     0
 78
     0
281
     0
 65
     1
110
0.0
120
0.0
130
0.0
111
1.0
121
0.0
131
0.0
112
0.0
122
1.0
132
0.0
 79
     0
146
0.0
348
2F
 60
     3
 61
     5
292
     1
282
     1
141
0.0
142
0.0
 63
   250
361
6D
  0
ENDTAB
  0
TABLE
  2
LTYPE
  5
5
330
0
100
AcDbSymbolTable
 70
     6
  0
LTYPE
  5
14
330
5
100
AcDbSymbolTableRecord
100
AcDbLinetypeTableRecord
  2
ByBlock
 70
     0
  3

 72
    65
 73
     0
 40
0.0
  0
LTYPE
  5
15
330
5
100
AcDbSymbolTableRecord
100
AcDbLinetypeTableRecord
  2
ByLayer
 70
     0
  3

 72
    65
 73
     0
 40
0.0
  0
LTYPE
  5
16
330
5
100
AcDbSymbolTableRecord
100
AcDbLinetypeTableRecord
  2
Continuous
 70
     0
  3
Solid line
 72
    65
 73
     0
 40
0.0
  0
LTYPE
  5
6E
330
5
100
AcDbSymbolTableRecord
100
AcDbLinetypeTableRecord
  2
HIDDEN
 70
     0
  3
Hidden __ __ __ __ __ __ __ __ __ __ __ __ __ __
 72
    65
 73
     2
 40
0.075
 49
0.05
 74
     0
 49
-0.025
 74
     0
  0
LTYPE
  5
6F
330
5
100
AcDbSymbolTableRecord
100
AcDbLinetypeTableRecord
  2
PHANTOM
 70
     0
  3
Phantom ______  __  __  ______  __  __  ______
 72
    65
 73
     6
 40
0.5
 49
0.25
 74
     0
 49
-0.05
 74
     0
 49
0.05
 74
     0
 49
-0.05
 74
     0
 49
0.05
 74
     0
 49
-0.05
 74
     0
  0
LTYPE
  5
70
330
5
100
AcDbSymbolTableRecord
100
AcDbLinetypeTableRecord
  2
CENTER
 70
     0
  3
Center ____ _ ____ _ ____ _ ____ _ ____ _ ____
 72
    65
 73
     4
 40
0.4
 49
0.25
 74
     0
 49
-0.05
 74
     0
 49
0.05
 74
     0
 49
-0.05
 74
     0
  0
LTYPE
  5
71
330
5
100
AcDbSymbolTableRecord
100
AcDbLinetypeTableRecord
  2
CENTERX2
 70
     0
  3
Center (2x) ________  __  ________  __  _____
 72
    65
 73
     4
 40
0.8
 49
0.5
 74
     0
 49
-0.1
 74
     0
 49
0.1
 74
     0
 49
-0.1
 74
     0
  0
LTYPE
  5
72
330
5
100
AcDbSymbolTableRecord
100
AcDbLinetypeTableRecord
  2
DOT2
 70
     0
  3
Dot (.5x) ........................................
 72
    65
 73
     2
 40
0.025
 49
0.0
 74
     0
 49
-0.025
 74
     0
  0
ENDTAB
  0
TABLE
  2
LAYER
  5
2
330
0
100
AcDbSymbolTable
 70
     2
  0
LAYER
  5
10
330
2
100
AcDbSymbolTableRecord
100
AcDbLayerTableRecord
  2
0
 70
     0
 62
     7
  6
Continuous
370
    -3
390
F
347
46
348
0
  0
LAYER
  5
73
330
2
100
AcDbSymbolTableRecord
100
AcDbLayerTableRecord
  2
FORMAT
 70
     0
 62
     7
  6
Continuous
370
    -3
390
F
347
46
348
0
  0
ENDTAB
  0
TABLE
  2
STYLE
  5
3
330
0
100
AcDbSymbolTable
 70
     1
  0
STYLE
  5
11
330
3
100
AcDbSymbolTableRecord
100
AcDbTextStyleTableRecord
  2
Standard
 70
     0
 40
0.0
 41
1.0
 50
0.0
 71
     0
 42
0.1377952756
  3
txt
  4

  0
ENDTAB
  0
TABLE
  2
VIEW
  5
6
330
0
100
AcDbSymbolTable
 70
     0
  0
ENDTAB
  0
TABLE
  2
UCS
  5
7
330
0
100
AcDbSymbolTable
 70
     0
  0
ENDTAB
  0
TABLE
  2
APPID
  5
9
330
0
100
AcDbSymbolTable
 70
     1
  0
APPID
  5
12
330
9
100
AcDbSymbolTableRecord
100
AcDbRegAppTableRecord
  2
ACAD
 70
     0
  0
ENDTAB
  0
TABLE
  2
DIMSTYLE
  5
A
330
0
100
AcDbSymbolTable
 70
     1
100
AcDbDimStyleTable
  0
DIMSTYLE
105
27
330
A
100
AcDbSymbolTableRecord
100
AcDbDimStyleTableRecord
  2
Standard
 70
     0
178
     0
340
11
  0
ENDTAB
  0
TABLE
  2
BLOCK_RECORD
  5
1
330
0
100
AcDbSymbolTable
 70
     3
  0
BLOCK_RECORD
  5
1F
330
1
100
AcDbSymbolTableRecord
100
AcDbBlockTableRecord
  2
*Model_Space
340
22
 70
     0
280
     1
281
     0
  0
BLOCK_RECORD
  5
1B
330
1
100
AcDbSymbolTableRecord
100
AcDbBlockTableRecord
  2
*Paper_Space
340
1E
 70
     0
280
     1
281
     0
  0
BLOCK_RECORD
  5
23
330
1
100
AcDbSymbolTableRecord
100
AcDbBlockTableRecord
  2
*Paper_Space0
340
26
 70
     0
280
     1
281
     0
  0
BLOCK_RECORD
  5
1FE
330
1
100
AcDbSymbolTableRecord
100
AcDbBlockTableRecord
  2
*Paper_Space1
340
1FF
 70
     0
280
     1
281
     0
  0
BLOCK_RECORD
  5
38C
330
1
100
AcDbSymbolTableRecord
100
AcDbBlockTableRecord
  2
*Paper_Space2
340
38D
 70
     0
280
     1
281
     0
  0
ENDTAB
  0
ENDSEC
  0
SECTION
  2
BLOCKS
  0
BLOCK
  5
20
330
1F
100
AcDbEntity
  8
0
100
AcDbBlockBegin
  2
*Model_Space
 70
     0
 10
0.0
 20
0.0
 30
0.0
  3
*Model_Space
  1

  0
ENDBLK
  5
21
330
1F
100
AcDbEntity
  8
0
100
AcDbBlockEnd
  0
BLOCK
  5
1C
330
1B
100
AcDbEntity
 67
     1
  8
0
100
AcDbBlockBegin
  2
*Paper_Space
 70
     0
 10
0.0
 20
0.0
 30
0.0
  3
*Paper_Space
  1

  0
ENDBLK
  5
1D
330
1B
100
AcDbEntity
 67
     1
  8
0
100
AcDbBlockEnd
  0
BLOCK
  5
24
330
23
100
AcDbEntity
  8
0
100
AcDbBlockBegin
  2
*Paper_Space0
 70
     0
 10
0.0
 20
0.0
 30
0.0
  3
*Paper_Space0
  1

  0
LINE
  5
1E3
330
23
100
AcDbEntity
  8
0
  6
Continuous
 62
     7
370
    25
100
AcDbLine
 10
0.17
 20
0.17
 30
0.0
 11
19.855
 21
0.17
 31
0.0
  0
LINE
  5
1E4
330
23
100
AcDbEntity
  8
0
  6
Continuous
 62
     7
370
    25
100
AcDbLine
 10
0.17
 20
0.2093700787
 30
0.0
 11
0.17
 21
0.17
 31
0.0
  0
LINE
  5
1E5
330
23
100
AcDbEntity
  8
0
  6
Continuous
 62
     7
370
    25
100
AcDbLine
 10
0.17
 20
0.2093700787
 30
0.0
 11
19.855
 21
0.2093700787
 31
0.0
  0
LINE
  5
1E6
330
23
100
AcDbEntity
  8
0
  6
Continuous
 62
     7
370
    25
100
AcDbLine
 10
19.855
 20
0.2093700787
 30
0.0
 11
19.855
 21
0.17
 31
0.0
  0
LINE
  5
1E7
330
23
100
AcDbEntity
  8
0
  6
Continuous
 62
     7
370
    25
100
AcDbLine
 10
0.17
 20
0.4849606299
 30
0.0
 11
0.17
 21
0.2093700787
 31
0.0
  0
LINE
  5
1E8
330
23
100
AcDbEntity
  8
0
  6
Continuous
 62
     7
370
    25
100
AcDbLine
 10
0.17
 20
0.4849606299
 30
0.0
 11
19.855
 21
0.4849606299
 31
0.0
  0
LINE
  5
1E9
330
23
100
AcDbEntity
  8
0
  6
Continuous
 62
     7
370
    25
100
AcDbLine
 10
19.855
 20
0.4849606299
 30
0.0
 11
19.855
 21
0.2093700787
 31
0.0
  0
LINE
  5
1EA
330
23
100
AcDbEntity
  8
0
  6
Continuous
 62
     7
370
    25
100
AcDbLine
 10
0.17
 20
0.5243307087
 30
0.0
 11
0.17
 21
0.4849606299
 31
0.0
  0
LINE
  5
1EB
330
23
100
AcDbEntity
  8
0
  6
Continuous
 62
     7
370
    25
100
AcDbLine
 10
0.17
 20
0.5243307087
 30
0.0
 11
19.855
 21
0.5243307087
 31
0.0
  0
LINE
  5
1EC
330
23
100
AcDbEntity
  8
0
  6
Continuous
 62
     7
370
    25
100
AcDbLine
 10
19.855
 20
0.5243307087
 30
0.0
 11
19.855
 21
0.4849606299
 31
0.0
  0
LINE
  5
1ED
330
23
100
AcDbEntity
  8
0
  6
Continuous
 62
     7
370
    25
100
AcDbLine
 10
16.9101181102
 20
0.5266369545
 30
0.0
 11
18.8628740157
 21
0.5266369545
 31
0.0
  0
LINE
  5
1EE
330
23
100
AcDbEntity
  8
0
  6
Continuous
 62
     7
370
    25
100
AcDbLine
 10
18.8628740157
 20
0.5266369545
 30
0.0
 11
18.8628740157
 21
0.5417095022
 31
0.0
  0
ARC
  5
1EF
330
23
100
AcDbEntity
  8
0
  6
Continuous
 62
     7
370
    25
100
AcDbCircle
 10
18.8638582677
 20
0.5347497898
 30
0.0
 40
0.0070289649887254
100
AcDbArc
 50
11.421753659
 51
98.0494669755
  0
LINE
  5
1F0
330
23
100
AcDbEntity
  8
0
  6
Continuous
 62
     7
370
    25
100
AcDbLine
 10
18.8707480315
 20
0.5361417323
 30
0.0
 11
18.8707480315
 21
0.5243307087
 31
0.0
  0
ARC
  5
1F1
330
23
100
AcDbEntity
  8
0
  6
Continuous
 62
     7
370
    25
100
AcDbCircle
 10
16.9091338583
 20
0.5347497898
 30
0.0
 40
0.0070289649887254
100
AcDbArc
 50
81.9505330245
 51
168.578246341
  0
LINE
  5
1F2
330
23
100
AcDbEntity
  8
0
  6
Continuous
 62
     7
370
    25
100
AcDbLine
 10
16.9101181102
 20
0.5417095022
 30
0.0
 11
16.9101181102
 21
0.5266369545
 31
0.0
  0
LINE
  5
1F3
330
23
100
AcDbEntity
  8
0
  6
Continuous
 62
     7
370
    25
100
AcDbLine
 10
16.9022440945
 20
0.5243307087
 30
0.0
 11
16.9022440945
 21
0.5361417323
 31
0.0
  0
LINE
  5
1F4
330
23
100
AcDbEntity
  8
0
  6
Continuous
 62
     7
370
    25
100
AcDbLine
 10
18.8628740157
 20
0.5417095022
 30
0.0
 11
16.9101181102
 21
0.5417095022
 31
0.0
  0
LINE
  5
1F5
330
23
100
AcDbEntity
  8
0
  6
Continuous
 62
     7
370
    25
100
AcDbLine
 10
18.8628740157
 20
0.5417095022
 30
0.0
 11
18.8628740157
 21
0.544015748
 31
0.0
  0
ARC
  5
1F6
330
23
100
AcDbEntity
  8
0
  6
Continuous
 62
     7
370
    25
100
AcDbCircle
 10
18.8628740157
 20
0.5361417323
 30
0.0
 40
0.0078740157480318
100
AcDbArc
 50
0.0
 51
90.0
  0
LINE
  5
1F7
330
23
100
AcDbEntity
  8
0
  6
Continuous
 62
     7
370
    25
100
AcDbLine
 10
16.9101181102
 20
0.544015748
 30
0.0
 11
16.9101181102
 21
0.5417095022
 31
0.0
  0
ARC
  5
1F8
330
23
100
AcDbEntity
  8
0
  6
Continuous
 62
     7
370
    25
100
AcDbCircle
 10
16.9101181102
 20
0.5361417323
 30
0.0
 40
0.0078740157480333
100
AcDbArc
 50
90.0
 51
180.0
  0
LINE
  5
1F9
330
23
100
AcDbEntity
  8
0
  6
Continuous
 62
     7
370
    25
100
AcDbLine
 10
16.9101181102
 20
0.544015748
 30
0.0
 11
18.8628740157
 21
0.544015748
 31
0.0
  0
LINE
  5
1FA
330
23
100
AcDbEntity
  8
0
  6
Continuous
 62
     8
370
    25
100
AcDbLine
 10
18.8628740157
 20
0.5243307087
 30
0.0
 11
18.8628740157
 21
0.5266369545
 31
0.0
  0
ARC
  5
1FB
330
23
100
AcDbEntity
  8
0
  6
Continuous
 62
     8
370
    25
100
AcDbCircle
 10
18.8631518572
 20
0.5174233531
 30
0.0
 40
0.0092177896406787
100
AcDbArc
 50
48.5341499728
 51
91.7272635821
  0
LINE
  5
1FC
330
23
100
AcDbEntity
  8
0
  6
Continuous
 62
     8
370
    25
100
AcDbLine
 10
16.9101181102
 20
0.5243307087
 30
0.0
 11
16.9101181102
 21
0.5266369545
 31
0.0
  0
ARC
  5
1FD
330
23
100
AcDbEntity
  8
0
  6
Continuous
 62
     8
370
    25
100
AcDbCircle
 10
16.9097922022
 20
0.5175563584
 30
0.0
 40
0.0090864427047879
100
AcDbArc
 50
87.9445022756
 51
131.7940841695
  0
ENDBLK
  5
25
330
23
100
AcDbEntity
  8
0
100
AcDbBlockEnd
  0
BLOCK
  5
200
330
1FE
100
AcDbEntity
  8
0
100
AcDbBlockBegin
  2
*Paper_Space1
 70
     0
 10
0.0
 20
0.0
 30
0.0
  3
*Paper_Space1
  1

  0
LINE
  5
202
330
1FE
100
AcDbEntity
  8
0
  6
Continuous
 62
     7
370
    25
100
AcDbLine
 10
1.7054330709
 20
19.855
 30
0.0
 11
1.7054330709
 21
0.17
 31
0.0
  0
LINE
  5
203
330
1FE
100
AcDbEntity
  8
0
  6
Continuous
 62
     7
370
    25
100
AcDbLine
 10
1.7448031496
 20
19.855
 30
0.0
 11
1.7448031496
 21
0.17
 31
0.0
  0
LINE
  5
204
330
1FE
100
AcDbEntity
  8
0
  6
Continuous
 62
     7
370
    25
100
AcDbLine
 10
1.7448031496
 20
19.855
 30
0.0
 11
1.7054330709
 21
19.855
 31
0.0
  0
LINE
  5
205
330
1FE
100
AcDbEntity
  8
0
  6
Continuous
 62
     7
370
    25
100
AcDbLine
 10
1.7448031496
 20
0.17
 30
0.0
 11
1.7054330709
 21
0.17
 31
0.0
  0
LINE
  5
206
330
1FE
100
AcDbEntity
  8
0
  6
Continuous
 62
     7
370
    25
100
AcDbLine
 10
0.2093700787
 20
19.855
 30
0.0
 11
0.2093700787
 21
0.17
 31
0.0
  0
LINE
  5
207
330
1FE
100
AcDbEntity
  8
0
  6
Continuous
 62
     7
370
    25
100
AcDbLine
 10
0.4554330709
 20
19.855
 30
0.0
 11
0.4554330709
 21
0.17
 31
0.0
  0
LINE
  5
208
330
1FE
100
AcDbEntity
  8
0
  6
Continuous
 62
     7
370
    25
100
AcDbLine
 10
0.4554330709
 20
19.855
 30
0.0
 11
0.2093700787
 21
19.855
 31
0.0
  0
LINE
  5
209
330
1FE
100
AcDbEntity
  8
0
  6
Continuous
 62
     7
370
    25
100
AcDbLine
 10
0.4554330709
 20
0.17
 30
0.0
 11
0.2093700787
 21
0.17
 31
0.0
  0
LINE
  5
20A
330
1FE
100
AcDbEntity
  8
0
  6
Continuous
 62
     7
370
    25
100
AcDbLine
 10
1.4495275591
 20
19.855
 30
0.0
 11
1.4495275591
 21
0.17
 31
0.0
  0
LINE
  5
20B
330
1FE
100
AcDbEntity
  8
0
  6
Continuous
 62
     7
370
    25
100
AcDbLine
 10
1.4593700787
 20
19.855
 30
0.0
 11
1.4593700787
 21
0.17
 31
0.0
  0
LINE
  5
20C
330
1FE
100
AcDbEntity
  8
0
  6
Continuous
 62
     7
370
    25
100
AcDbLine
 10
1.4593700787
 20
19.855
 30
0.0
 11
1.4495275591
 21
19.855
 31
0.0
  0
LINE
  5
20D
330
1FE
100
AcDbEntity
  8
0
  6
Continuous
 62
     7
370
    25
100
AcDbLine
 10
1.4593700787
 20
0.17
 30
0.0
 11
1.4495275591
 21
0.17
 31
0.0
  0
LINE
  5
20E
330
1FE
100
AcDbEntity
  8
0
  6
Continuous
 62
     7
370
    25
100
AcDbLine
 10
0.4652755906
 20
19.855
 30
0.0
 11
0.4652755906
 21
0.17
 31
0.0
  0
LINE
  5
20F
330
1FE
100
AcDbEntity
  8
0
  6
Continuous
 62
     7
370
    25
100
AcDbLine
 10
0.4652755906
 20
19.855
 30
0.0
 11
0.4554330709
 21
19.855
 31
0.0
  0
LINE
  5
210
330
1FE
100
AcDbEntity
  8
0
  6
Continuous
 62
     7
370
    25
100
AcDbLine
 10
0.4652755906
 20
0.17
 30
0.0
 11
0.4554330709
 21
0.17
 31
0.0
  0
LINE
  5
211
330
1FE
100
AcDbEntity
  8
0
  6
Continuous
 62
     7
370
    25
100
AcDbLine
 10
1.7054330709
 20
19.855
 30
0.0
 11
1.4593700787
 21
19.855
 31
0.0
  0
LINE
  5
212
330
1FE
100
AcDbEntity
  8
0
  6
Continuous
 62
     7
370
    25
100
AcDbLine
 10
1.7054330709
 20
0.17
 30
0.0
 11
1.4593700787
 21
0.17
 31
0.0
  0
LINE
  5
213
330
1FE
100
AcDbEntity
  8
0
  6
Continuous
 62
     7
370
    25
100
AcDbLine
 10
0.17
 20
19.855
 30
0.0
 11
0.17
 21
0.17
 31
0.0
  0
LINE
  5
214
330
1FE
100
AcDbEntity
  8
0
  6
Continuous
 62
     7
370
    25
100
AcDbLine
 10
0.2093700787
 20
19.855
 30
0.0
 11
0.17
 21
19.855
 31
0.0
  0
LINE
  5
215
330
1FE
100
AcDbEntity
  8
0
  6
Continuous
 62
     7
370
    25
100
AcDbLine
 10
0.2093700787
 20
0.17
 30
0.0
 11
0.17
 21
0.17
 31
0.0
  0
CIRCLE
  5
216
330
1FE
100
AcDbEntity
  8
0
  6
Continuous
 62
     7
370
    25
100
AcDbCircle
 10
0.9574015748
 20
0.563701
 30
0.0
 40
0.1692913385826782
  0
CIRCLE
  5
217
330
1FE
100
AcDbEntity
  8
0
  6
Continuous
 62
     7
370
    25
100
AcDbCircle
 10
0.9574015748
 20
12.374724622
 30
0.0
 40
0.169291338582676
  0
CIRCLE
  5
218
330
1FE
100
AcDbEntity
  8
0
  6
Continuous
 62
     7
370
    25
100
AcDbCircle
 10
0.9574015748
 20
14.7369293465
 30
0.0
 40
0.169291338582676
  0
CIRCLE
  5
219
330
1FE
100
AcDbEntity
  8
0
  6
Continuous
 62
     7
370
    25
100
AcDbCircle
 10
0.9574015748
 20
17.0991340709
 30
0.0
 40
0.1692913385826778
  0
CIRCLE
  5
21A
330
1FE
100
AcDbEntity
  8
0
  6
Continuous
 62
     7
370
    25
100
AcDbCircle
 10
0.9574015748
 20
19.4613387953
 30
0.0
 40
0.1692913385826813
  0
CIRCLE
  5
21B
330
1FE
100
AcDbEntity
  8
0
  6
Continuous
 62
     7
370
    25
100
AcDbCircle
 10
0.9574015748
 20
10.0125198976
 30
0.0
 40
0.1692913385826778
  0
CIRCLE
  5
21C
330
1FE
100
AcDbEntity
  8
0
  6
Continuous
 62
     7
370
    25
100
AcDbCircle
 10
0.9574015748
 20
7.6503151732
 30
0.0
 40
0.1692913385826778
  0
CIRCLE
  5
21D
330
1FE
100
AcDbEntity
  8
0
  6
Continuous
 62
     7
370
    25
100
AcDbCircle
 10
0.9574015748
 20
5.2881104488
 30
0.0
 40
0.1692913385826778
  0
LINE
  5
21E
330
1FE
100
AcDbEntity
  8
0
  6
Continuous
 62
     7
370
    25
100
AcDbLine
 10
1.4495275591
 20
19.855
 30
0.0
 11
0.4652755906
 21
19.855
 31
0.0
  0
LINE
  5
21F
330
1FE
100
AcDbEntity
  8
0
  6
Continuous
 62
     7
370
    25
100
AcDbLine
 10
1.4495275591
 20
0.17
 30
0.0
 11
0.4652755906
 21
0.17
 31
0.0
  0
CIRCLE
  5
220
330
1FE
100
AcDbEntity
  8
0
  6
Continuous
 62
     7
370
    25
100
AcDbCircle
 10
0.9574015748
 20
17.0991340709
 30
0.0
 40
0.0885826771653555
  0
CIRCLE
  5
221
330
1FE
100
AcDbEntity
  8
0
  6
Continuous
 62
     7
370
    25
100
AcDbCircle
 10
0.9574015748
 20
10.0125198976
 30
0.0
 40
0.088582677165352
  0
CIRCLE
  5
222
330
1FE
100
AcDbEntity
  8
0
  6
Continuous
 62
     7
370
    25
100
AcDbCircle
 10
0.9574015748
 20
12.374724622
 30
0.0
 40
0.0885826771653537
  0
CIRCLE
  5
223
330
1FE
100
AcDbEntity
  8
0
  6
Continuous
 62
     7
370
    25
100
AcDbCircle
 10
0.9574015748
 20
19.4613387953
 30
0.0
 40
0.088582677165352
  0
CIRCLE
  5
224
330
1FE
100
AcDbEntity
  8
0
  6
Continuous
 62
     7
370
    25
100
AcDbCircle
 10
0.9574015748
 20
7.6503151732
 30
0.0
 40
0.0885826771653555
  0
CIRCLE
  5
225
330
1FE
100
AcDbEntity
  8
0
  6
Continuous
 62
     7
370
    25
100
AcDbCircle
 10
0.9574015748
 20
0.563701
 30
0.0
 40
0.0885826771653555
  0
CIRCLE
  5
226
330
1FE
100
AcDbEntity
  8
0
  6
Continuous
 62
     7
370
    25
100
AcDbCircle
 10
0.9574015748
 20
14.7369293465
 30
0.0
 40
0.0885826771653573
  0
CIRCLE
  5
227
330
1FE
100
AcDbEntity
  8
0
  6
Continuous
 62
     7
370
    25
100
AcDbCircle
 10
0.9574015748
 20
5.2881104488
 30
0.0
 40
0.0885826771653528
  0
LINE
  5
228
330
1FE
100
AcDbEntity
  8
0
  6
Continuous
 62
     7
370
    25
100
AcDbLine
 10
1.3314173228
 20
2.5912598425
 30
0.0
 11
1.3314173228
 21
3.0243307087
 31
0.0
  0
LINE
  5
229
330
1FE
100
AcDbEntity
  8
0
  6
Continuous
 62
     7
370
    25
100
AcDbLine
 10
1.3314173228
 20
3.0243307087
 30
0.0
 11
1.3412598425
 21
3.0243307087
 31
0.0
  0
LINE
  5
22A
330
1FE
100
AcDbEntity
  8
0
  6
Continuous
 62
     7
370
    25
100
AcDbLine
 10
1.3412598425
 20
3.0243307087
 30
0.0
 11
1.3412598425
 21
2.5912598425
 31
0.0
  0
LINE
  5
22B
330
1FE
100
AcDbEntity
  8
0
  6
Continuous
 62
     7
370
    25
100
AcDbLine
 10
1.3314173228
 20
2.5912598425
 30
0.0
 11
1.3412598425
 21
2.5912598425
 31
0.0
  0
ARC
  5
22C
330
1FE
100
AcDbEntity
  8
0
  6
Continuous
 62
     7
370
    25
100
AcDbCircle
 10
1.0164566929
 20
2.7476839847
 30
0.0
 40
0.0295275590551182
100
AcDbArc
 50
180.0
 51
254.6736164844
  0
LINE
  5
22D
330
1FE
100
AcDbEntity
  8
0
  6
Continuous
 62
     7
370
    25
100
AcDbLine
 10
0.9869291339
 20
2.7476839847
 30
0.0
 11
0.9967716535
 21
2.7476839847
 31
0.0
  0
ARC
  5
22E
330
1FE
100
AcDbEntity
  8
0
  6
Continuous
 62
     7
370
    25
100
AcDbCircle
 10
1.0164566929
 20
2.7476839847
 30
0.0
 40
0.0196850393700788
100
AcDbArc
 50
180.0
 51
254.6736164844
  0
LINE
  5
22F
330
1FE
100
AcDbEntity
  8
0
  6
Continuous
 62
     7
370
    25
100
AcDbLine
 10
1.0086520518
 20
2.7192065494
 30
0.0
 11
1.0112535988
 21
2.7286990278
 31
0.0
  0
ARC
  5
230
330
1FE
100
AcDbEntity
  8
0
  6
Continuous
 62
     7
370
    25
100
AcDbCircle
 10
1.3117322835
 20
3.0243307087
 30
0.0
 40
0.0196850393700787
100
AcDbArc
 50
0.0
 51
90.0
  0
LINE
  5
231
330
1FE
100
AcDbEntity
  8
0
  6
Continuous
 62
     7
370
    25
100
AcDbLine
 10
1.3117322835
 20
3.044015748
 30
0.0
 11
1.3117322835
 21
3.0538582677
 31
0.0
  0
ARC
  5
232
330
1FE
100
AcDbEntity
  8
0
  6
Continuous
 62
     7
370
    25
100
AcDbCircle
 10
1.3117322835
 20
3.0243307087
 30
0.0
 40
0.0295275590551189
100
AcDbArc
 50
0.0
 51
90.0
  0
LINE
  5
233
330
1FE
100
AcDbEntity
  8
0
  6
Continuous
 62
     7
370
    25
100
AcDbLine
 10
0.9869291339
 20
2.7476839847
 30
0.0
 11
0.9869291339
 21
3.0243307087
 31
0.0
  0
LINE
  5
234
330
1FE
100
AcDbEntity
  8
0
  6
Continuous
 62
     7
370
    25
100
AcDbLine
 10
0.9869291339
 20
3.0243307087
 30
0.0
 11
0.9967716535
 21
3.0243307087
 31
0.0
  0
LINE
  5
235
330
1FE
100
AcDbEntity
  8
0
  6
Continuous
 62
     7
370
    25
100
AcDbLine
 10
0.9967716535
 20
3.0243307087
 30
0.0
 11
0.9967716535
 21
2.7476839847
 31
0.0
  0
LINE
  5
236
330
1FE
100
AcDbEntity
  8
0
  6
Continuous
 62
     7
370
    25
100
AcDbLine
 10
1.3117322835
 20
3.044015748
 30
0.0
 11
1.0164566929
 21
3.044015748
 31
0.0
  0
LINE
  5
237
330
1FE
100
AcDbEntity
  8
0
  6
Continuous
 62
     7
370
    25
100
AcDbLine
 10
1.0164566929
 20
3.044015748
 30
0.0
 11
1.0164566929
 21
3.0538582677
 31
0.0
  0
LINE
  5
238
330
1FE
100
AcDbEntity
  8
0
  6
Continuous
 62
     7
370
    25
100
AcDbLine
 10
1.0164566929
 20
3.0538582677
 30
0.0
 11
1.3117322835
 21
3.0538582677
 31
0.0
  0
ARC
  5
239
330
1FE
100
AcDbEntity
  8
0
  6
Continuous
 62
     7
370
    25
100
AcDbCircle
 10
1.0164566929
 20
3.0243307087
 30
0.0
 40
0.0295275590551189
100
AcDbArc
 50
90.0
 51
180.0
  0
ARC
  5
23A
330
1FE
100
AcDbEntity
  8
0
  6
Continuous
 62
     7
370
    25
100
AcDbCircle
 10
1.0164566929
 20
3.0243307087
 30
0.0
 40
0.0196850393700788
100
AcDbArc
 50
90.0
 51
180.0
  0
LINE
  5
23B
330
1FE
100
AcDbEntity
  8
0
  6
Continuous
 62
     7
370
    25
100
AcDbLine
 10
0.5275922328
 20
3.1148818898
 30
0.0
 11
0.5220244628
 21
3.1148818898
 31
0.0
  0
ARC
  5
23C
330
1FE
100
AcDbEntity
  8
0
  6
Continuous
 62
     7
370
    25
100
AcDbCircle
 10
0.5289841753
 20
3.1158661417
 30
0.0
 40
0.0070289649887235
100
AcDbArc
 50
101.421753659
 51
188.0494669755
  0
LINE
  5
23D
330
1FE
100
AcDbEntity
  8
0
  6
Continuous
 62
     7
370
    25
100
AcDbLine
 10
0.5275922328
 20
3.1227559055
 30
0.0
 11
0.5275922328
 21
3.1148818898
 31
0.0
  0
LINE
  5
23E
330
1FE
100
AcDbEntity
  8
0
  6
Continuous
 62
     7
370
    25
100
AcDbLine
 10
1.3872109168
 20
3.1148818898
 30
0.0
 11
0.5275922328
 21
3.1148818898
 31
0.0
  0
LINE
  5
23F
330
1FE
100
AcDbEntity
  8
0
  6
Continuous
 62
     7
370
    25
100
AcDbLine
 10
0.5275922328
 20
3.1227559055
 30
0.0
 11
1.3872109168
 21
3.1227559055
 31
0.0
  0
LINE
  5
240
330
1FE
100
AcDbEntity
  8
0
  6
Continuous
 62
     7
370
    25
100
AcDbLine
 10
1.3872109168
 20
3.1227559055
 30
0.0
 11
1.3872109168
 21
3.1148818898
 31
0.0
  0
ARC
  5
241
330
1FE
100
AcDbEntity
  8
0
  6
Continuous
 62
     7
370
    25
100
AcDbCircle
 10
1.3858189743
 20
3.1158661417
 30
0.0
 40
0.0070289649887224
100
AcDbArc
 50
351.9505330245
 51
78.578246341
  0
LINE
  5
242
330
1FE
100
AcDbEntity
  8
0
  6
Continuous
 62
     7
370
    25
100
AcDbLine
 10
1.3927786868
 20
3.1148818898
 30
0.0
 11
1.3872109168
 21
3.1148818898
 31
0.0
  0
ARC
  5
243
330
1FE
100
AcDbEntity
  8
0
  6
Continuous
 62
     7
370
    25
100
AcDbCircle
 10
0.5289841753
 20
1.1611417323
 30
0.0
 40
0.0070289649887233
100
AcDbArc
 50
171.9505330245
 51
258.578246341
  0
LINE
  5
244
330
1FE
100
AcDbEntity
  8
0
  6
Continuous
 62
     7
370
    25
100
AcDbLine
 10
0.5220244628
 20
1.1621259843
 30
0.0
 11
0.5275922328
 21
1.1621259843
 31
0.0
  0
LINE
  5
245
330
1FE
100
AcDbEntity
  8
0
  6
Continuous
 62
     7
370
    25
100
AcDbLine
 10
0.5275922328
 20
1.1621259843
 30
0.0
 11
0.5275922328
 21
1.1542519685
 31
0.0
  0
LINE
  5
246
330
1FE
100
AcDbEntity
  8
0
  6
Continuous
 62
     7
370
    25
100
AcDbLine
 10
1.3872109168
 20
1.1542519685
 30
0.0
 11
0.5275922328
 21
1.1542519685
 31
0.0
  0
LINE
  5
247
330
1FE
100
AcDbEntity
  8
0
  6
Continuous
 62
     7
370
    25
100
AcDbLine
 10
0.5275922328
 20
1.1621259843
 30
0.0
 11
1.3872109168
 21
1.1621259843
 31
0.0
  0
LINE
  5
248
330
1FE
100
AcDbEntity
  8
0
  6
Continuous
 62
     7
370
    25
100
AcDbLine
 10
1.3872109168
 20
1.1621259843
 30
0.0
 11
1.3872109168
 21
1.1542519685
 31
0.0
  0
LINE
  5
249
330
1FE
100
AcDbEntity
  8
0
  6
Continuous
 62
     7
370
    25
100
AcDbLine
 10
1.3872109168
 20
1.1621259843
 30
0.0
 11
1.3927786868
 21
1.1621259843
 31
0.0
  0
ARC
  5
24A
330
1FE
100
AcDbEntity
  8
0
  6
Continuous
 62
     7
370
    25
100
AcDbCircle
 10
1.3858189743
 20
1.1611417323
 30
0.0
 40
0.0070289649887257
100
AcDbArc
 50
281.421753659
 51
8.0494669755
  0
LINE
  5
24B
330
1FE
100
AcDbEntity
  8
0
  6
Continuous
 62
     7
370
    25
100
AcDbLine
 10
0.5735433071
 20
2.5912598425
 30
0.0
 11
0.5735433071
 21
3.0243307087
 31
0.0
  0
LINE
  5
24C
330
1FE
100
AcDbEntity
  8
0
  6
Continuous
 62
     7
370
    25
100
AcDbLine
 10
0.5735433071
 20
3.0243307087
 30
0.0
 11
0.5833858268
 21
3.0243307087
 31
0.0
  0
LINE
  5
24D
330
1FE
100
AcDbEntity
  8
0
  6
Continuous
 62
     7
370
    25
100
AcDbLine
 10
0.5833858268
 20
3.0243307087
 30
0.0
 11
0.5833858268
 21
2.5912598425
 31
0.0
  0
LINE
  5
24E
330
1FE
100
AcDbEntity
  8
0
  6
Continuous
 62
     7
370
    25
100
AcDbLine
 10
0.5735433071
 20
2.5912598425
 30
0.0
 11
0.5833858268
 21
2.5912598425
 31
0.0
  0
LINE
  5
24F
330
1FE
100
AcDbEntity
  8
0
  6
Continuous
 62
     7
370
    25
100
AcDbLine
 10
0.8983464567
 20
3.044015748
 30
0.0
 11
0.6030708661
 21
3.044015748
 31
0.0
  0
LINE
  5
250
330
1FE
100
AcDbEntity
  8
0
  6
Continuous
 62
     7
370
    25
100
AcDbLine
 10
0.6030708661
 20
3.044015748
 30
0.0
 11
0.6030708661
 21
3.0538582677
 31
0.0
  0
LINE
  5
251
330
1FE
100
AcDbEntity
  8
0
  6
Continuous
 62
     7
370
    25
100
AcDbLine
 10
0.6030708661
 20
3.0538582677
 30
0.0
 11
0.8983464567
 21
3.0538582677
 31
0.0
  0
LINE
  5
252
330
1FE
100
AcDbEntity
  8
0
  6
Continuous
 62
     7
370
    25
100
AcDbLine
 10
0.8983464567
 20
3.044015748
 30
0.0
 11
0.8983464567
 21
3.0538582677
 31
0.0
  0
ARC
  5
253
330
1FE
100
AcDbEntity
  8
0
  6
Continuous
 62
     7
370
    25
100
AcDbCircle
 10
0.6030708661
 20
3.0243307087
 30
0.0
 40
0.0295275590551189
100
AcDbArc
 50
90.0
 51
180.0
  0
ARC
  5
254
330
1FE
100
AcDbEntity
  8
0
  6
Continuous
 62
     7
370
    25
100
AcDbCircle
 10
0.6030708661
 20
3.0243307087
 30
0.0
 40
0.0196850393700788
100
AcDbArc
 50
90.0
 51
180.0
  0
LINE
  5
255
330
1FE
100
AcDbEntity
  8
0
  6
Continuous
 62
     7
370
    25
100
AcDbLine
 10
0.9278740157
 20
1.5293238893
 30
0.0
 11
0.9278740157
 21
1.2526771654
 31
0.0
  0
LINE
  5
256
330
1FE
100
AcDbEntity
  8
0
  6
Continuous
 62
     7
370
    25
100
AcDbLine
 10
0.9278740157
 20
1.2526771654
 30
0.0
 11
0.9180314961
 21
1.2526771654
 31
0.0
  0
LINE
  5
257
330
1FE
100
AcDbEntity
  8
0
  6
Continuous
 62
     7
370
    25
100
AcDbLine
 10
0.9180314961
 20
1.2526771654
 30
0.0
 11
0.9180314961
 21
1.5293238893
 31
0.0
  0
LINE
  5
258
330
1FE
100
AcDbEntity
  8
0
  6
Continuous
 62
     7
370
    25
100
AcDbLine
 10
0.9180314961
 20
1.5293238893
 30
0.0
 11
0.9278740157
 21
1.5293238893
 31
0.0
  0
ARC
  5
259
330
1FE
100
AcDbEntity
  8
0
  6
Continuous
 62
     7
370
    25
100
AcDbCircle
 10
0.8983464567
 20
1.2526771654
 30
0.0
 40
0.0295275590551183
100
AcDbArc
 50
270.0
 51
0.0
  0
LINE
  5
25A
330
1FE
100
AcDbEntity
  8
0
  6
Continuous
 62
     7
370
    25
100
AcDbLine
 10
0.8983464567
 20
1.2231496063
 30
0.0
 11
0.8983464567
 21
1.232992126
 31
0.0
  0
ARC
  5
25B
330
1FE
100
AcDbEntity
  8
0
  6
Continuous
 62
     7
370
    25
100
AcDbCircle
 10
0.8983464567
 20
1.2526771654
 30
0.0
 40
0.0196850393700789
100
AcDbArc
 50
270.0
 51
0.0
  0
ARC
  5
25C
330
1FE
100
AcDbEntity
  8
0
  6
Continuous
 62
     7
370
    25
100
AcDbCircle
 10
0.8983464567
 20
1.5293238893
 30
0.0
 40
0.0196850393700787
100
AcDbArc
 50
0.0
 51
74.6736164844
  0
LINE
  5
25D
330
1FE
100
AcDbEntity
  8
0
  6
Continuous
 62
     7
370
    25
100
AcDbLine
 10
0.9035495508
 20
1.5483088462
 30
0.0
 11
0.9061510979
 21
1.5578013246
 31
0.0
  0
ARC
  5
25E
330
1FE
100
AcDbEntity
  8
0
  6
Continuous
 62
     7
370
    25
100
AcDbCircle
 10
0.8983464567
 20
1.5293238893
 30
0.0
 40
0.0295275590551182
100
AcDbArc
 50
0.0
 51
74.6736164844
  0
LINE
  5
25F
330
1FE
100
AcDbEntity
  8
0
  6
Continuous
 62
     7
370
    25
100
AcDbLine
 10
0.8983464567
 20
1.2231496063
 30
0.0
 11
0.6030708661
 21
1.2231496063
 31
0.0
  0
LINE
  5
260
330
1FE
100
AcDbEntity
  8
0
  6
Continuous
 62
     7
370
    25
100
AcDbLine
 10
0.6030708661
 20
1.2231496063
 30
0.0
 11
0.6030708661
 21
1.232992126
 31
0.0
  0
LINE
  5
261
330
1FE
100
AcDbEntity
  8
0
  6
Continuous
 62
     7
370
    25
100
AcDbLine
 10
0.6030708661
 20
1.232992126
 30
0.0
 11
0.8983464567
 21
1.232992126
 31
0.0
  0
ARC
  5
262
330
1FE
100
AcDbEntity
  8
0
  6
Continuous
 62
     7
370
    25
100
AcDbCircle
 10
0.9574015748
 20
1.7448031496
 30
0.0
 40
0.2037401574803153
100
AcDbArc
 50
195.3263835156
 51
254.6736164844
  0
LINE
  5
263
330
1FE
100
AcDbEntity
  8
0
  6
Continuous
 62
     7
370
    25
100
AcDbLine
 10
0.7609072714
 20
1.6909511256
 30
0.0
 11
0.7703997498
 21
1.6935526727
 31
0.0
  0
ARC
  5
264
330
1FE
100
AcDbEntity
  8
0
  6
Continuous
 62
     7
370
    25
100
AcDbCircle
 10
0.9574015748
 20
1.7448031496
 30
0.0
 40
0.1938976377952762
100
AcDbArc
 50
195.3263835156
 51
254.6736164844
  0
ARC
  5
265
330
1FE
100
AcDbEntity
  8
0
  6
Continuous
 62
     7
370
    25
100
AcDbCircle
 10
0.6030708661
 20
1.2526771654
 30
0.0
 40
0.0295275590551183
100
AcDbArc
 50
180.0
 51
270.0
  0
LINE
  5
266
330
1FE
100
AcDbEntity
  8
0
  6
Continuous
 62
     7
370
    25
100
AcDbLine
 10
0.5735433071
 20
1.2526771654
 30
0.0
 11
0.5833858268
 21
1.2526771654
 31
0.0
  0
ARC
  5
267
330
1FE
100
AcDbEntity
  8
0
  6
Continuous
 62
     7
370
    25
100
AcDbCircle
 10
0.6030708661
 20
1.2526771654
 30
0.0
 40
0.0196850393700789
100
AcDbArc
 50
180.0
 51
270.0
  0
ARC
  5
268
330
1FE
100
AcDbEntity
  8
0
  6
Continuous
 62
     7
370
    25
100
AcDbCircle
 10
0.7419223145
 20
1.6857480315
 30
0.0
 40
0.0196850393700789
100
AcDbArc
 50
15.3263835156
 51
90.0
  0
LINE
  5
269
330
1FE
100
AcDbEntity
  8
0
  6
Continuous
 62
     7
370
    25
100
AcDbLine
 10
0.7419223145
 20
1.7054330709
 30
0.0
 11
0.7419223145
 21
1.7152755906
 31
0.0
  0
ARC
  5
26A
330
1FE
100
AcDbEntity
  8
0
  6
Continuous
 62
     7
370
    25
100
AcDbCircle
 10
0.7419223145
 20
1.6857480315
 30
0.0
 40
0.0295275590551183
100
AcDbArc
 50
15.3263835156
 51
90.0
  0
LINE
  5
26B
330
1FE
100
AcDbEntity
  8
0
  6
Continuous
 62
     7
370
    25
100
AcDbLine
 10
0.5735433071
 20
1.2526771654
 30
0.0
 11
0.5735433071
 21
1.6857480315
 31
0.0
  0
LINE
  5
26C
330
1FE
100
AcDbEntity
  8
0
  6
Continuous
 62
     7
370
    25
100
AcDbLine
 10
0.5735433071
 20
1.6857480315
 30
0.0
 11
0.5833858268
 21
1.6857480315
 31
0.0
  0
LINE
  5
26D
330
1FE
100
AcDbEntity
  8
0
  6
Continuous
 62
     7
370
    25
100
AcDbLine
 10
0.5833858268
 20
1.6857480315
 30
0.0
 11
0.5833858268
 21
1.2526771654
 31
0.0
  0
LINE
  5
26E
330
1FE
100
AcDbEntity
  8
0
  6
Continuous
 62
     7
370
    25
100
AcDbLine
 10
0.7419223145
 20
1.7054330709
 30
0.0
 11
0.6030708661
 21
1.7054330709
 31
0.0
  0
LINE
  5
26F
330
1FE
100
AcDbEntity
  8
0
  6
Continuous
 62
     7
370
    25
100
AcDbLine
 10
0.6030708661
 20
1.7054330709
 30
0.0
 11
0.6030708661
 21
1.7152755906
 31
0.0
  0
LINE
  5
270
330
1FE
100
AcDbEntity
  8
0
  6
Continuous
 62
     7
370
    25
100
AcDbLine
 10
0.6030708661
 20
1.7152755906
 30
0.0
 11
0.7419223145
 21
1.7152755906
 31
0.0
  0
ARC
  5
271
330
1FE
100
AcDbEntity
  8
0
  6
Continuous
 62
     7
370
    25
100
AcDbCircle
 10
0.6030708661
 20
1.6857480315
 30
0.0
 40
0.0295275590551182
100
AcDbArc
 50
90.0
 51
180.0
  0
ARC
  5
272
330
1FE
100
AcDbEntity
  8
0
  6
Continuous
 62
     7
370
    25
100
AcDbCircle
 10
0.6030708661
 20
1.6857480315
 30
0.0
 40
0.0196850393700788
100
AcDbArc
 50
90.0
 51
180.0
  0
ARC
  5
273
330
1FE
100
AcDbEntity
  8
0
  6
Continuous
 62
     7
370
    25
100
AcDbCircle
 10
0.8983464567
 20
1.9602824099
 30
0.0
 40
0.0295275590551183
100
AcDbArc
 50
285.3263835156
 51
0.0
  0
LINE
  5
274
330
1FE
100
AcDbEntity
  8
0
  6
Continuous
 62
     7
370
    25
100
AcDbLine
 10
0.9061510979
 20
1.9318049746
 30
0.0
 11
0.9035495508
 21
1.941297453
 31
0.0
  0
ARC
  5
275
330
1FE
100
AcDbEntity
  8
0
  6
Continuous
 62
     7
370
    25
100
AcDbCircle
 10
0.8983464567
 20
1.9602824099
 30
0.0
 40
0.0196850393700787
100
AcDbArc
 50
285.3263835156
 51
0.0
  0
LINE
  5
276
330
1FE
100
AcDbEntity
  8
0
  6
Continuous
 62
     7
370
    25
100
AcDbLine
 10
0.9180314961
 20
1.9602824099
 30
0.0
 11
0.9278740157
 21
1.9602824099
 31
0.0
  0
ARC
  5
277
330
1FE
100
AcDbEntity
  8
0
  6
Continuous
 62
     7
370
    25
100
AcDbCircle
 10
0.9574015748
 20
1.7448031496
 30
0.0
 40
0.1938976377952755
100
AcDbArc
 50
105.3263835156
 51
164.6736164844
  0
LINE
  5
278
330
1FE
100
AcDbEntity
  8
0
  6
Continuous
 62
     7
370
    25
100
AcDbLine
 10
0.7703997498
 20
1.7960536266
 30
0.0
 11
0.7609072714
 21
1.7986551736
 31
0.0
  0
ARC
  5
279
330
1FE
100
AcDbEntity
  8
0
  6
Continuous
 62
     7
370
    25
100
AcDbCircle
 10
0.9574015748
 20
1.7448031496
 30
0.0
 40
0.2037401574803155
100
AcDbArc
 50
105.3263835156
 51
164.6736164844
  0
LINE
  5
27A
330
1FE
100
AcDbEntity
  8
0
  6
Continuous
 62
     7
370
    25
100
AcDbLine
 10
0.9180314961
 20
1.9602824099
 30
0.0
 11
0.9180314961
 21
2.3167254641
 31
0.0
  0
LINE
  5
27B
330
1FE
100
AcDbEntity
  8
0
  6
Continuous
 62
     7
370
    25
100
AcDbLine
 10
0.9180314961
 20
2.3167254641
 30
0.0
 11
0.9278740157
 21
2.3167254641
 31
0.0
  0
LINE
  5
27C
330
1FE
100
AcDbEntity
  8
0
  6
Continuous
 62
     7
370
    25
100
AcDbLine
 10
0.9278740157
 20
2.3167254641
 30
0.0
 11
0.9278740157
 21
1.9602824099
 31
0.0
  0
ARC
  5
27D
330
1FE
100
AcDbEntity
  8
0
  6
Continuous
 62
     7
370
    25
100
AcDbCircle
 10
0.7419223145
 20
1.8038582677
 30
0.0
 40
0.0295275590551183
100
AcDbArc
 50
270.0
 51
344.6736164844
  0
LINE
  5
27E
330
1FE
100
AcDbEntity
  8
0
  6
Continuous
 62
     7
370
    25
100
AcDbLine
 10
0.7419223145
 20
1.7743307087
 30
0.0
 11
0.7419223145
 21
1.7841732283
 31
0.0
  0
ARC
  5
27F
330
1FE
100
AcDbEntity
  8
0
  6
Continuous
 62
     7
370
    25
100
AcDbCircle
 10
0.7419223145
 20
1.8038582677
 30
0.0
 40
0.0196850393700789
100
AcDbArc
 50
270.0
 51
344.6736164844
  0
ARC
  5
280
330
1FE
100
AcDbEntity
  8
0
  6
Continuous
 62
     7
370
    25
100
AcDbCircle
 10
0.8983464567
 20
2.3167254641
 30
0.0
 40
0.0196850393700787
100
AcDbArc
 50
0.0
 51
74.6736164844
  0
LINE
  5
281
330
1FE
100
AcDbEntity
  8
0
  6
Continuous
 62
     7
370
    25
100
AcDbLine
 10
0.9035495508
 20
2.335710421
 30
0.0
 11
0.9061510979
 21
2.3452028994
 31
0.0
  0
ARC
  5
282
330
1FE
100
AcDbEntity
  8
0
  6
Continuous
 62
     7
370
    25
100
AcDbCircle
 10
0.8983464567
 20
2.3167254641
 30
0.0
 40
0.0295275590551182
100
AcDbArc
 50
0.0
 51
74.6736164844
  0
LINE
  5
283
330
1FE
100
AcDbEntity
  8
0
  6
Continuous
 62
     7
370
    25
100
AcDbLine
 10
0.7419223145
 20
1.7743307087
 30
0.0
 11
0.6030708661
 21
1.7743307087
 31
0.0
  0
LINE
  5
284
330
1FE
100
AcDbEntity
  8
0
  6
Continuous
 62
     7
370
    25
100
AcDbLine
 10
0.6030708661
 20
1.7743307087
 30
0.0
 11
0.6030708661
 21
1.7841732283
 31
0.0
  0
LINE
  5
285
330
1FE
100
AcDbEntity
  8
0
  6
Continuous
 62
     7
370
    25
100
AcDbLine
 10
0.6030708661
 20
1.7841732283
 30
0.0
 11
0.7419223145
 21
1.7841732283
 31
0.0
  0
ARC
  5
286
330
1FE
100
AcDbEntity
  8
0
  6
Continuous
 62
     7
370
    25
100
AcDbCircle
 10
0.9574015748
 20
2.5322047244
 30
0.0
 40
0.2037401574803152
100
AcDbArc
 50
195.3263835156
 51
254.6736164844
  0
LINE
  5
287
330
1FE
100
AcDbEntity
  8
0
  6
Continuous
 62
     7
370
    25
100
AcDbLine
 10
0.7609072714
 20
2.4783527004
 30
0.0
 11
0.7703997498
 21
2.4809542475
 31
0.0
  0
ARC
  5
288
330
1FE
100
AcDbEntity
  8
0
  6
Continuous
 62
     7
370
    25
100
AcDbCircle
 10
0.9574015748
 20
2.5322047244
 30
0.0
 40
0.1938976377952754
100
AcDbArc
 50
195.3263835156
 51
254.6736164844
  0
ARC
  5
289
330
1FE
100
AcDbEntity
  8
0
  6
Continuous
 62
     7
370
    25
100
AcDbCircle
 10
0.6030708661
 20
1.8038582677
 30
0.0
 40
0.0295275590551182
100
AcDbArc
 50
180.0
 51
270.0
  0
LINE
  5
28A
330
1FE
100
AcDbEntity
  8
0
  6
Continuous
 62
     7
370
    25
100
AcDbLine
 10
0.5735433071
 20
1.8038582677
 30
0.0
 11
0.5833858268
 21
1.8038582677
 31
0.0
  0
ARC
  5
28B
330
1FE
100
AcDbEntity
  8
0
  6
Continuous
 62
     7
370
    25
100
AcDbCircle
 10
0.6030708661
 20
1.8038582677
 30
0.0
 40
0.0196850393700788
100
AcDbArc
 50
180.0
 51
270.0
  0
ARC
  5
28C
330
1FE
100
AcDbEntity
  8
0
  6
Continuous
 62
     7
370
    25
100
AcDbCircle
 10
0.7419223145
 20
2.4731496063
 30
0.0
 40
0.0196850393700787
100
AcDbArc
 50
15.3263835156
 51
90.0
  0
LINE
  5
28D
330
1FE
100
AcDbEntity
  8
0
  6
Continuous
 62
     7
370
    25
100
AcDbLine
 10
0.7419223145
 20
2.4928346457
 30
0.0
 11
0.7419223145
 21
2.5026771654
 31
0.0
  0
ARC
  5
28E
330
1FE
100
AcDbEntity
  8
0
  6
Continuous
 62
     7
370
    25
100
AcDbCircle
 10
0.7419223145
 20
2.4731496063
 30
0.0
 40
0.0295275590551194
100
AcDbArc
 50
15.3263835156
 51
90.0
  0
LINE
  5
28F
330
1FE
100
AcDbEntity
  8
0
  6
Continuous
 62
     7
370
    25
100
AcDbLine
 10
0.5735433071
 20
1.8038582677
 30
0.0
 11
0.5735433071
 21
2.4731496063
 31
0.0
  0
LINE
  5
290
330
1FE
100
AcDbEntity
  8
0
  6
Continuous
 62
     7
370
    25
100
AcDbLine
 10
0.5735433071
 20
2.4731496063
 30
0.0
 11
0.5833858268
 21
2.4731496063
 31
0.0
  0
LINE
  5
291
330
1FE
100
AcDbEntity
  8
0
  6
Continuous
 62
     7
370
    25
100
AcDbLine
 10
0.5833858268
 20
2.4731496063
 30
0.0
 11
0.5833858268
 21
1.8038582677
 31
0.0
  0
LINE
  5
292
330
1FE
100
AcDbEntity
  8
0
  6
Continuous
 62
     7
370
    25
100
AcDbLine
 10
0.7419223145
 20
2.4928346457
 30
0.0
 11
0.6030708661
 21
2.4928346457
 31
0.0
  0
LINE
  5
293
330
1FE
100
AcDbEntity
  8
0
  6
Continuous
 62
     7
370
    25
100
AcDbLine
 10
0.6030708661
 20
2.4928346457
 30
0.0
 11
0.6030708661
 21
2.5026771654
 31
0.0
  0
LINE
  5
294
330
1FE
100
AcDbEntity
  8
0
  6
Continuous
 62
     7
370
    25
100
AcDbLine
 10
0.6030708661
 20
2.5026771654
 30
0.0
 11
0.7419223145
 21
2.5026771654
 31
0.0
  0
ARC
  5
295
330
1FE
100
AcDbEntity
  8
0
  6
Continuous
 62
     7
370
    25
100
AcDbCircle
 10
0.6030708661
 20
2.4731496063
 30
0.0
 40
0.0295275590551194
100
AcDbArc
 50
90.0
 51
180.0
  0
ARC
  5
296
330
1FE
100
AcDbEntity
  8
0
  6
Continuous
 62
     7
370
    25
100
AcDbCircle
 10
0.6030708661
 20
2.4731496063
 30
0.0
 40
0.0196850393700788
100
AcDbArc
 50
90.0
 51
180.0
  0
LINE
  5
297
330
1FE
100
AcDbEntity
  8
0
  6
Continuous
 62
     7
370
    25
100
AcDbLine
 10
1.3117322835
 20
1.7054330709
 30
0.0
 11
1.1728808351
 21
1.7054330709
 31
0.0
  0
LINE
  5
298
330
1FE
100
AcDbEntity
  8
0
  6
Continuous
 62
     7
370
    25
100
AcDbLine
 10
1.1728808351
 20
1.7054330709
 30
0.0
 11
1.1728808351
 21
1.7152755906
 31
0.0
  0
LINE
  5
299
330
1FE
100
AcDbEntity
  8
0
  6
Continuous
 62
     7
370
    25
100
AcDbLine
 10
1.1728808351
 20
1.7152755906
 30
0.0
 11
1.3117322835
 21
1.7152755906
 31
0.0
  0
LINE
  5
29A
330
1FE
100
AcDbEntity
  8
0
  6
Continuous
 62
     7
370
    25
100
AcDbLine
 10
1.3117322835
 20
1.7054330709
 30
0.0
 11
1.3117322835
 21
1.7152755906
 31
0.0
  0
LINE
  5
29B
330
1FE
100
AcDbEntity
  8
0
  6
Continuous
 62
     7
370
    25
100
AcDbLine
 10
0.5275922328
 20
3.1148818898
 30
0.0
 11
0.5275922328
 21
1.1621259843
 31
0.0
  0
LINE
  5
29C
330
1FE
100
AcDbEntity
  8
0
  6
Continuous
 62
     7
370
    25
100
AcDbLine
 10
1.3872109168
 20
1.1621259843
 30
0.0
 11
1.3872109168
 21
3.1148818898
 31
0.0
  0
CIRCLE
  5
29D
330
1FE
100
AcDbEntity
  8
0
  6
Continuous
 62
     7
370
    25
100
AcDbCircle
 10
0.9574015748
 20
1.7448031496
 30
0.0
 40
0.1250000000000004
  0
ARC
  5
29E
330
1FE
100
AcDbEntity
  8
0
  6
Continuous
 62
     7
370
    25
100
AcDbCircle
 10
0.6030708661
 20
2.5912598425
 30
0.0
 40
0.0295275590551194
100
AcDbArc
 50
180.0
 51
270.0
  0
LINE
  5
29F
330
1FE
100
AcDbEntity
  8
0
  6
Continuous
 62
     7
370
    25
100
AcDbLine
 10
0.7419223145
 20
2.5617322835
 30
0.0
 11
0.6030708661
 21
2.5617322835
 31
0.0
  0
ARC
  5
2A0
330
1FE
100
AcDbEntity
  8
0
  6
Continuous
 62
     7
370
    25
100
AcDbCircle
 10
0.7419223145
 20
2.5912598425
 30
0.0
 40
0.0295275590551194
100
AcDbArc
 50
270.0
 51
344.6736164844
  0
ARC
  5
2A1
330
1FE
100
AcDbEntity
  8
0
  6
Continuous
 62
     7
370
    25
100
AcDbCircle
 10
0.9574015748
 20
2.5322047244
 30
0.0
 40
0.1938976377952751
100
AcDbArc
 50
105.3263835156
 51
164.6736164844
  0
ARC
  5
2A2
330
1FE
100
AcDbEntity
  8
0
  6
Continuous
 62
     7
370
    25
100
AcDbCircle
 10
0.8983464567
 20
2.7476839847
 30
0.0
 40
0.0295275590551182
100
AcDbArc
 50
285.3263835156
 51
0.0
  0
LINE
  5
2A3
330
1FE
100
AcDbEntity
  8
0
  6
Continuous
 62
     7
370
    25
100
AcDbLine
 10
0.9278740157
 20
3.0243307087
 30
0.0
 11
0.9278740157
 21
2.7476839847
 31
0.0
  0
ARC
  5
2A4
330
1FE
100
AcDbEntity
  8
0
  6
Continuous
 62
     7
370
    25
100
AcDbCircle
 10
0.8983464567
 20
3.0243307087
 30
0.0
 40
0.0295275590551189
100
AcDbArc
 50
0.0
 51
90.0
  0
ARC
  5
2A5
330
1FE
100
AcDbEntity
  8
0
  6
Continuous
 62
     7
370
    25
100
AcDbCircle
 10
0.9574015748
 20
2.5322047244
 30
0.0
 40
0.1938976377952752
100
AcDbArc
 50
15.3263835156
 51
74.6736164844
  0
ARC
  5
2A6
330
1FE
100
AcDbEntity
  8
0
  6
Continuous
 62
     7
370
    25
100
AcDbCircle
 10
1.1728808351
 20
2.5912598425
 30
0.0
 40
0.0295275590551194
100
AcDbArc
 50
195.3263835156
 51
270.0
  0
LINE
  5
2A7
330
1FE
100
AcDbEntity
  8
0
  6
Continuous
 62
     7
370
    25
100
AcDbLine
 10
1.3117322835
 20
2.5617322835
 30
0.0
 11
1.1728808351
 21
2.5617322835
 31
0.0
  0
ARC
  5
2A8
330
1FE
100
AcDbEntity
  8
0
  6
Continuous
 62
     7
370
    25
100
AcDbCircle
 10
1.3117322835
 20
2.5912598425
 30
0.0
 40
0.0295275590551194
100
AcDbArc
 50
270.0
 51
0.0
  0
LINE
  5
2A9
330
1FE
100
AcDbEntity
  8
0
  6
Continuous
 62
     7
370
    25
100
AcDbLine
 10
0.9869291339
 20
1.9602824099
 30
0.0
 11
0.9869291339
 21
2.3243690197
 31
0.0
  0
ARC
  5
2AA
330
1FE
100
AcDbEntity
  8
0
  6
Continuous
 62
     7
370
    25
100
AcDbCircle
 10
1.0164566929
 20
1.9602824099
 30
0.0
 40
0.0295275590551183
100
AcDbArc
 50
180.0
 51
254.6736164844
  0
ARC
  5
2AB
330
1FE
100
AcDbEntity
  8
0
  6
Continuous
 62
     7
370
    25
100
AcDbCircle
 10
0.9574015748
 20
1.7448031496
 30
0.0
 40
0.1938976377952756
100
AcDbArc
 50
15.3263835156
 51
74.6736164844
  0
ARC
  5
2AC
330
1FE
100
AcDbEntity
  8
0
  6
Continuous
 62
     7
370
    25
100
AcDbCircle
 10
1.1728808351
 20
1.8038582677
 30
0.0
 40
0.0295275590551183
100
AcDbArc
 50
195.3263835156
 51
270.0
  0
LINE
  5
2AD
330
1FE
100
AcDbEntity
  8
0
  6
Continuous
 62
     7
370
    25
100
AcDbLine
 10
1.3117322835
 20
1.7743307087
 30
0.0
 11
1.1728808351
 21
1.7743307087
 31
0.0
  0
ARC
  5
2AE
330
1FE
100
AcDbEntity
  8
0
  6
Continuous
 62
     7
370
    25
100
AcDbCircle
 10
1.3117322835
 20
1.8038582677
 30
0.0
 40
0.0295275590551181
100
AcDbArc
 50
270.0
 51
0.0
  0
LINE
  5
2AF
330
1FE
100
AcDbEntity
  8
0
  6
Continuous
 62
     7
370
    25
100
AcDbLine
 10
1.3412598425
 20
2.4731496063
 30
0.0
 11
1.3412598425
 21
1.8038582677
 31
0.0
  0
ARC
  5
2B0
330
1FE
100
AcDbEntity
  8
0
  6
Continuous
 62
     7
370
    25
100
AcDbCircle
 10
1.3117322835
 20
2.4731496063
 30
0.0
 40
0.0295275590551194
100
AcDbArc
 50
0.0
 51
90.0
  0
LINE
  5
2B1
330
1FE
100
AcDbEntity
  8
0
  6
Continuous
 62
     7
370
    25
100
AcDbLine
 10
1.1490377332
 20
2.5026771654
 30
0.0
 11
1.3117322835
 21
2.5026771654
 31
0.0
  0
ARC
  5
2B2
330
1FE
100
AcDbEntity
  8
0
  6
Continuous
 62
     7
370
    25
100
AcDbCircle
 10
0.9574015748
 20
2.5322047244
 30
0.0
 40
0.1938976377952756
100
AcDbArc
 50
283.3214908316
 51
351.2406737235
  0
ARC
  5
2B3
330
1FE
100
AcDbEntity
  8
0
  6
Continuous
 62
     7
370
    25
100
AcDbCircle
 10
1.0066141732
 20
2.3243690197
 30
0.0
 40
0.0196850393700797
100
AcDbArc
 50
103.3214908316
 51
180.0
  0
ARC
  5
2B4
330
1FE
100
AcDbEntity
  8
0
  6
Continuous
 62
     7
370
    25
100
AcDbCircle
 10
1.0164566929
 20
1.2526771654
 30
0.0
 40
0.0295275590551183
100
AcDbArc
 50
180.0
 51
270.0
  0
LINE
  5
2B5
330
1FE
100
AcDbEntity
  8
0
  6
Continuous
 62
     7
370
    25
100
AcDbLine
 10
1.3117322835
 20
1.2231496063
 30
0.0
 11
1.0164566929
 21
1.2231496063
 31
0.0
  0
ARC
  5
2B6
330
1FE
100
AcDbEntity
  8
0
  6
Continuous
 62
     7
370
    25
100
AcDbCircle
 10
1.3117322835
 20
1.2526771654
 30
0.0
 40
0.0295275590551183
100
AcDbArc
 50
270.0
 51
0.0
  0
LINE
  5
2B7
330
1FE
100
AcDbEntity
  8
0
  6
Continuous
 62
     7
370
    25
100
AcDbLine
 10
1.3412598425
 20
1.6857480315
 30
0.0
 11
1.3412598425
 21
1.2526771654
 31
0.0
  0
ARC
  5
2B8
330
1FE
100
AcDbEntity
  8
0
  6
Continuous
 62
     7
370
    25
100
AcDbCircle
 10
1.3117322835
 20
1.6857480315
 30
0.0
 40
0.0295275590551181
100
AcDbArc
 50
0.0
 51
90.0
  0
ARC
  5
2B9
330
1FE
100
AcDbEntity
  8
0
  6
Continuous
 62
     7
370
    25
100
AcDbCircle
 10
1.1728808351
 20
1.6857480315
 30
0.0
 40
0.0295275590551183
100
AcDbArc
 50
90.0
 51
164.6736164844
  0
ARC
  5
2BA
330
1FE
100
AcDbEntity
  8
0
  6
Continuous
 62
     7
370
    25
100
AcDbCircle
 10
0.9574015748
 20
1.7448031496
 30
0.0
 40
0.1938976377952762
100
AcDbArc
 50
285.3263835156
 51
344.6736164844
  0
ARC
  5
2BB
330
1FE
100
AcDbEntity
  8
0
  6
Continuous
 62
     7
370
    25
100
AcDbCircle
 10
1.0164566929
 20
1.5293238893
 30
0.0
 40
0.0295275590551182
100
AcDbArc
 50
105.3263835156
 51
180.0
  0
LINE
  5
2BC
330
1FE
100
AcDbEntity
  8
0
  6
Continuous
 62
     7
370
    25
100
AcDbLine
 10
0.9869291339
 20
1.2526771654
 30
0.0
 11
0.9869291339
 21
1.5293238893
 31
0.0
  0
CIRCLE
  5
2BD
330
1FE
100
AcDbEntity
  8
0
  6
Continuous
 62
     7
370
    25
100
AcDbCircle
 10
0.9574015748
 20
2.5322047244
 30
0.0
 40
0.1249999999999996
  0
ARC
  5
2BE
330
1FE
100
AcDbEntity
  8
0
  6
Continuous
 62
     7
370
    25
100
AcDbCircle
 10
1.1728808351
 20
1.6857480315
 30
0.0
 40
0.0196850393700789
100
AcDbArc
 50
90.0
 51
164.6736164844
  0
LINE
  5
2BF
330
1FE
100
AcDbEntity
  8
0
  6
Continuous
 62
     7
370
    25
100
AcDbLine
 10
1.1538958782
 20
1.6909511256
 30
0.0
 11
1.1444033998
 21
1.6935526727
 31
0.0
  0
LINE
  5
2C0
330
1FE
100
AcDbEntity
  8
0
  6
Continuous
 62
     7
370
    25
100
AcDbLine
 10
0.9869291339
 20
1.5293238893
 30
0.0
 11
0.9967716535
 21
1.5293238893
 31
0.0
  0
LINE
  5
2C1
330
1FE
100
AcDbEntity
  8
0
  6
Continuous
 62
     7
370
    25
100
AcDbLine
 10
0.9967716535
 20
1.5293238893
 30
0.0
 11
0.9967716535
 21
1.2526771654
 31
0.0
  0
LINE
  5
2C2
330
1FE
100
AcDbEntity
  8
0
  6
Continuous
 62
     7
370
    25
100
AcDbLine
 10
0.9869291339
 20
1.2526771654
 30
0.0
 11
0.9967716535
 21
1.2526771654
 31
0.0
  0
ARC
  5
2C3
330
1FE
100
AcDbEntity
  8
0
  6
Continuous
 62
     7
370
    25
100
AcDbCircle
 10
0.9574015748
 20
1.7448031496
 30
0.0
 40
0.2037401574803153
100
AcDbArc
 50
285.3263835156
 51
344.6736164844
  0
LINE
  5
2C4
330
1FE
100
AcDbEntity
  8
0
  6
Continuous
 62
     7
370
    25
100
AcDbLine
 10
1.0112535988
 20
1.5483088462
 30
0.0
 11
1.0086520518
 21
1.5578013246
 31
0.0
  0
ARC
  5
2C5
330
1FE
100
AcDbEntity
  8
0
  6
Continuous
 62
     7
370
    25
100
AcDbCircle
 10
1.0164566929
 20
1.5293238893
 30
0.0
 40
0.0196850393700788
100
AcDbArc
 50
105.3263835156
 51
180.0
  0
LINE
  5
2C6
330
1FE
100
AcDbEntity
  8
0
  6
Continuous
 62
     7
370
    25
100
AcDbLine
 10
1.1728808351
 20
2.5617322835
 30
0.0
 11
1.1728808351
 21
2.5715748031
 31
0.0
  0
LINE
  5
2C7
330
1FE
100
AcDbEntity
  8
0
  6
Continuous
 62
     7
370
    25
100
AcDbLine
 10
1.1728808351
 20
2.5715748031
 30
0.0
 11
1.3117322835
 21
2.5715748031
 31
0.0
  0
LINE
  5
2C8
330
1FE
100
AcDbEntity
  8
0
  6
Continuous
 62
     7
370
    25
100
AcDbLine
 10
1.3117322835
 20
2.5715748031
 30
0.0
 11
1.3117322835
 21
2.5617322835
 31
0.0
  0
LINE
  5
2C9
330
1FE
100
AcDbEntity
  8
0
  6
Continuous
 62
     7
370
    25
100
AcDbLine
 10
1.1444033998
 20
2.5834552014
 30
0.0
 11
1.1538958782
 21
2.5860567484
 31
0.0
  0
ARC
  5
2CA
330
1FE
100
AcDbEntity
  8
0
  6
Continuous
 62
     7
370
    25
100
AcDbCircle
 10
1.1728808351
 20
2.5912598425
 30
0.0
 40
0.0196850393700787
100
AcDbArc
 50
195.3263835156
 51
270.0
  0
ARC
  5
2CB
330
1FE
100
AcDbEntity
  8
0
  6
Continuous
 62
     7
370
    25
100
AcDbCircle
 10
1.3117322835
 20
2.5912598425
 30
0.0
 40
0.0196850393700787
100
AcDbArc
 50
270.0
 51
0.0
  0
ARC
  5
2CC
330
1FE
100
AcDbEntity
  8
0
  6
Continuous
 62
     7
370
    25
100
AcDbCircle
 10
0.9574015748
 20
2.5322047244
 30
0.0
 40
0.2037401574803152
100
AcDbArc
 50
15.3263835156
 51
74.6736164844
  0
LINE
  5
2CD
330
1FE
100
AcDbEntity
  8
0
  6
Continuous
 62
     7
370
    25
100
AcDbLine
 10
1.0086520518
 20
1.9318049746
 30
0.0
 11
1.0112535988
 21
1.941297453
 31
0.0
  0
ARC
  5
2CE
330
1FE
100
AcDbEntity
  8
0
  6
Continuous
 62
     7
370
    25
100
AcDbCircle
 10
0.9574015748
 20
1.7448031496
 30
0.0
 40
0.2037401574803155
100
AcDbArc
 50
15.3263835156
 51
74.6736164844
  0
LINE
  5
2CF
330
1FE
100
AcDbEntity
  8
0
  6
Continuous
 62
     7
370
    25
100
AcDbLine
 10
1.1444033998
 20
1.7960536266
 30
0.0
 11
1.1538958782
 21
1.7986551736
 31
0.0
  0
LINE
  5
2D0
330
1FE
100
AcDbEntity
  8
0
  6
Continuous
 62
     7
370
    25
100
AcDbLine
 10
1.3314173228
 20
1.8038582677
 30
0.0
 11
1.3314173228
 21
2.4731496063
 31
0.0
  0
LINE
  5
2D1
330
1FE
100
AcDbEntity
  8
0
  6
Continuous
 62
     7
370
    25
100
AcDbLine
 10
1.3314173228
 20
2.4731496063
 30
0.0
 11
1.3412598425
 21
2.4731496063
 31
0.0
  0
LINE
  5
2D2
330
1FE
100
AcDbEntity
  8
0
  6
Continuous
 62
     7
370
    25
100
AcDbLine
 10
1.3314173228
 20
1.8038582677
 30
0.0
 11
1.3412598425
 21
1.8038582677
 31
0.0
  0
ARC
  5
2D3
330
1FE
100
AcDbEntity
  8
0
  6
Continuous
 62
     7
370
    25
100
AcDbCircle
 10
0.8983464567
 20
2.7476839847
 30
0.0
 40
0.0196850393700787
100
AcDbArc
 50
285.3263835156
 51
0.0
  0
LINE
  5
2D4
330
1FE
100
AcDbEntity
  8
0
  6
Continuous
 62
     7
370
    25
100
AcDbLine
 10
0.9180314961
 20
2.7476839847
 30
0.0
 11
0.9278740157
 21
2.7476839847
 31
0.0
  0
LINE
  5
2D5
330
1FE
100
AcDbEntity
  8
0
  6
Continuous
 62
     7
370
    25
100
AcDbLine
 10
0.9035495508
 20
2.7286990278
 30
0.0
 11
0.9061510979
 21
2.7192065494
 31
0.0
  0
LINE
  5
2D6
330
1FE
100
AcDbEntity
  8
0
  6
Continuous
 62
     7
370
    25
100
AcDbLine
 10
0.9869291339
 20
1.9602824099
 30
0.0
 11
0.9967716535
 21
1.9602824099
 31
0.0
  0
ARC
  5
2D7
330
1FE
100
AcDbEntity
  8
0
  6
Continuous
 62
     7
370
    25
100
AcDbCircle
 10
1.0164566929
 20
1.9602824099
 30
0.0
 40
0.0196850393700788
100
AcDbArc
 50
180.0
 51
254.6736164844
  0
ARC
  5
2D8
330
1FE
100
AcDbEntity
  8
0
  6
Continuous
 62
     7
370
    25
100
AcDbCircle
 10
1.3117322835
 20
2.4731496063
 30
0.0
 40
0.0196850393700787
100
AcDbArc
 50
0.0
 51
90.0
  0
LINE
  5
2D9
330
1FE
100
AcDbEntity
  8
0
  6
Continuous
 62
     7
370
    25
100
AcDbLine
 10
1.3117322835
 20
2.4928346457
 30
0.0
 11
1.3117322835
 21
2.5026771654
 31
0.0
  0
ARC
  5
2DA
330
1FE
100
AcDbEntity
  8
0
  6
Continuous
 62
     7
370
    25
100
AcDbCircle
 10
0.6030708661
 20
2.5912598425
 30
0.0
 40
0.0196850393700788
100
AcDbArc
 50
180.0
 51
270.0
  0
LINE
  5
2DB
330
1FE
100
AcDbEntity
  8
0
  6
Continuous
 62
     7
370
    25
100
AcDbLine
 10
0.6030708661
 20
2.5617322835
 30
0.0
 11
0.6030708661
 21
2.5715748031
 31
0.0
  0
LINE
  5
2DC
330
1FE
100
AcDbEntity
  8
0
  6
Continuous
 62
     7
370
    25
100
AcDbLine
 10
1.3927786868
 20
3.1148818898
 30
0.0
 11
1.3927786868
 21
1.1621259843
 31
0.0
  0
LINE
  5
2DD
330
1FE
100
AcDbEntity
  8
0
  6
Continuous
 62
     7
370
    25
100
AcDbLine
 10
1.0020784499
 20
2.3435243842
 30
0.0
 11
1.0043463115
 21
2.333946702
 31
0.0
  0
ARC
  5
2DE
330
1FE
100
AcDbEntity
  8
0
  6
Continuous
 62
     7
370
    25
100
AcDbCircle
 10
1.0066141732
 20
2.3243690197
 30
0.0
 40
0.0098425196850396
100
AcDbArc
 50
103.3214908316
 51
180.0
  0
LINE
  5
2DF
330
1FE
100
AcDbEntity
  8
0
  6
Continuous
 62
     7
370
    25
100
AcDbLine
 10
0.9869291339
 20
2.3243690197
 30
0.0
 11
0.9967716535
 21
2.3243690197
 31
0.0
  0
LINE
  5
2E0
330
1FE
100
AcDbEntity
  8
0
  6
Continuous
 62
     7
370
    25
100
AcDbLine
 10
0.6030708661
 20
2.5715748031
 30
0.0
 11
0.7419223145
 21
2.5715748031
 31
0.0
  0
LINE
  5
2E1
330
1FE
100
AcDbEntity
  8
0
  6
Continuous
 62
     7
370
    25
100
AcDbLine
 10
0.7419223145
 20
2.5617322835
 30
0.0
 11
0.7419223145
 21
2.5715748031
 31
0.0
  0
LINE
  5
2E2
330
1FE
100
AcDbEntity
  8
0
  6
Continuous
 62
     7
370
    25
100
AcDbLine
 10
0.5220244628
 20
1.1621259843
 30
0.0
 11
0.5220244628
 21
3.1148818898
 31
0.0
  0
ARC
  5
2E3
330
1FE
100
AcDbEntity
  8
0
  6
Continuous
 62
     7
370
    25
100
AcDbCircle
 10
1.3117322835
 20
1.8038582677
 30
0.0
 40
0.0196850393700787
100
AcDbArc
 50
270.0
 51
0.0
  0
LINE
  5
2E4
330
1FE
100
AcDbEntity
  8
0
  6
Continuous
 62
     7
370
    25
100
AcDbLine
 10
1.3117322835
 20
1.7841732283
 30
0.0
 11
1.3117322835
 21
1.7743307087
 31
0.0
  0
ARC
  5
2E5
330
1FE
100
AcDbEntity
  8
0
  6
Continuous
 62
     7
370
    25
100
AcDbCircle
 10
0.8983464567
 20
3.0243307087
 30
0.0
 40
0.0196850393700787
100
AcDbArc
 50
0.0
 51
90.0
  0
LINE
  5
2E6
330
1FE
100
AcDbEntity
  8
0
  6
Continuous
 62
     7
370
    25
100
AcDbLine
 10
0.9180314961
 20
3.0243307087
 30
0.0
 11
0.9278740157
 21
3.0243307087
 31
0.0
  0
LINE
  5
2E7
330
1FE
100
AcDbEntity
  8
0
  6
Continuous
 62
     7
370
    25
100
AcDbLine
 10
1.0164566929
 20
1.2231496063
 30
0.0
 11
1.0164566929
 21
1.232992126
 31
0.0
  0
LINE
  5
2E8
330
1FE
100
AcDbEntity
  8
0
  6
Continuous
 62
     7
370
    25
100
AcDbLine
 10
1.0164566929
 20
1.232992126
 30
0.0
 11
1.3117322835
 21
1.232992126
 31
0.0
  0
LINE
  5
2E9
330
1FE
100
AcDbEntity
  8
0
  6
Continuous
 62
     7
370
    25
100
AcDbLine
 10
1.3117322835
 20
1.2231496063
 30
0.0
 11
1.3117322835
 21
1.232992126
 31
0.0
  0
ARC
  5
2EA
330
1FE
100
AcDbEntity
  8
0
  6
Continuous
 62
     7
370
    25
100
AcDbCircle
 10
0.7419223145
 20
2.5912598425
 30
0.0
 40
0.0196850393700787
100
AcDbArc
 50
270.0
 51
344.6736164844
  0
LINE
  5
2EB
330
1FE
100
AcDbEntity
  8
0
  6
Continuous
 62
     7
370
    25
100
AcDbLine
 10
0.7703997498
 20
2.5834552014
 30
0.0
 11
0.7609072714
 21
2.5860567484
 31
0.0
  0
ARC
  5
2EC
330
1FE
100
AcDbEntity
  8
0
  6
Continuous
 62
     7
370
    25
100
AcDbCircle
 10
1.3117322835
 20
1.2526771654
 30
0.0
 40
0.0196850393700789
100
AcDbArc
 50
270.0
 51
0.0
  0
LINE
  5
2ED
330
1FE
100
AcDbEntity
  8
0
  6
Continuous
 62
     7
370
    25
100
AcDbLine
 10
1.3412598425
 20
1.2526771654
 30
0.0
 11
1.3314173228
 21
1.2526771654
 31
0.0
  0
LINE
  5
2EE
330
1FE
100
AcDbEntity
  8
0
  6
Continuous
 62
     7
370
    25
100
AcDbLine
 10
1.3117322835
 20
2.4928346457
 30
0.0
 11
1.1573016715
 21
2.4928346457
 31
0.0
  0
ARC
  5
2EF
330
1FE
100
AcDbEntity
  8
0
  6
Continuous
 62
     7
370
    25
100
AcDbCircle
 10
0.6792402588
 20
2.0998370976
 30
0.0
 40
0.6188616865850605
100
AcDbArc
 50
39.4224266274
 51
40.6122969292
  0
LINE
  5
2F0
330
1FE
100
AcDbEntity
  8
0
  6
Continuous
 62
     7
370
    25
100
AcDbLine
 10
1.1728808351
 20
1.7743307087
 30
0.0
 11
1.1728808351
 21
1.7841732283
 31
0.0
  0
LINE
  5
2F1
330
1FE
100
AcDbEntity
  8
0
  6
Continuous
 62
     7
370
    25
100
AcDbLine
 10
1.1728808351
 20
1.7841732283
 30
0.0
 11
1.3117322835
 21
1.7841732283
 31
0.0
  0
ARC
  5
2F2
330
1FE
100
AcDbEntity
  8
0
  6
Continuous
 62
     7
370
    25
100
AcDbCircle
 10
1.1728808351
 20
1.8038582677
 30
0.0
 40
0.0196850393700789
100
AcDbArc
 50
195.3263835156
 51
270.0
  0
ARC
  5
2F3
330
1FE
100
AcDbEntity
  8
0
  6
Continuous
 62
     7
370
    25
100
AcDbCircle
 10
1.3117322835
 20
1.6857480315
 30
0.0
 40
0.0196850393700787
100
AcDbArc
 50
0.0
 51
90.0
  0
LINE
  5
2F4
330
1FE
100
AcDbEntity
  8
0
  6
Continuous
 62
     7
370
    25
100
AcDbLine
 10
1.3314173228
 20
1.6857480315
 30
0.0
 11
1.3412598425
 21
1.6857480315
 31
0.0
  0
ARC
  5
2F5
330
1FE
100
AcDbEntity
  8
0
  6
Continuous
 62
     7
370
    25
100
AcDbCircle
 10
0.9574015748
 20
2.5322047244
 30
0.0
 40
0.2037401574803151
100
AcDbArc
 50
105.3263835156
 51
164.6736164844
  0
ARC
  5
2F6
330
1FE
100
AcDbEntity
  8
0
  6
Continuous
 62
     7
370
    25
100
AcDbCircle
 10
0.9574015748
 20
2.5322047244
 30
0.0
 40
0.2037401574803153
100
AcDbArc
 50
283.3214908316
 51
348.8582642353
  0
ARC
  5
2F7
330
1FE
100
AcDbEntity
  8
0
  6
Continuous
 62
     7
370
    25
100
AcDbCircle
 10
1.0164566929
 20
1.2526771654
 30
0.0
 40
0.0196850393700789
100
AcDbArc
 50
180.0
 51
270.0
  0
LINE
  5
2F8
330
1FE
100
AcDbEntity
  8
0
  6
Continuous
 62
     7
370
    25
100
AcDbLine
 10
0.9967716535
 20
2.3243690197
 30
0.0
 11
0.9967716535
 21
1.9602824099
 31
0.0
  0
LINE
  5
2F9
330
1FE
100
AcDbEntity
  8
0
  6
Continuous
 62
     7
370
    25
100
AcDbLine
 10
1.3314173228
 20
1.2526771654
 30
0.0
 11
1.3314173228
 21
1.6857480315
 31
0.0
  0
LINE
  5
2FA
330
1FE
100
AcDbEntity
  8
0
  6
Continuous
 62
     7
370
    25
100
AcDbLine
 10
0.9180314961
 20
2.7476839847
 30
0.0
 11
0.9180314961
 21
3.0243307087
 31
0.0
  0
ARC
  5
2FB
330
1FE
100
AcDbEntity
  8
0
  6
Continuous
 62
     7
370
    25
100
AcDbCircle
 10
0.5139116275
 20
3.1158661417
 30
0.0
 40
0.0070289649887235
100
AcDbArc
 50
101.421753659
 51
188.0494669755
  0
LINE
  5
2FC
330
1FE
100
AcDbEntity
  8
0
  6
Continuous
 62
     7
370
    25
100
AcDbLine
 10
0.512519685
 20
3.1227559055
 30
0.0
 11
0.5275922328
 21
3.1227559055
 31
0.0
  0
LINE
  5
2FD
330
1FE
100
AcDbEntity
  8
0
  6
Continuous
 62
     7
370
    25
100
AcDbLine
 10
0.5220244628
 20
3.1148818898
 30
0.0
 11
0.5069519151
 21
3.1148818898
 31
0.0
  0
ARC
  5
2FE
330
1FE
100
AcDbEntity
  8
0
  6
Continuous
 62
     7
370
    25
100
AcDbCircle
 10
1.4008915221
 20
3.1158661417
 30
0.0
 40
0.0070289649887225
100
AcDbArc
 50
351.9505330245
 51
78.578246341
  0
LINE
  5
2FF
330
1FE
100
AcDbEntity
  8
0
  6
Continuous
 62
     7
370
    25
100
AcDbLine
 10
1.4078512345
 20
3.1148818898
 30
0.0
 11
1.3927786868
 21
3.1148818898
 31
0.0
  0
LINE
  5
300
330
1FE
100
AcDbEntity
  8
0
  6
Continuous
 62
     7
370
    25
100
AcDbLine
 10
1.3872109168
 20
3.1227559055
 30
0.0
 11
1.4022834646
 21
3.1227559055
 31
0.0
  0
LINE
  5
301
330
1FE
100
AcDbEntity
  8
0
  6
Continuous
 62
     7
370
    25
100
AcDbLine
 10
1.4078512345
 20
1.1621259843
 30
0.0
 11
1.4078512345
 21
3.1148818898
 31
0.0
  0
LINE
  5
302
330
1FE
100
AcDbEntity
  8
0
  6
Continuous
 62
     7
370
    25
100
AcDbLine
 10
1.3927786868
 20
1.1621259843
 30
0.0
 11
1.4078512345
 21
1.1621259843
 31
0.0
  0
LINE
  5
303
330
1FE
100
AcDbEntity
  8
0
  6
Continuous
 62
     7
370
    25
100
AcDbLine
 10
0.5069519151
 20
1.1621259843
 30
0.0
 11
0.5220244628
 21
1.1621259843
 31
0.0
  0
LINE
  5
304
330
1FE
100
AcDbEntity
  8
0
  6
Continuous
 62
     7
370
    25
100
AcDbLine
 10
0.5069519151
 20
3.1148818898
 30
0.0
 11
0.5069519151
 21
1.1621259843
 31
0.0
  0
ARC
  5
305
330
1FE
100
AcDbEntity
  8
0
  6
Continuous
 62
     7
370
    25
100
AcDbCircle
 10
0.5139116275
 20
1.1611417323
 30
0.0
 40
0.0070289649887234
100
AcDbArc
 50
171.9505330245
 51
258.578246341
  0
LINE
  5
306
330
1FE
100
AcDbEntity
  8
0
  6
Continuous
 62
     7
370
    25
100
AcDbLine
 10
0.5275922328
 20
1.1542519685
 30
0.0
 11
0.512519685
 21
1.1542519685
 31
0.0
  0
ARC
  5
307
330
1FE
100
AcDbEntity
  8
0
  6
Continuous
 62
     7
370
    25
100
AcDbCircle
 10
1.4008915221
 20
1.1611417323
 30
0.0
 40
0.0070289649887231
100
AcDbArc
 50
281.421753659
 51
8.0494669755
  0
LINE
  5
308
330
1FE
100
AcDbEntity
  8
0
  6
Continuous
 62
     7
370
    25
100
AcDbLine
 10
1.4022834646
 20
1.1542519685
 30
0.0
 11
1.3872109168
 21
1.1542519685
 31
0.0
  0
LINE
  5
309
330
1FE
100
AcDbEntity
  8
0
  6
Continuous
 62
     7
370
    25
100
AcDbLine
 10
1.4101574803
 20
1.1621259843
 30
0.0
 11
1.4078512345
 21
1.1621259843
 31
0.0
  0
ARC
  5
30A
330
1FE
100
AcDbEntity
  8
0
  6
Continuous
 62
     7
370
    25
100
AcDbCircle
 10
1.4022834646
 20
1.1621259843
 30
0.0
 40
0.0078740157480317
100
AcDbArc
 50
270.0
 51
0.0
  0
LINE
  5
30B
330
1FE
100
AcDbEntity
  8
0
  6
Continuous
 62
     7
370
    25
100
AcDbLine
 10
0.5046456693
 20
1.1621259843
 30
0.0
 11
0.5069519151
 21
1.1621259843
 31
0.0
  0
ARC
  5
30C
330
1FE
100
AcDbEntity
  8
0
  6
Continuous
 62
     7
370
    25
100
AcDbCircle
 10
0.512519685
 20
1.1621259843
 30
0.0
 40
0.0078740157480317
100
AcDbArc
 50
180.0
 51
270.0
  0
ARC
  5
30D
330
1FE
100
AcDbEntity
  8
0
  6
Continuous
 62
     7
370
    25
100
AcDbCircle
 10
1.4022834646
 20
3.1148818898
 30
0.0
 40
0.0078740157480328
100
AcDbArc
 50
0.0
 51
90.0
  0
LINE
  5
30E
330
1FE
100
AcDbEntity
  8
0
  6
Continuous
 62
     7
370
    25
100
AcDbLine
 10
1.4078512345
 20
3.1148818898
 30
0.0
 11
1.4101574803
 21
3.1148818898
 31
0.0
  0
LINE
  5
30F
330
1FE
100
AcDbEntity
  8
0
  6
Continuous
 62
     7
370
    25
100
AcDbLine
 10
0.5046456693
 20
1.1621259843
 30
0.0
 11
0.5046456693
 21
3.1148818898
 31
0.0
  0
LINE
  5
310
330
1FE
100
AcDbEntity
  8
0
  6
Continuous
 62
     7
370
    25
100
AcDbLine
 10
0.5046456693
 20
3.1148818898
 30
0.0
 11
0.5069519151
 21
3.1148818898
 31
0.0
  0
ARC
  5
311
330
1FE
100
AcDbEntity
  8
0
  6
Continuous
 62
     7
370
    25
100
AcDbCircle
 10
0.512519685
 20
3.1148818898
 30
0.0
 40
0.0078740157480328
100
AcDbArc
 50
90.0
 51
180.0
  0
LINE
  5
312
330
1FE
100
AcDbEntity
  8
0
  6
Continuous
 62
     7
370
    25
100
AcDbLine
 10
1.4101574803
 20
3.1148818898
 30
0.0
 11
1.4101574803
 21
1.1621259843
 31
0.0
  0
LINE
  5
313
330
1FE
100
AcDbEntity
  8
0
  6
Continuous
 62
     7
370
    25
100
AcDbLine
 10
1.3117322835
 20
2.4731496063
 30
0.0
 11
1.1728808351
 21
2.4731496063
 31
0.0
  0
ARC
  5
314
330
1FE
100
AcDbEntity
  8
0
  6
Continuous
 62
     7
370
    25
100
AcDbCircle
 10
0.6266452759
 20
2.0568543981
 30
0.0
 40
0.6867859830819584
100
AcDbArc
 50
37.311628382
 51
39.4060707695
  0
LINE
  5
315
330
1FE
100
AcDbEntity
  8
0
  6
Continuous
 62
     7
370
    25
100
AcDbLine
 10
1.3117322835
 20
2.4731496063
 30
0.0
 11
1.3117322835
 21
2.4928346457
 31
0.0
  0
ARC
  5
316
330
1FE
100
AcDbEntity
  8
0
  6
Continuous
 62
     7
370
    25
100
AcDbCircle
 10
0.9574015748
 20
2.5322047244
 30
0.0
 40
0.223425196850394
100
AcDbArc
 50
285.3263835156
 51
344.6736164844
  0
ARC
  5
317
330
1FE
100
AcDbEntity
  8
0
  6
Continuous
 62
     7
370
    25
100
AcDbCircle
 10
1.4591066667
 20
2.6408761569
 30
0.0
 40
0.5486462165098599
100
AcDbArc
 50
214.016425659
 51
216.2151593318
  0
ARC
  5
318
330
1FE
100
AcDbEntity
  8
0
  6
Continuous
 62
     7
370
    25
100
AcDbCircle
 10
1.637161601
 20
3.9444447563
 30
0.0
 40
1.742051858356313
100
AcDbArc
 50
248.4319077649
 51
249.1264441223
  0
LINE
  5
319
330
1FE
100
AcDbEntity
  8
0
  6
Continuous
 62
     7
370
    25
100
AcDbLine
 10
1.0164566929
 20
1.9602824099
 30
0.0
 11
0.9967716535
 21
1.9602824099
 31
0.0
  0
LINE
  5
31A
330
1FE
100
AcDbEntity
  8
0
  6
Continuous
 62
     7
370
    25
100
AcDbLine
 10
1.0164566929
 20
2.3167254641
 30
0.0
 11
1.0164566929
 21
1.9602824099
 31
0.0
  0
LINE
  5
31B
330
1FE
100
AcDbEntity
  8
0
  6
Continuous
 62
     7
370
    25
100
AcDbLine
 10
1.3117322835
 20
1.2526771654
 30
0.0
 11
1.3117322835
 21
1.6857480315
 31
0.0
  0
LINE
  5
31C
330
1FE
100
AcDbEntity
  8
0
  6
Continuous
 62
     7
370
    25
100
AcDbLine
 10
1.3117322835
 20
1.6857480315
 30
0.0
 11
1.3314173228
 21
1.6857480315
 31
0.0
  0
LINE
  5
31D
330
1FE
100
AcDbEntity
  8
0
  6
Continuous
 62
     7
370
    25
100
AcDbLine
 10
1.3117322835
 20
1.2526771654
 30
0.0
 11
1.3314173228
 21
1.2526771654
 31
0.0
  0
LINE
  5
31E
330
1FE
100
AcDbEntity
  8
0
  6
Continuous
 62
     7
370
    25
100
AcDbLine
 10
1.3117322835
 20
1.7841732283
 30
0.0
 11
1.3117322835
 21
1.8038582677
 31
0.0
  0
LINE
  5
31F
330
1FE
100
AcDbEntity
  8
0
  6
Continuous
 62
     7
370
    25
100
AcDbLine
 10
1.3314173228
 20
1.8038582677
 30
0.0
 11
1.3117322835
 21
1.8038582677
 31
0.0
  0
LINE
  5
320
330
1FE
100
AcDbEntity
  8
0
  6
Continuous
 62
     7
370
    25
100
AcDbLine
 10
1.3117322835
 20
2.5912598425
 30
0.0
 11
1.3314173228
 21
2.5912598425
 31
0.0
  0
LINE
  5
321
330
1FE
100
AcDbEntity
  8
0
  6
Continuous
 62
     7
370
    25
100
AcDbLine
 10
1.3117322835
 20
2.5912598425
 30
0.0
 11
1.3117322835
 21
2.5715748031
 31
0.0
  0
LINE
  5
322
330
1FE
100
AcDbEntity
  8
0
  6
Continuous
 62
     7
370
    25
100
AcDbLine
 10
0.7419223145
 20
2.4731496063
 30
0.0
 11
0.7419223145
 21
2.4928346457
 31
0.0
  0
LINE
  5
323
330
1FE
100
AcDbEntity
  8
0
  6
Continuous
 62
     7
370
    25
100
AcDbLine
 10
0.7419223145
 20
2.4731496063
 30
0.0
 11
0.7609072714
 21
2.4783527004
 31
0.0
  0
LINE
  5
324
330
1FE
100
AcDbEntity
  8
0
  6
Continuous
 62
     7
370
    25
100
AcDbLine
 10
0.8983464567
 20
1.2526771654
 30
0.0
 11
0.8983464567
 21
1.5293238893
 31
0.0
  0
LINE
  5
325
330
1FE
100
AcDbEntity
  8
0
  6
Continuous
 62
     7
370
    25
100
AcDbLine
 10
0.8983464567
 20
1.5293238893
 30
0.0
 11
0.9180314961
 21
1.5293238893
 31
0.0
  0
LINE
  5
326
330
1FE
100
AcDbEntity
  8
0
  6
Continuous
 62
     7
370
    25
100
AcDbLine
 10
0.8983464567
 20
1.2526771654
 30
0.0
 11
0.9180314961
 21
1.2526771654
 31
0.0
  0
LINE
  5
327
330
1FE
100
AcDbEntity
  8
0
  6
Continuous
 62
     7
370
    25
100
AcDbLine
 10
1.3117322835
 20
1.6857480315
 30
0.0
 11
1.3117322835
 21
1.7054330709
 31
0.0
  0
LINE
  5
328
330
1FE
100
AcDbEntity
  8
0
  6
Continuous
 62
     7
370
    25
100
AcDbLine
 10
1.0164566929
 20
1.2526771654
 30
0.0
 11
1.0164566929
 21
1.232992126
 31
0.0
  0
LINE
  5
329
330
1FE
100
AcDbEntity
  8
0
  6
Continuous
 62
     7
370
    25
100
AcDbLine
 10
0.9967716535
 20
1.2526771654
 30
0.0
 11
1.0164566929
 21
1.2526771654
 31
0.0
  0
LINE
  5
32A
330
1FE
100
AcDbEntity
  8
0
  6
Continuous
 62
     7
370
    25
100
AcDbLine
 10
0.9967716535
 20
2.7476839847
 30
0.0
 11
1.0164566929
 21
2.7476839847
 31
0.0
  0
LINE
  5
32B
330
1FE
100
AcDbEntity
  8
0
  6
Continuous
 62
     7
370
    25
100
AcDbLine
 10
1.0112535988
 20
2.7286990278
 30
0.0
 11
1.0164566929
 21
2.7476839847
 31
0.0
  0
LINE
  5
32C
330
1FE
100
AcDbEntity
  8
0
  6
Continuous
 62
     7
370
    25
100
AcDbLine
 10
1.0164566929
 20
1.2526771654
 30
0.0
 11
1.3117322835
 21
1.2526771654
 31
0.0
  0
LINE
  5
32D
330
1FE
100
AcDbEntity
  8
0
  6
Continuous
 62
     7
370
    25
100
AcDbLine
 10
1.3117322835
 20
1.2526771654
 30
0.0
 11
1.3117322835
 21
1.232992126
 31
0.0
  0
LINE
  5
32E
330
1FE
100
AcDbEntity
  8
0
  6
Continuous
 62
     7
370
    25
100
AcDbLine
 10
0.5833858268
 20
1.2526771654
 30
0.0
 11
0.6030708661
 21
1.2526771654
 31
0.0
  0
LINE
  5
32F
330
1FE
100
AcDbEntity
  8
0
  6
Continuous
 62
     7
370
    25
100
AcDbLine
 10
0.6030708661
 20
1.232992126
 30
0.0
 11
0.6030708661
 21
1.2526771654
 31
0.0
  0
LINE
  5
330
330
1FE
100
AcDbEntity
  8
0
  6
Continuous
 62
     7
370
    25
100
AcDbLine
 10
1.1538958782
 20
1.6909511256
 30
0.0
 11
1.1728808351
 21
1.6857480315
 31
0.0
  0
ARC
  5
331
330
1FE
100
AcDbEntity
  8
0
  6
Continuous
 62
     7
370
    25
100
AcDbCircle
 10
0.9574015748
 20
1.7448031496
 30
0.0
 40
0.2234251968503939
100
AcDbArc
 50
285.3263835156
 51
344.6736164844
  0
LINE
  5
332
330
1FE
100
AcDbEntity
  8
0
  6
Continuous
 62
     7
370
    25
100
AcDbLine
 10
1.0112535988
 20
1.5483088462
 30
0.0
 11
1.0164566929
 21
1.5293238893
 31
0.0
  0
LINE
  5
333
330
1FE
100
AcDbEntity
  8
0
  6
Continuous
 62
     7
370
    25
100
AcDbLine
 10
1.3117322835
 20
3.0243307087
 30
0.0
 11
1.3117322835
 21
3.044015748
 31
0.0
  0
LINE
  5
334
330
1FE
100
AcDbEntity
  8
0
  6
Continuous
 62
     7
370
    25
100
AcDbLine
 10
1.3117322835
 20
3.0243307087
 30
0.0
 11
1.3314173228
 21
3.0243307087
 31
0.0
  0
LINE
  5
335
330
1FE
100
AcDbEntity
  8
0
  6
Continuous
 62
     7
370
    25
100
AcDbLine
 10
0.6030708661
 20
1.2526771654
 30
0.0
 11
0.8983464567
 21
1.2526771654
 31
0.0
  0
LINE
  5
336
330
1FE
100
AcDbEntity
  8
0
  6
Continuous
 62
     7
370
    25
100
AcDbLine
 10
0.8983464567
 20
1.232992126
 30
0.0
 11
0.8983464567
 21
1.2526771654
 31
0.0
  0
LINE
  5
337
330
1FE
100
AcDbEntity
  8
0
  6
Continuous
 62
     7
370
    25
100
AcDbLine
 10
0.8983464567
 20
2.7476839847
 30
0.0
 11
0.8983464567
 21
3.0243307087
 31
0.0
  0
LINE
  5
338
330
1FE
100
AcDbEntity
  8
0
  6
Continuous
 62
     7
370
    25
100
AcDbLine
 10
0.8983464567
 20
3.0243307087
 30
0.0
 11
0.9180314961
 21
3.0243307087
 31
0.0
  0
LINE
  5
339
330
1FE
100
AcDbEntity
  8
0
  6
Continuous
 62
     7
370
    25
100
AcDbLine
 10
0.9180314961
 20
2.7476839847
 30
0.0
 11
0.8983464567
 21
2.7476839847
 31
0.0
  0
LINE
  5
33A
330
1FE
100
AcDbEntity
  8
0
  6
Continuous
 62
     7
370
    25
100
AcDbLine
 10
0.8983464567
 20
1.5293238893
 30
0.0
 11
0.9035495508
 21
1.5483088462
 31
0.0
  0
LINE
  5
33B
330
1FE
100
AcDbEntity
  8
0
  6
Continuous
 62
     7
370
    25
100
AcDbLine
 10
1.3117322835
 20
1.8038582677
 30
0.0
 11
1.3117322835
 21
2.4731496063
 31
0.0
  0
LINE
  5
33C
330
1FE
100
AcDbEntity
  8
0
  6
Continuous
 62
     7
370
    25
100
AcDbLine
 10
1.3117322835
 20
2.4731496063
 30
0.0
 11
1.3314173228
 21
2.4731496063
 31
0.0
  0
LINE
  5
33D
330
1FE
100
AcDbEntity
  8
0
  6
Continuous
 62
     7
370
    25
100
AcDbLine
 10
1.3117322835
 20
3.0243307087
 30
0.0
 11
1.0164566929
 21
3.0243307087
 31
0.0
  0
LINE
  5
33E
330
1FE
100
AcDbEntity
  8
0
  6
Continuous
 62
     7
370
    25
100
AcDbLine
 10
1.0164566929
 20
3.044015748
 30
0.0
 11
1.0164566929
 21
3.0243307087
 31
0.0
  0
ARC
  5
33F
330
1FE
100
AcDbEntity
  8
0
  6
Continuous
 62
     7
370
    25
100
AcDbCircle
 10
0.9574015748
 20
1.7448031496
 30
0.0
 40
0.2234251968503937
100
AcDbArc
 50
195.3263835156
 51
254.6736164844
  0
LINE
  5
340
330
1FE
100
AcDbEntity
  8
0
  6
Continuous
 62
     7
370
    25
100
AcDbLine
 10
0.7419223145
 20
1.6857480315
 30
0.0
 11
0.7609072714
 21
1.6909511256
 31
0.0
  0
LINE
  5
341
330
1FE
100
AcDbEntity
  8
0
  6
Continuous
 62
     7
370
    25
100
AcDbLine
 10
0.5833858268
 20
1.6857480315
 30
0.0
 11
0.6030708661
 21
1.6857480315
 31
0.0
  0
LINE
  5
342
330
1FE
100
AcDbEntity
  8
0
  6
Continuous
 62
     7
370
    25
100
AcDbLine
 10
0.6030708661
 20
1.6857480315
 30
0.0
 11
0.6030708661
 21
1.2526771654
 31
0.0
  0
LINE
  5
343
330
1FE
100
AcDbEntity
  8
0
  6
Continuous
 62
     7
370
    25
100
AcDbLine
 10
0.6030708661
 20
2.4731496063
 30
0.0
 11
0.5833858268
 21
2.4731496063
 31
0.0
  0
LINE
  5
344
330
1FE
100
AcDbEntity
  8
0
  6
Continuous
 62
     7
370
    25
100
AcDbLine
 10
0.6030708661
 20
2.4731496063
 30
0.0
 11
0.6030708661
 21
2.4928346457
 31
0.0
  0
LINE
  5
345
330
1FE
100
AcDbEntity
  8
0
  6
Continuous
 62
     7
370
    25
100
AcDbLine
 10
1.1728808351
 20
1.7841732283
 30
0.0
 11
1.1728808351
 21
1.8038582677
 31
0.0
  0
LINE
  5
346
330
1FE
100
AcDbEntity
  8
0
  6
Continuous
 62
     7
370
    25
100
AcDbLine
 10
1.1728808351
 20
1.8038582677
 30
0.0
 11
1.3117322835
 21
1.8038582677
 31
0.0
  0
ARC
  5
347
330
1FE
100
AcDbEntity
  8
0
  6
Continuous
 62
     7
370
    25
100
AcDbCircle
 10
0.9574015748
 20
2.5322047244
 30
0.0
 40
0.2234251968503939
100
AcDbArc
 50
15.3263835156
 51
74.6736164844
  0
LINE
  5
348
330
1FE
100
AcDbEntity
  8
0
  6
Continuous
 62
     7
370
    25
100
AcDbLine
 10
1.1538958782
 20
2.5860567484
 30
0.0
 11
1.1728808351
 21
2.5912598425
 31
0.0
  0
LINE
  5
349
330
1FE
100
AcDbEntity
  8
0
  6
Continuous
 62
     7
370
    25
100
AcDbLine
 10
1.1728808351
 20
1.7054330709
 30
0.0
 11
1.1728808351
 21
1.6857480315
 31
0.0
  0
ARC
  5
34A
330
1FE
100
AcDbEntity
  8
0
  6
Continuous
 62
     7
370
    25
100
AcDbCircle
 10
0.9574015748
 20
2.5322047244
 30
0.0
 40
0.2234251968503939
100
AcDbArc
 50
195.3263835156
 51
254.6736164844
  0
LINE
  5
34B
330
1FE
100
AcDbEntity
  8
0
  6
Continuous
 62
     7
370
    25
100
AcDbLine
 10
0.8983464567
 20
2.3167254641
 30
0.0
 11
0.9035495508
 21
2.335710421
 31
0.0
  0
LINE
  5
34C
330
1FE
100
AcDbEntity
  8
0
  6
Continuous
 62
     7
370
    25
100
AcDbLine
 10
1.1728808351
 20
2.5912598425
 30
0.0
 11
1.1728808351
 21
2.5715748031
 31
0.0
  0
LINE
  5
34D
330
1FE
100
AcDbEntity
  8
0
  6
Continuous
 62
     7
370
    25
100
AcDbLine
 10
0.9035495508
 20
1.941297453
 30
0.0
 11
0.8983464567
 21
1.9602824099
 31
0.0
  0
LINE
  5
34E
330
1FE
100
AcDbEntity
  8
0
  6
Continuous
 62
     7
370
    25
100
AcDbLine
 10
0.9180314961
 20
1.9602824099
 30
0.0
 11
0.8983464567
 21
1.9602824099
 31
0.0
  0
LINE
  5
34F
330
1FE
100
AcDbEntity
  8
0
  6
Continuous
 62
     7
370
    25
100
AcDbLine
 10
1.1728808351
 20
2.5912598425
 30
0.0
 11
1.3117322835
 21
2.5912598425
 31
0.0
  0
LINE
  5
350
330
1FE
100
AcDbEntity
  8
0
  6
Continuous
 62
     7
370
    25
100
AcDbLine
 10
0.8983464567
 20
3.0243307087
 30
0.0
 11
0.8983464567
 21
3.044015748
 31
0.0
  0
LINE
  5
351
330
1FE
100
AcDbEntity
  8
0
  6
Continuous
 62
     7
370
    25
100
AcDbLine
 10
0.9035495508
 20
2.7286990278
 30
0.0
 11
0.8983464567
 21
2.7476839847
 31
0.0
  0
LINE
  5
352
330
1FE
100
AcDbEntity
  8
0
  6
Continuous
 62
     7
370
    25
100
AcDbLine
 10
0.7609072714
 20
1.7986551736
 30
0.0
 11
0.7419223145
 21
1.8038582677
 31
0.0
  0
ARC
  5
353
330
1FE
100
AcDbEntity
  8
0
  6
Continuous
 62
     7
370
    25
100
AcDbCircle
 10
0.9574015748
 20
1.7448031496
 30
0.0
 40
0.2234251968503938
100
AcDbArc
 50
105.3263835156
 51
164.6736164844
  0
LINE
  5
354
330
1FE
100
AcDbEntity
  8
0
  6
Continuous
 62
     7
370
    25
100
AcDbLine
 10
0.8983464567
 20
3.0243307087
 30
0.0
 11
0.6030708661
 21
3.0243307087
 31
0.0
  0
LINE
  5
355
330
1FE
100
AcDbEntity
  8
0
  6
Continuous
 62
     7
370
    25
100
AcDbLine
 10
0.6030708661
 20
3.0243307087
 30
0.0
 11
0.6030708661
 21
3.044015748
 31
0.0
  0
LINE
  5
356
330
1FE
100
AcDbEntity
  8
0
  6
Continuous
 62
     7
370
    25
100
AcDbLine
 10
1.3117322835
 20
1.6857480315
 30
0.0
 11
1.1728808351
 21
1.6857480315
 31
0.0
  0
LINE
  5
357
330
1FE
100
AcDbEntity
  8
0
  6
Continuous
 62
     7
370
    25
100
AcDbLine
 10
1.3117322835
 20
2.5912598425
 30
0.0
 11
1.3117322835
 21
3.0243307087
 31
0.0
  0
LINE
  5
358
330
1FE
100
AcDbEntity
  8
0
  6
Continuous
 62
     7
370
    25
100
AcDbLine
 10
0.7419223145
 20
2.4731496063
 30
0.0
 11
0.6030708661
 21
2.4731496063
 31
0.0
  0
LINE
  5
359
330
1FE
100
AcDbEntity
  8
0
  6
Continuous
 62
     7
370
    25
100
AcDbLine
 10
0.6030708661
 20
1.8038582677
 30
0.0
 11
0.5833858268
 21
1.8038582677
 31
0.0
  0
LINE
  5
35A
330
1FE
100
AcDbEntity
  8
0
  6
Continuous
 62
     7
370
    25
100
AcDbLine
 10
0.6030708661
 20
1.7841732283
 30
0.0
 11
0.6030708661
 21
1.8038582677
 31
0.0
  0
LINE
  5
35B
330
1FE
100
AcDbEntity
  8
0
  6
Continuous
 62
     7
370
    25
100
AcDbLine
 10
1.1538958782
 20
1.7986551736
 30
0.0
 11
1.1728808351
 21
1.8038582677
 31
0.0
  0
LINE
  5
35C
330
1FE
100
AcDbEntity
  8
0
  6
Continuous
 62
     7
370
    25
100
AcDbLine
 10
0.9967716535
 20
3.0243307087
 30
0.0
 11
1.0164566929
 21
3.0243307087
 31
0.0
  0
LINE
  5
35D
330
1FE
100
AcDbEntity
  8
0
  6
Continuous
 62
     7
370
    25
100
AcDbLine
 10
0.6030708661
 20
2.5715748031
 30
0.0
 11
0.6030708661
 21
2.5912598425
 31
0.0
  0
LINE
  5
35E
330
1FE
100
AcDbEntity
  8
0
  6
Continuous
 62
     7
370
    25
100
AcDbLine
 10
0.6030708661
 20
2.5912598425
 30
0.0
 11
0.7419223145
 21
2.5912598425
 31
0.0
  0
LINE
  5
35F
330
1FE
100
AcDbEntity
  8
0
  6
Continuous
 62
     7
370
    25
100
AcDbLine
 10
0.7419223145
 20
2.5715748031
 30
0.0
 11
0.7419223145
 21
2.5912598425
 31
0.0
  0
LINE
  5
360
330
1FE
100
AcDbEntity
  8
0
  6
Continuous
 62
     7
370
    25
100
AcDbLine
 10
0.6030708661
 20
2.5912598425
 30
0.0
 11
0.5833858268
 21
2.5912598425
 31
0.0
  0
LINE
  5
361
330
1FE
100
AcDbEntity
  8
0
  6
Continuous
 62
     7
370
    25
100
AcDbLine
 10
1.0112535988
 20
1.941297453
 30
0.0
 11
1.0164566929
 21
1.9602824099
 31
0.0
  0
LINE
  5
362
330
1FE
100
AcDbEntity
  8
0
  6
Continuous
 62
     7
370
    25
100
AcDbLine
 10
0.7419223145
 20
1.6857480315
 30
0.0
 11
0.6030708661
 21
1.6857480315
 31
0.0
  0
LINE
  5
363
330
1FE
100
AcDbEntity
  8
0
  6
Continuous
 62
     7
370
    25
100
AcDbLine
 10
0.6030708661
 20
1.7054330709
 30
0.0
 11
0.6030708661
 21
1.6857480315
 31
0.0
  0
LINE
  5
364
330
1FE
100
AcDbEntity
  8
0
  6
Continuous
 62
     7
370
    25
100
AcDbLine
 10
0.7419223145
 20
1.6857480315
 30
0.0
 11
0.7419223145
 21
1.7054330709
 31
0.0
  0
LINE
  5
365
330
1FE
100
AcDbEntity
  8
0
  6
Continuous
 62
     7
370
    25
100
AcDbLine
 10
0.8983464567
 20
1.9602824099
 30
0.0
 11
0.8983464567
 21
2.3167254641
 31
0.0
  0
LINE
  5
366
330
1FE
100
AcDbEntity
  8
0
  6
Continuous
 62
     7
370
    25
100
AcDbLine
 10
0.9180314961
 20
2.3167254641
 30
0.0
 11
0.8983464567
 21
2.3167254641
 31
0.0
  0
LINE
  5
367
330
1FE
100
AcDbEntity
  8
0
  6
Continuous
 62
     7
370
    25
100
AcDbLine
 10
0.9967716535
 20
1.5293238893
 30
0.0
 11
1.0164566929
 21
1.5293238893
 31
0.0
  0
LINE
  5
368
330
1FE
100
AcDbEntity
  8
0
  6
Continuous
 62
     7
370
    25
100
AcDbLine
 10
0.7609072714
 20
2.5860567484
 30
0.0
 11
0.7419223145
 21
2.5912598425
 31
0.0
  0
ARC
  5
369
330
1FE
100
AcDbEntity
  8
0
  6
Continuous
 62
     7
370
    25
100
AcDbCircle
 10
0.9574015748
 20
2.5322047244
 30
0.0
 40
0.2234251968503937
100
AcDbArc
 50
105.3263835156
 51
164.6736164844
  0
LINE
  5
36A
330
1FE
100
AcDbEntity
  8
0
  6
Continuous
 62
     7
370
    25
100
AcDbLine
 10
1.0164566929
 20
3.0243307087
 30
0.0
 11
1.0164566929
 21
2.7476839847
 31
0.0
  0
LINE
  5
36B
330
1FE
100
AcDbEntity
  8
0
  6
Continuous
 62
     7
370
    25
100
AcDbLine
 10
0.6030708661
 20
3.0243307087
 30
0.0
 11
0.5833858268
 21
3.0243307087
 31
0.0
  0
LINE
  5
36C
330
1FE
100
AcDbEntity
  8
0
  6
Continuous
 62
     7
370
    25
100
AcDbLine
 10
0.6030708661
 20
3.0243307087
 30
0.0
 11
0.6030708661
 21
2.5912598425
 31
0.0
  0
LINE
  5
36D
330
1FE
100
AcDbEntity
  8
0
  6
Continuous
 62
     7
370
    25
100
AcDbLine
 10
0.6030708661
 20
1.8038582677
 30
0.0
 11
0.7419223145
 21
1.8038582677
 31
0.0
  0
LINE
  5
36E
330
1FE
100
AcDbEntity
  8
0
  6
Continuous
 62
     7
370
    25
100
AcDbLine
 10
0.7419223145
 20
1.7841732283
 30
0.0
 11
0.7419223145
 21
1.8038582677
 31
0.0
  0
ARC
  5
36F
330
1FE
100
AcDbEntity
  8
0
  6
Continuous
 62
     7
370
    25
100
AcDbCircle
 10
0.9574015748
 20
1.7448031496
 30
0.0
 40
0.2234251968503939
100
AcDbArc
 50
15.3263835156
 51
74.6736164844
  0
LINE
  5
370
330
1FE
100
AcDbEntity
  8
0
  6
Continuous
 62
     7
370
    25
100
AcDbLine
 10
0.6030708661
 20
2.4731496063
 30
0.0
 11
0.6030708661
 21
1.8038582677
 31
0.0
  0
LINE
  5
371
330
1FE
100
AcDbEntity
  8
0
  6
Continuous
 62
     7
370
    25
100
AcDbLine
 10
1.0164566929
 20
1.5293238893
 30
0.0
 11
1.0164566929
 21
1.2526771654
 31
0.0
  0
LINE
  5
372
330
1FE
100
AcDbEntity
  8
0
  6
Continuous
 62
     7
370
    25
100
AcDbLine
 10
1.4180314961
 20
1.1621259843
 30
0.0
 11
1.4101574803
 21
1.1621259843
 31
0.0
  0
LINE
  5
373
330
1FE
100
AcDbEntity
  8
0
  6
Continuous
 62
     7
370
    25
100
AcDbLine
 10
1.4180314961
 20
1.1542519685
 30
0.0
 11
1.4180314961
 21
1.1621259843
 31
0.0
  0
LINE
  5
374
330
1FE
100
AcDbEntity
  8
0
  6
Continuous
 62
     7
370
    25
100
AcDbLine
 10
1.4022834646
 20
1.1542519685
 30
0.0
 11
1.4180314961
 21
1.1542519685
 31
0.0
  0
LINE
  5
375
330
1FE
100
AcDbEntity
  8
0
  6
Continuous
 62
     7
370
    25
100
AcDbLine
 10
0.4967716535
 20
1.1621259843
 30
0.0
 11
0.4967716535
 21
1.1542519685
 31
0.0
  0
LINE
  5
376
330
1FE
100
AcDbEntity
  8
0
  6
Continuous
 62
     7
370
    25
100
AcDbLine
 10
0.4967716535
 20
1.1621259843
 30
0.0
 11
0.5046456693
 21
1.1621259843
 31
0.0
  0
LINE
  5
377
330
1FE
100
AcDbEntity
  8
0
  6
Continuous
 62
     7
370
    25
100
AcDbLine
 10
0.4967716535
 20
1.1542519685
 30
0.0
 11
0.512519685
 21
1.1542519685
 31
0.0
  0
LINE
  5
378
330
1FE
100
AcDbEntity
  8
0
  6
Continuous
 62
     7
370
    25
100
AcDbLine
 10
0.4967716535
 20
3.1148818898
 30
0.0
 11
0.5046456693
 21
3.1148818898
 31
0.0
  0
LINE
  5
379
330
1FE
100
AcDbEntity
  8
0
  6
Continuous
 62
     7
370
    25
100
AcDbLine
 10
0.4967716535
 20
3.1227559055
 30
0.0
 11
0.4967716535
 21
3.1148818898
 31
0.0
  0
LINE
  5
37A
330
1FE
100
AcDbEntity
  8
0
  6
Continuous
 62
     7
370
    25
100
AcDbLine
 10
0.512519685
 20
3.1227559055
 30
0.0
 11
0.4967716535
 21
3.1227559055
 31
0.0
  0
LINE
  5
37B
330
1FE
100
AcDbEntity
  8
0
  6
Continuous
 62
     7
370
    25
100
AcDbLine
 10
0.4967716535
 20
1.1621259843
 30
0.0
 11
0.4967716535
 21
3.1148818898
 31
0.0
  0
LINE
  5
37C
330
1FE
100
AcDbEntity
  8
0
  6
Continuous
 62
     7
370
    25
100
AcDbLine
 10
1.4101574803
 20
3.1148818898
 30
0.0
 11
1.4180314961
 21
3.1148818898
 31
0.0
  0
LINE
  5
37D
330
1FE
100
AcDbEntity
  8
0
  6
Continuous
 62
     7
370
    25
100
AcDbLine
 10
1.4180314961
 20
3.1148818898
 30
0.0
 11
1.4180314961
 21
3.1227559055
 31
0.0
  0
LINE
  5
37E
330
1FE
100
AcDbEntity
  8
0
  6
Continuous
 62
     7
370
    25
100
AcDbLine
 10
1.4180314961
 20
3.1227559055
 30
0.0
 11
1.4022834646
 21
3.1227559055
 31
0.0
  0
LINE
  5
37F
330
1FE
100
AcDbEntity
  8
0
  6
Continuous
 62
     7
370
    25
100
AcDbLine
 10
1.4180314961
 20
3.1148818898
 30
0.0
 11
1.4180314961
 21
1.1621259843
 31
0.0
  0
LINE
  5
380
330
1FE
100
AcDbEntity
  8
0
  6
Continuous
 62
     7
370
    25
100
AcDbLine
 10
0.4967716535
 20
1.1542519685
 30
0.0
 11
0.4652755906
 21
1.1542519685
 31
0.0
  0
LINE
  5
381
330
1FE
100
AcDbEntity
  8
0
  6
Continuous
 62
     7
370
    25
100
AcDbLine
 10
1.4180314961
 20
3.1227559055
 30
0.0
 11
1.4495275591
 21
3.1227559055
 31
0.0
  0
LINE
  5
382
330
1FE
100
AcDbEntity
  8
0
  6
Continuous
 62
     7
370
    25
100
AcDbLine
 10
1.4495275591
 20
1.1542519685
 30
0.0
 11
1.4180314961
 21
1.1542519685
 31
0.0
  0
LINE
  5
383
330
1FE
100
AcDbEntity
  8
0
  6
Continuous
 62
     7
370
    25
100
AcDbLine
 10
0.4652755906
 20
3.1227559055
 30
0.0
 11
0.4967716535
 21
3.1227559055
 31
0.0
  0
CIRCLE
  5
384
330
1FE
100
AcDbEntity
  8
0
  6
Continuous
 62
     7
370
    25
100
AcDbCircle
 10
0.9574015748
 20
1.7448031496
 30
0.0
 40
0.0728346456692914
  0
CIRCLE
  5
385
330
1FE
100
AcDbEntity
  8
0
  6
Continuous
 62
     7
370
    25
100
AcDbCircle
 10
0.9574015748
 20
1.7448031496
 30
0.0
 40
0.0649606299212599
  0
CIRCLE
  5
386
330
1FE
100
AcDbEntity
  8
0
  6
Continuous
 62
     7
370
    25
100
AcDbCircle
 10
0.9574015748
 20
2.5322047244
 30
0.0
 40
0.0728346456692914
  0
CIRCLE
  5
387
330
1FE
100
AcDbEntity
  8
0
  6
Continuous
 62
     7
370
    25
100
AcDbCircle
 10
0.9574015748
 20
2.5322047244
 30
0.0
 40
0.0649606299212601
  0
LINE
  5
388
330
1FE
100
AcDbEntity
  8
0
  6
Continuous
 62
     8
370
    25
100
AcDbLine
 10
0.4652755906
 20
1.1621259843
 30
0.0
 11
0.4967716535
 21
1.1621259843
 31
0.0
  0
LINE
  5
389
330
1FE
100
AcDbEntity
  8
0
  6
Continuous
 62
     8
370
    25
100
AcDbLine
 10
1.4495275591
 20
3.1148818898
 30
0.0
 11
1.4180314961
 21
3.1148818898
 31
0.0
  0
LINE
  5
38A
330
1FE
100
AcDbEntity
  8
0
  6
Continuous
 62
     8
370
    25
100
AcDbLine
 10
1.4180314961
 20
1.1621259843
 30
0.0
 11
1.4495275591
 21
1.1621259843
 31
0.0
  0
LINE
  5
38B
330
1FE
100
AcDbEntity
  8
0
  6
Continuous
 62
     8
370
    25
100
AcDbLine
 10
0.4967716535
 20
3.1148818898
 30
0.0
 11
0.4652755906
 21
3.1148818898
 31
0.0
  0
ENDBLK
  5
201
330
1FE
100
AcDbEntity
  8
0
100
AcDbBlockEnd
  0
BLOCK
  5
38E
330
38C
100
AcDbEntity
  8
0
100
AcDbBlockBegin
  2
*Paper_Space2
 70
     0
 10
0.0
 20
0.0
 30
0.0
  3
*Paper_Space2
  1

  0
LINE
  5
390
330
38C
100
AcDbEntity
  8
0
  6
Continuous
 62
     7
370
    25
100
AcDbLine
 10
0.17
 20
0.2093700787
 30
0.0
 11
0.17
 21
0.4849606299
 31
0.0
  0
ARC
  5
391
330
38C
100
AcDbEntity
  8
0
  6
Continuous
 62
     7
370
    25
100
AcDbCircle
 10
0.2093700787
 20
0.4849606299
 30
0.0
 40
0.0393700787401578
100
AcDbArc
 50
90.0
 51
180.0
  0
LINE
  5
392
330
38C
100
AcDbEntity
  8
0
  6
Continuous
 62
     7
370
    25
100
AcDbLine
 10
0.2093700787
 20
0.5243307087
 30
0.0
 11
0.4554330709
 21
0.5243307087
 31
0.0
  0
ARC
  5
393
330
38C
100
AcDbEntity
  8
0
  6
Continuous
 62
     7
370
    25
100
AcDbCircle
 10
0.4554330709
 20
0.514488189
 30
0.0
 40
0.0098425196850394
100
AcDbArc
 50
0.0
 51
90.0
  0
LINE
  5
394
330
38C
100
AcDbEntity
  8
0
  6
Continuous
 62
     7
370
    25
100
AcDbLine
 10
0.4652755906
 20
0.514488189
 30
0.0
 11
0.4652755906
 21
0.482992126
 31
0.0
  0
ARC
  5
395
330
38C
100
AcDbEntity
  8
0
  6
Continuous
 62
     7
370
    25
100
AcDbCircle
 10
0.4554330709
 20
0.482992126
 30
0.0
 40
0.0098425196850394
100
AcDbArc
 50
270.0
 51
0.0
  0
LINE
  5
396
330
38C
100
AcDbEntity
  8
0
  6
Continuous
 62
     7
370
    25
100
AcDbLine
 10
0.4554330709
 20
0.4731496063
 30
0.0
 11
0.2585826772
 21
0.4731496063
 31
0.0
  0
ARC
  5
397
330
38C
100
AcDbEntity
  8
0
  6
Continuous
 62
     7
370
    25
100
AcDbCircle
 10
0.2585826772
 20
0.4633070866
 30
0.0
 40
0.0098425196850394
100
AcDbArc
 50
90.0
 51
180.0
  0
LINE
  5
398
330
38C
100
AcDbEntity
  8
0
  6
Continuous
 62
     7
370
    25
100
AcDbLine
 10
0.2487401575
 20
0.4633070866
 30
0.0
 11
0.2487401575
 21
0.3058267717
 31
0.0
  0
ARC
  5
399
330
38C
100
AcDbEntity
  8
0
  6
Continuous
 62
     7
370
    25
100
AcDbCircle
 10
0.2585826772
 20
0.3058267717
 30
0.0
 40
0.0098425196850394
100
AcDbArc
 50
180.0
 51
270.0
  0
LINE
  5
39A
330
38C
100
AcDbEntity
  8
0
  6
Continuous
 62
     7
370
    25
100
AcDbLine
 10
0.2585826772
 20
0.295984252
 30
0.0
 11
1.6562204724
 21
0.295984252
 31
0.0
  0
ARC
  5
39B
330
38C
100
AcDbEntity
  8
0
  6
Continuous
 62
     7
370
    25
100
AcDbCircle
 10
1.6562204724
 20
0.3058267717
 30
0.0
 40
0.0098425196850394
100
AcDbArc
 50
270.0
 51
0.0
  0
LINE
  5
39C
330
38C
100
AcDbEntity
  8
0
  6
Continuous
 62
     7
370
    25
100
AcDbLine
 10
1.6660629921
 20
0.3058267717
 30
0.0
 11
1.6660629921
 21
0.4633070866
 31
0.0
  0
ARC
  5
39D
330
38C
100
AcDbEntity
  8
0
  6
Continuous
 62
     7
370
    25
100
AcDbCircle
 10
1.6562204724
 20
0.4633070866
 30
0.0
 40
0.0098425196850394
100
AcDbArc
 50
0.0
 51
90.0
  0
LINE
  5
39E
330
38C
100
AcDbEntity
  8
0
  6
Continuous
 62
     7
370
    25
100
AcDbLine
 10
1.6562204724
 20
0.4731496063
 30
0.0
 11
1.4593700787
 21
0.4731496063
 31
0.0
  0
ARC
  5
39F
330
38C
100
AcDbEntity
  8
0
  6
Continuous
 62
     7
370
    25
100
AcDbCircle
 10
1.4593700787
 20
0.482992126
 30
0.0
 40
0.0098425196850394
100
AcDbArc
 50
180.0
 51
270.0
  0
LINE
  5
3A0
330
38C
100
AcDbEntity
  8
0
  6
Continuous
 62
     7
370
    25
100
AcDbLine
 10
1.4495275591
 20
0.482992126
 30
0.0
 11
1.4495275591
 21
0.514488189
 31
0.0
  0
ARC
  5
3A1
330
38C
100
AcDbEntity
  8
0
  6
Continuous
 62
     7
370
    25
100
AcDbCircle
 10
1.4593700787
 20
0.514488189
 30
0.0
 40
0.0098425196850394
100
AcDbArc
 50
90.0
 51
180.0
  0
LINE
  5
3A2
330
38C
100
AcDbEntity
  8
0
  6
Continuous
 62
     7
370
    25
100
AcDbLine
 10
1.4593700787
 20
0.5243307087
 30
0.0
 11
1.7054330709
 21
0.5243307087
 31
0.0
  0
ARC
  5
3A3
330
38C
100
AcDbEntity
  8
0
  6
Continuous
 62
     7
370
    25
100
AcDbCircle
 10
1.7054330709
 20
0.4849606299
 30
0.0
 40
0.039370078740157
100
AcDbArc
 50
0.0
 51
90.0
  0
LINE
  5
3A4
330
38C
100
AcDbEntity
  8
0
  6
Continuous
 62
     7
370
    25
100
AcDbLine
 10
1.7448031496
 20
0.4849606299
 30
0.0
 11
1.7448031496
 21
0.2093700787
 31
0.0
  0
ARC
  5
3A5
330
38C
100
AcDbEntity
  8
0
  6
Continuous
 62
     7
370
    25
100
AcDbCircle
 10
1.7054330709
 20
0.2093700787
 30
0.0
 40
0.0393700787401575
100
AcDbArc
 50
270.0
 51
0.0
  0
LINE
  5
3A6
330
38C
100
AcDbEntity
  8
0
  6
Continuous
 62
     7
370
    25
100
AcDbLine
 10
1.7054330709
 20
0.17
 30
0.0
 11
1.5913997398
 21
0.17
 31
0.0
  0
ARC
  5
3A7
330
38C
100
AcDbEntity
  8
0
  6
Continuous
 62
     7
370
    25
100
AcDbCircle
 10
1.5913997398
 20
0.1798425197
 30
0.0
 40
0.0098425196850394
100
AcDbArc
 50
225.0
 51
270.0
  0
LINE
  5
3A8
330
38C
100
AcDbEntity
  8
0
  6
Continuous
 62
     7
370
    25
100
AcDbLine
 10
1.5844400274
 20
0.1728828073
 30
0.0
 11
1.5508355632
 21
0.2064872715
 31
0.0
  0
ARC
  5
3A9
330
38C
100
AcDbEntity
  8
0
  6
Continuous
 62
     7
370
    25
100
AcDbCircle
 10
1.5438758508
 20
0.1995275591
 30
0.0
 40
0.0098425196850394
100
AcDbArc
 50
45.0
 51
90.0
  0
LINE
  5
3AA
330
38C
100
AcDbEntity
  8
0
  6
Continuous
 62
     7
370
    25
100
AcDbLine
 10
1.5438758508
 20
0.2093700787
 30
0.0
 11
1.1583288736
 21
0.2093700787
 31
0.0
  0
ARC
  5
3AB
330
38C
100
AcDbEntity
  8
0
  6
Continuous
 62
     7
370
    25
100
AcDbCircle
 10
1.1583288736
 20
0.1995275591
 30
0.0
 40
0.0098425196850396
100
AcDbArc
 50
90.0
 51
135.0
  0
LINE
  5
3AC
330
38C
100
AcDbEntity
  8
0
  6
Continuous
 62
     7
370
    25
100
AcDbLine
 10
1.1513691612
 20
0.2064872715
 30
0.0
 11
1.117764697
 21
0.1728828073
 31
0.0
  0
ARC
  5
3AD
330
38C
100
AcDbEntity
  8
0
  6
Continuous
 62
     7
370
    25
100
AcDbCircle
 10
1.1108049846
 20
0.1798425197
 30
0.0
 40
0.0098425196850394
100
AcDbArc
 50
270.0
 51
315.0
  0
LINE
  5
3AE
330
38C
100
AcDbEntity
  8
0
  6
Continuous
 62
     7
370
    25
100
AcDbLine
 10
1.1108049846
 20
0.17
 30
0.0
 11
0.803998165
 21
0.17
 31
0.0
  0
ARC
  5
3AF
330
38C
100
AcDbEntity
  8
0
  6
Continuous
 62
     7
370
    25
100
AcDbCircle
 10
0.803998165
 20
0.1798425197
 30
0.0
 40
0.0098425196850394
100
AcDbArc
 50
225.0
 51
270.0
  0
LINE
  5
3B0
330
38C
100
AcDbEntity
  8
0
  6
Continuous
 62
     7
370
    25
100
AcDbLine
 10
0.7970384526
 20
0.1728828073
 30
0.0
 11
0.7634339884
 21
0.2064872715
 31
0.0
  0
ARC
  5
3B1
330
38C
100
AcDbEntity
  8
0
  6
Continuous
 62
     7
370
    25
100
AcDbCircle
 10
0.756474276
 20
0.1995275591
 30
0.0
 40
0.0098425196850395
100
AcDbArc
 50
45.0
 51
90.0
  0
LINE
  5
3B2
330
38C
100
AcDbEntity
  8
0
  6
Continuous
 62
     7
370
    25
100
AcDbLine
 10
0.756474276
 20
0.2093700787
 30
0.0
 11
0.3709272988
 21
0.2093700787
 31
0.0
  0
ARC
  5
3B3
330
38C
100
AcDbEntity
  8
0
  6
Continuous
 62
     7
370
    25
100
AcDbCircle
 10
0.3709272988
 20
0.1995275591
 30
0.0
 40
0.0098425196850396
100
AcDbArc
 50
90.0
 51
135.0
  0
LINE
  5
3B4
330
38C
100
AcDbEntity
  8
0
  6
Continuous
 62
     7
370
    25
100
AcDbLine
 10
0.3639675864
 20
0.2064872715
 30
0.0
 11
0.3303631222
 21
0.1728828073
 31
0.0
  0
ARC
  5
3B5
330
38C
100
AcDbEntity
  8
0
  6
Continuous
 62
     7
370
    25
100
AcDbCircle
 10
0.3234034098
 20
0.1798425197
 30
0.0
 40
0.0098425196850394
100
AcDbArc
 50
270.0
 51
315.0
  0
LINE
  5
3B6
330
38C
100
AcDbEntity
  8
0
  6
Continuous
 62
     7
370
    25
100
AcDbLine
 10
0.3234034098
 20
0.17
 30
0.0
 11
0.2093700787
 21
0.17
 31
0.0
  0
ARC
  5
3B7
330
38C
100
AcDbEntity
  8
0
  6
Continuous
 62
     7
370
    25
100
AcDbCircle
 10
0.2093700787
 20
0.2093700787
 30
0.0
 40
0.0393700787401581
100
AcDbArc
 50
180.0
 51
270.0
  0
ARC
  5
3B8
330
38C
100
AcDbEntity
  8
0
  6
Continuous
 62
     7
370
    25
100
AcDbCircle
 10
0.4967716535
 20
0.4731496063
 30
0.0
 40
0.0078740157480318
100
AcDbArc
 50
270.0
 51
0.0
  0
LINE
  5
3B9
330
38C
100
AcDbEntity
  8
0
  6
Continuous
 62
     7
370
    25
100
AcDbLine
 10
0.5046456693
 20
0.4731496063
 30
0.0
 11
0.512519685
 21
0.4731496063
 31
0.0
  0
ARC
  5
3BA
330
38C
100
AcDbEntity
  8
0
  6
Continuous
 62
     7
370
    25
100
AcDbCircle
 10
0.4967716535
 20
0.4731496063
 30
0.0
 40
0.0157480314960635
100
AcDbArc
 50
270.0
 51
0.0
  0
LINE
  5
3BB
330
38C
100
AcDbEntity
  8
0
  6
Continuous
 62
     7
370
    25
100
AcDbLine
 10
0.4967716535
 20
0.4652755906
 30
0.0
 11
0.4967716535
 21
0.4574015748
 31
0.0
  0
LINE
  5
3BC
330
38C
100
AcDbEntity
  8
0
  6
Continuous
 62
     7
370
    25
100
AcDbLine
 10
1.4957874016
 20
0.3077952756
 30
0.0
 11
1.4888976378
 21
0.3077952756
 31
0.0
  0
LINE
  5
3BD
330
38C
100
AcDbEntity
  8
0
  6
Continuous
 62
     7
370
    25
100
AcDbLine
 10
1.4888976378
 20
0.3077952756
 30
0.0
 11
1.4888976378
 21
0.3117322835
 31
0.0
  0
LINE
  5
3BE
330
38C
100
AcDbEntity
  8
0
  6
Continuous
 62
     7
370
    25
100
AcDbLine
 10
1.4888976378
 20
0.3117322835
 30
0.0
 11
1.4957874016
 21
0.3117322835
 31
0.0
  0
LINE
  5
3BF
330
38C
100
AcDbEntity
  8
0
  6
Continuous
 62
     7
370
    25
100
AcDbLine
 10
1.4957874016
 20
0.3077952756
 30
0.0
 11
1.4957874016
 21
0.3117322835
 31
0.0
  0
LINE
  5
3C0
330
38C
100
AcDbEntity
  8
0
  6
Continuous
 62
     7
370
    25
100
AcDbLine
 10
0.5075984252
 20
0.3038582677
 30
0.0
 11
0.5036614173
 21
0.3038582677
 31
0.0
  0
ARC
  5
3C1
330
38C
100
AcDbEntity
  8
0
  6
Continuous
 62
     7
370
    25
100
AcDbCircle
 10
0.4997244094
 20
0.3038582677
 30
0.0
 40
0.0039370078740159
100
AcDbArc
 50
0.0
 51
90.0
  0
LINE
  5
3C2
330
38C
100
AcDbEntity
  8
0
  6
Continuous
 62
     7
370
    25
100
AcDbLine
 10
0.4997244094
 20
0.3117322835
 30
0.0
 11
0.4997244094
 21
0.3077952756
 31
0.0
  0
ARC
  5
3C3
330
38C
100
AcDbEntity
  8
0
  6
Continuous
 62
     7
370
    25
100
AcDbCircle
 10
0.4997244094
 20
0.3038582677
 30
0.0
 40
0.0078740157480317
100
AcDbArc
 50
0.0
 51
90.0
  0
ARC
  5
3C4
330
38C
100
AcDbEntity
  8
0
  6
Continuous
 62
     7
370
    25
100
AcDbCircle
 10
1.4957874016
 20
0.3038582677
 30
0.0
 40
0.003937007874016
100
AcDbArc
 50
0.0
 51
90.0
  0
ARC
  5
3C5
330
38C
100
AcDbEntity
  8
0
  6
Continuous
 62
     7
370
    25
100
AcDbCircle
 10
1.4957874016
 20
0.3038582677
 30
0.0
 40
0.0078740157480317
100
AcDbArc
 50
0.0
 51
90.0
  0
LINE
  5
3C6
330
38C
100
AcDbEntity
  8
0
  6
Continuous
 62
     7
370
    25
100
AcDbLine
 10
1.4997244094
 20
0.3038582677
 30
0.0
 11
1.5036614173
 21
0.3038582677
 31
0.0
  0
LINE
  5
3C7
330
38C
100
AcDbEntity
  8
0
  6
Continuous
 62
     7
370
    25
100
AcDbLine
 10
0.4111417323
 20
0.2999212598
 30
0.0
 11
0.4111417323
 21
0.3038582677
 31
0.0
  0
LINE
  5
3C8
330
38C
100
AcDbEntity
  8
0
  6
Continuous
 62
     7
370
    25
100
AcDbLine
 10
0.4111417323
 20
0.3038582677
 30
0.0
 11
0.4150787402
 21
0.3038582677
 31
0.0
  0
LINE
  5
3C9
330
38C
100
AcDbEntity
  8
0
  6
Continuous
 62
     7
370
    25
100
AcDbLine
 10
0.4150787402
 20
0.3038582677
 30
0.0
 11
0.4150787402
 21
0.2999212598
 31
0.0
  0
LINE
  5
3CA
330
38C
100
AcDbEntity
  8
0
  6
Continuous
 62
     7
370
    25
100
AcDbLine
 10
0.4111417323
 20
0.2999212598
 30
0.0
 11
0.4150787402
 21
0.2999212598
 31
0.0
  0
ARC
  5
3CB
330
38C
100
AcDbEntity
  8
0
  6
Continuous
 62
     7
370
    25
100
AcDbCircle
 10
1.4150787402
 20
0.3038582677
 30
0.0
 40
0.0039370078740159
100
AcDbArc
 50
90.0
 51
180.0
  0
LINE
  5
3CC
330
38C
100
AcDbEntity
  8
0
  6
Continuous
 62
     7
370
    25
100
AcDbLine
 10
1.4111417323
 20
0.3038582677
 30
0.0
 11
1.4072047244
 21
0.3038582677
 31
0.0
  0
ARC
  5
3CD
330
38C
100
AcDbEntity
  8
0
  6
Continuous
 62
     7
370
    25
100
AcDbCircle
 10
1.4150787402
 20
0.3038582677
 30
0.0
 40
0.0078740157480317
100
AcDbArc
 50
90.0
 51
180.0
  0
LINE
  5
3CE
330
38C
100
AcDbEntity
  8
0
  6
Continuous
 62
     7
370
    25
100
AcDbLine
 10
1.4150787402
 20
0.3077952756
 30
0.0
 11
1.4150787402
 21
0.3117322835
 31
0.0
  0
LINE
  5
3CF
330
38C
100
AcDbEntity
  8
0
  6
Continuous
 62
     7
370
    25
100
AcDbLine
 10
0.419015748
 20
0.3117322835
 30
0.0
 11
0.419015748
 21
0.3077952756
 31
0.0
  0
ARC
  5
3D0
330
38C
100
AcDbEntity
  8
0
  6
Continuous
 62
     7
370
    25
100
AcDbCircle
 10
0.419015748
 20
0.3038582677
 30
0.0
 40
0.0039370078740159
100
AcDbArc
 50
90.0
 51
180.0
  0
ARC
  5
3D1
330
38C
100
AcDbEntity
  8
0
  6
Continuous
 62
     7
370
    25
100
AcDbCircle
 10
0.419015748
 20
0.3038582677
 30
0.0
 40
0.0078740157480317
100
AcDbArc
 50
90.0
 51
180.0
  0
LINE
  5
3D2
330
38C
100
AcDbEntity
  8
0
  6
Continuous
 62
     7
370
    25
100
AcDbLine
 10
1.4101574803
 20
0.5210691845
 30
0.0
 11
1.4101574803
 21
0.4731496063
 31
0.0
  0
LINE
  5
3D3
330
38C
100
AcDbEntity
  8
0
  6
Continuous
 62
     7
370
    25
100
AcDbLine
 10
1.4022834646
 20
0.4731496063
 30
0.0
 11
1.4101574803
 21
0.4731496063
 31
0.0
  0
LINE
  5
3D4
330
38C
100
AcDbEntity
  8
0
  6
Continuous
 62
     7
370
    25
100
AcDbLine
 10
1.4022834646
 20
0.4731496063
 30
0.0
 11
1.4022834646
 21
0.5210691845
 31
0.0
  0
LINE
  5
3D5
330
38C
100
AcDbEntity
  8
0
  6
Continuous
 62
     7
370
    25
100
AcDbLine
 10
1.4101574803
 20
0.5210691845
 30
0.0
 11
1.4022834646
 21
0.5210691845
 31
0.0
  0
LINE
  5
3D6
330
38C
100
AcDbEntity
  8
0
  6
Continuous
 62
     7
370
    25
100
AcDbLine
 10
0.4337795276
 20
0.2999212598
 30
0.0
 11
0.4849606299
 21
0.2999212598
 31
0.0
  0
LINE
  5
3D7
330
38C
100
AcDbEntity
  8
0
  6
Continuous
 62
     7
370
    25
100
AcDbLine
 10
0.4849606299
 20
0.2999212598
 30
0.0
 11
0.4849606299
 21
0.295984252
 31
0.0
  0
LINE
  5
3D8
330
38C
100
AcDbEntity
  8
0
  6
Continuous
 62
     7
370
    25
100
AcDbLine
 10
0.4337795276
 20
0.2999212598
 30
0.0
 11
0.4337795276
 21
0.295984252
 31
0.0
  0
LINE
  5
3D9
330
38C
100
AcDbEntity
  8
0
  6
Continuous
 62
     7
370
    25
100
AcDbLine
 10
1.4259055118
 20
0.2999212598
 30
0.0
 11
1.4298425197
 21
0.2999212598
 31
0.0
  0
LINE
  5
3DA
330
38C
100
AcDbEntity
  8
0
  6
Continuous
 62
     7
370
    25
100
AcDbLine
 10
1.4298425197
 20
0.295984252
 30
0.0
 11
1.4298425197
 21
0.2999212598
 31
0.0
  0
ARC
  5
3DB
330
38C
100
AcDbEntity
  8
0
  6
Continuous
 62
     7
370
    25
100
AcDbCircle
 10
1.4298425197
 20
0.2999212598
 30
0.0
 40
0.0039370078740159
100
AcDbArc
 50
180.0
 51
270.0
  0
LINE
  5
3DC
330
38C
100
AcDbEntity
  8
0
  6
Continuous
 62
     7
370
    25
100
AcDbLine
 10
0.295984252
 20
0.3038582677
 30
0.0
 11
0.2920472441
 21
0.3038582677
 31
0.0
  0
ARC
  5
3DD
330
38C
100
AcDbEntity
  8
0
  6
Continuous
 62
     7
370
    25
100
AcDbCircle
 10
0.2881102362
 20
0.3038582677
 30
0.0
 40
0.0039370078740159
100
AcDbArc
 50
0.0
 51
90.0
  0
LINE
  5
3DE
330
38C
100
AcDbEntity
  8
0
  6
Continuous
 62
     7
370
    25
100
AcDbLine
 10
0.2881102362
 20
0.3117322835
 30
0.0
 11
0.2881102362
 21
0.3077952756
 31
0.0
  0
ARC
  5
3DF
330
38C
100
AcDbEntity
  8
0
  6
Continuous
 62
     7
370
    25
100
AcDbCircle
 10
0.2881102362
 20
0.3038582677
 30
0.0
 40
0.0078740157480317
100
AcDbArc
 50
0.0
 51
90.0
  0
LINE
  5
3E0
330
38C
100
AcDbEntity
  8
0
  6
Continuous
 62
     7
370
    25
100
AcDbLine
 10
1.6227559055
 20
0.3038582677
 30
0.0
 11
1.6227559055
 21
0.2999212598
 31
0.0
  0
LINE
  5
3E1
330
38C
100
AcDbEntity
  8
0
  6
Continuous
 62
     7
370
    25
100
AcDbLine
 10
1.6227559055
 20
0.2999212598
 30
0.0
 11
1.6188188976
 21
0.2999212598
 31
0.0
  0
LINE
  5
3E2
330
38C
100
AcDbEntity
  8
0
  6
Continuous
 62
     7
370
    25
100
AcDbLine
 10
1.6188188976
 20
0.2999212598
 30
0.0
 11
1.6188188976
 21
0.3038582677
 31
0.0
  0
LINE
  5
3E3
330
38C
100
AcDbEntity
  8
0
  6
Continuous
 62
     7
370
    25
100
AcDbLine
 10
1.6227559055
 20
0.3038582677
 30
0.0
 11
1.6188188976
 21
0.3038582677
 31
0.0
  0
ARC
  5
3E4
330
38C
100
AcDbEntity
  8
0
  6
Continuous
 62
     7
370
    25
100
AcDbCircle
 10
0.4849606299
 20
0.2999212598
 30
0.0
 40
0.0039370078740159
100
AcDbArc
 50
270.0
 51
0.0
  0
LINE
  5
3E5
330
38C
100
AcDbEntity
  8
0
  6
Continuous
 62
     7
370
    25
100
AcDbLine
 10
0.4849606299
 20
0.2999212598
 30
0.0
 11
0.4888976378
 21
0.2999212598
 31
0.0
  0
ARC
  5
3E6
330
38C
100
AcDbEntity
  8
0
  6
Continuous
 62
     7
370
    25
100
AcDbCircle
 10
1.4180314961
 20
0.4731496063
 30
0.0
 40
0.0157480314960635
100
AcDbArc
 50
180.0
 51
270.0
  0
LINE
  5
3E7
330
38C
100
AcDbEntity
  8
0
  6
Continuous
 62
     7
370
    25
100
AcDbLine
 10
1.6391794208
 20
0.4574015748
 30
0.0
 11
1.4180314961
 21
0.4574015748
 31
0.0
  0
LINE
  5
3E8
330
38C
100
AcDbEntity
  8
0
  6
Continuous
 62
     7
370
    25
100
AcDbLine
 10
1.6391794208
 20
0.3117322835
 30
0.0
 11
1.6391794208
 21
0.4574015748
 31
0.0
  0
LINE
  5
3E9
330
38C
100
AcDbEntity
  8
0
  6
Continuous
 62
     7
370
    25
100
AcDbLine
 10
1.6266929134
 20
0.3117322835
 30
0.0
 11
1.6391794208
 21
0.3117322835
 31
0.0
  0
ARC
  5
3EA
330
38C
100
AcDbEntity
  8
0
  6
Continuous
 62
     7
370
    25
100
AcDbCircle
 10
1.6266929134
 20
0.3038582677
 30
0.0
 40
0.0078740157480317
100
AcDbArc
 50
90.0
 51
180.0
  0
LINE
  5
3EB
330
38C
100
AcDbEntity
  8
0
  6
Continuous
 62
     7
370
    25
100
AcDbLine
 10
1.577480315
 20
0.2999212598
 30
0.0
 11
1.6188188976
 21
0.2999212598
 31
0.0
  0
LINE
  5
3EC
330
38C
100
AcDbEntity
  8
0
  6
Continuous
 62
     7
370
    25
100
AcDbLine
 10
1.577480315
 20
0.3038582677
 30
0.0
 11
1.577480315
 21
0.2999212598
 31
0.0
  0
ARC
  5
3ED
330
38C
100
AcDbEntity
  8
0
  6
Continuous
 62
     7
370
    25
100
AcDbCircle
 10
1.5696062992
 20
0.3038582677
 30
0.0
 40
0.0078740157480317
100
AcDbArc
 50
0.0
 51
90.0
  0
LINE
  5
3EE
330
38C
100
AcDbEntity
  8
0
  6
Continuous
 62
     7
370
    25
100
AcDbLine
 10
1.5627165354
 20
0.3117322835
 30
0.0
 11
1.5696062992
 21
0.3117322835
 31
0.0
  0
ARC
  5
3EF
330
38C
100
AcDbEntity
  8
0
  6
Continuous
 62
     7
370
    25
100
AcDbCircle
 10
1.5627165354
 20
0.3038582677
 30
0.0
 40
0.0078740157480317
100
AcDbArc
 50
90.0
 51
180.0
  0
LINE
  5
3F0
330
38C
100
AcDbEntity
  8
0
  6
Continuous
 62
     7
370
    25
100
AcDbLine
 10
1.5548425197
 20
0.2999212598
 30
0.0
 11
1.5548425197
 21
0.3038582677
 31
0.0
  0
LINE
  5
3F1
330
38C
100
AcDbEntity
  8
0
  6
Continuous
 62
     7
370
    25
100
AcDbLine
 10
1.5036614173
 20
0.2999212598
 30
0.0
 11
1.5548425197
 21
0.2999212598
 31
0.0
  0
LINE
  5
3F2
330
38C
100
AcDbEntity
  8
0
  6
Continuous
 62
     7
370
    25
100
AcDbLine
 10
1.5036614173
 20
0.3038582677
 30
0.0
 11
1.5036614173
 21
0.2999212598
 31
0.0
  0
ARC
  5
3F3
330
38C
100
AcDbEntity
  8
0
  6
Continuous
 62
     7
370
    25
100
AcDbCircle
 10
1.4888976378
 20
0.3038582677
 30
0.0
 40
0.0078740157480317
100
AcDbArc
 50
90.0
 51
180.0
  0
LINE
  5
3F4
330
38C
100
AcDbEntity
  8
0
  6
Continuous
 62
     7
370
    25
100
AcDbLine
 10
1.481023622
 20
0.2999212598
 30
0.0
 11
1.481023622
 21
0.3038582677
 31
0.0
  0
LINE
  5
3F5
330
38C
100
AcDbEntity
  8
0
  6
Continuous
 62
     7
370
    25
100
AcDbLine
 10
1.4298425197
 20
0.2999212598
 30
0.0
 11
1.481023622
 21
0.2999212598
 31
0.0
  0
LINE
  5
3F6
330
38C
100
AcDbEntity
  8
0
  6
Continuous
 62
     7
370
    25
100
AcDbLine
 10
1.4298425197
 20
0.3038582677
 30
0.0
 11
1.4298425197
 21
0.2999212598
 31
0.0
  0
ARC
  5
3F7
330
38C
100
AcDbEntity
  8
0
  6
Continuous
 62
     7
370
    25
100
AcDbCircle
 10
1.4219685039
 20
0.3038582677
 30
0.0
 40
0.0078740157480317
100
AcDbArc
 50
0.0
 51
90.0
  0
LINE
  5
3F8
330
38C
100
AcDbEntity
  8
0
  6
Continuous
 62
     7
370
    25
100
AcDbLine
 10
1.4150787402
 20
0.3117322835
 30
0.0
 11
1.4219685039
 21
0.3117322835
 31
0.0
  0
LINE
  5
3F9
330
38C
100
AcDbEntity
  8
0
  6
Continuous
 62
     7
370
    25
100
AcDbLine
 10
1.4072047244
 20
0.2999212598
 30
0.0
 11
1.4072047244
 21
0.3038582677
 31
0.0
  0
LINE
  5
3FA
330
38C
100
AcDbEntity
  8
0
  6
Continuous
 62
     7
370
    25
100
AcDbLine
 10
1.356023622
 20
0.2999212598
 30
0.0
 11
1.4072047244
 21
0.2999212598
 31
0.0
  0
LINE
  5
3FB
330
38C
100
AcDbEntity
  8
0
  6
Continuous
 62
     7
370
    25
100
AcDbLine
 10
1.356023622
 20
0.3038582677
 30
0.0
 11
1.356023622
 21
0.2999212598
 31
0.0
  0
ARC
  5
3FC
330
38C
100
AcDbEntity
  8
0
  6
Continuous
 62
     7
370
    25
100
AcDbCircle
 10
1.3481496063
 20
0.3038582677
 30
0.0
 40
0.0078740157480317
100
AcDbArc
 50
0.0
 51
90.0
  0
LINE
  5
3FD
330
38C
100
AcDbEntity
  8
0
  6
Continuous
 62
     7
370
    25
100
AcDbLine
 10
1.3412598425
 20
0.3117322835
 30
0.0
 11
1.3481496063
 21
0.3117322835
 31
0.0
  0
ARC
  5
3FE
330
38C
100
AcDbEntity
  8
0
  6
Continuous
 62
     7
370
    25
100
AcDbCircle
 10
1.3412598425
 20
0.3038582677
 30
0.0
 40
0.0078740157480317
100
AcDbArc
 50
90.0
 51
180.0
  0
LINE
  5
3FF
330
38C
100
AcDbEntity
  8
0
  6
Continuous
 62
     7
370
    25
100
AcDbLine
 10
1.3333858268
 20
0.2999212598
 30
0.0
 11
1.3333858268
 21
0.3038582677
 31
0.0
  0
LINE
  5
400
330
38C
100
AcDbEntity
  8
0
  6
Continuous
 62
     7
370
    25
100
AcDbLine
 10
1.2861417323
 20
0.2999212598
 30
0.0
 11
1.3333858268
 21
0.2999212598
 31
0.0
  0
LINE
  5
401
330
38C
100
AcDbEntity
  8
0
  6
Continuous
 62
     7
370
    25
100
AcDbLine
 10
1.2861417323
 20
0.3038582677
 30
0.0
 11
1.2861417323
 21
0.2999212598
 31
0.0
  0
ARC
  5
402
330
38C
100
AcDbEntity
  8
0
  6
Continuous
 62
     7
370
    25
100
AcDbCircle
 10
1.2782677165
 20
0.3038582677
 30
0.0
 40
0.0078740157480317
100
AcDbArc
 50
0.0
 51
90.0
  0
LINE
  5
403
330
38C
100
AcDbEntity
  8
0
  6
Continuous
 62
     7
370
    25
100
AcDbLine
 10
0.6365354331
 20
0.3117322835
 30
0.0
 11
1.2782677165
 21
0.3117322835
 31
0.0
  0
ARC
  5
404
330
38C
100
AcDbEntity
  8
0
  6
Continuous
 62
     7
370
    25
100
AcDbCircle
 10
0.6365354331
 20
0.3038582677
 30
0.0
 40
0.0078740157480317
100
AcDbArc
 50
90.0
 51
180.0
  0
LINE
  5
405
330
38C
100
AcDbEntity
  8
0
  6
Continuous
 62
     7
370
    25
100
AcDbLine
 10
0.6286614173
 20
0.2999212598
 30
0.0
 11
0.6286614173
 21
0.3038582677
 31
0.0
  0
LINE
  5
406
330
38C
100
AcDbEntity
  8
0
  6
Continuous
 62
     7
370
    25
100
AcDbLine
 10
0.5814173228
 20
0.2999212598
 30
0.0
 11
0.6286614173
 21
0.2999212598
 31
0.0
  0
LINE
  5
407
330
38C
100
AcDbEntity
  8
0
  6
Continuous
 62
     7
370
    25
100
AcDbLine
 10
0.5814173228
 20
0.3038582677
 30
0.0
 11
0.5814173228
 21
0.2999212598
 31
0.0
  0
ARC
  5
408
330
38C
100
AcDbEntity
  8
0
  6
Continuous
 62
     7
370
    25
100
AcDbCircle
 10
0.5735433071
 20
0.3038582677
 30
0.0
 40
0.0078740157480317
100
AcDbArc
 50
0.0
 51
90.0
  0
LINE
  5
409
330
38C
100
AcDbEntity
  8
0
  6
Continuous
 62
     7
370
    25
100
AcDbLine
 10
0.5666535433
 20
0.3117322835
 30
0.0
 11
0.5735433071
 21
0.3117322835
 31
0.0
  0
ARC
  5
40A
330
38C
100
AcDbEntity
  8
0
  6
Continuous
 62
     7
370
    25
100
AcDbCircle
 10
0.5666535433
 20
0.3038582677
 30
0.0
 40
0.0078740157480317
100
AcDbArc
 50
90.0
 51
180.0
  0
LINE
  5
40B
330
38C
100
AcDbEntity
  8
0
  6
Continuous
 62
     7
370
    25
100
AcDbLine
 10
0.5587795276
 20
0.2999212598
 30
0.0
 11
0.5587795276
 21
0.3038582677
 31
0.0
  0
LINE
  5
40C
330
38C
100
AcDbEntity
  8
0
  6
Continuous
 62
     7
370
    25
100
AcDbLine
 10
0.5075984252
 20
0.2999212598
 30
0.0
 11
0.5587795276
 21
0.2999212598
 31
0.0
  0
LINE
  5
40D
330
38C
100
AcDbEntity
  8
0
  6
Continuous
 62
     7
370
    25
100
AcDbLine
 10
0.5075984252
 20
0.3038582677
 30
0.0
 11
0.5075984252
 21
0.2999212598
 31
0.0
  0
LINE
  5
40E
330
38C
100
AcDbEntity
  8
0
  6
Continuous
 62
     7
370
    25
100
AcDbLine
 10
0.4928346457
 20
0.3117322835
 30
0.0
 11
0.4997244094
 21
0.3117322835
 31
0.0
  0
ARC
  5
40F
330
38C
100
AcDbEntity
  8
0
  6
Continuous
 62
     7
370
    25
100
AcDbCircle
 10
0.4928346457
 20
0.3038582677
 30
0.0
 40
0.0078740157480317
100
AcDbArc
 50
90.0
 51
180.0
  0
LINE
  5
410
330
38C
100
AcDbEntity
  8
0
  6
Continuous
 62
     7
370
    25
100
AcDbLine
 10
0.4849606299
 20
0.2999212598
 30
0.0
 11
0.4849606299
 21
0.3038582677
 31
0.0
  0
LINE
  5
411
330
38C
100
AcDbEntity
  8
0
  6
Continuous
 62
     7
370
    25
100
AcDbLine
 10
0.4337795276
 20
0.3038582677
 30
0.0
 11
0.4337795276
 21
0.2999212598
 31
0.0
  0
ARC
  5
412
330
38C
100
AcDbEntity
  8
0
  6
Continuous
 62
     7
370
    25
100
AcDbCircle
 10
0.4259055118
 20
0.3038582677
 30
0.0
 40
0.0078740157480317
100
AcDbArc
 50
0.0
 51
90.0
  0
LINE
  5
413
330
38C
100
AcDbEntity
  8
0
  6
Continuous
 62
     7
370
    25
100
AcDbLine
 10
0.419015748
 20
0.3117322835
 30
0.0
 11
0.4259055118
 21
0.3117322835
 31
0.0
  0
LINE
  5
414
330
38C
100
AcDbEntity
  8
0
  6
Continuous
 62
     7
370
    25
100
AcDbLine
 10
0.3599606299
 20
0.2999212598
 30
0.0
 11
0.4111417323
 21
0.2999212598
 31
0.0
  0
LINE
  5
415
330
38C
100
AcDbEntity
  8
0
  6
Continuous
 62
     7
370
    25
100
AcDbLine
 10
0.3599606299
 20
0.3038582677
 30
0.0
 11
0.3599606299
 21
0.2999212598
 31
0.0
  0
ARC
  5
416
330
38C
100
AcDbEntity
  8
0
  6
Continuous
 62
     7
370
    25
100
AcDbCircle
 10
0.3520866142
 20
0.3038582677
 30
0.0
 40
0.0078740157480317
100
AcDbArc
 50
0.0
 51
90.0
  0
LINE
  5
417
330
38C
100
AcDbEntity
  8
0
  6
Continuous
 62
     7
370
    25
100
AcDbLine
 10
0.3451968504
 20
0.3117322835
 30
0.0
 11
0.3520866142
 21
0.3117322835
 31
0.0
  0
ARC
  5
418
330
38C
100
AcDbEntity
  8
0
  6
Continuous
 62
     7
370
    25
100
AcDbCircle
 10
0.3451968504
 20
0.3038582677
 30
0.0
 40
0.0078740157480317
100
AcDbArc
 50
90.0
 51
180.0
  0
LINE
  5
419
330
38C
100
AcDbEntity
  8
0
  6
Continuous
 62
     7
370
    25
100
AcDbLine
 10
0.3373228346
 20
0.2999212598
 30
0.0
 11
0.3373228346
 21
0.3038582677
 31
0.0
  0
LINE
  5
41A
330
38C
100
AcDbEntity
  8
0
  6
Continuous
 62
     7
370
    25
100
AcDbLine
 10
0.295984252
 20
0.2999212598
 30
0.0
 11
0.3373228346
 21
0.2999212598
 31
0.0
  0
LINE
  5
41B
330
38C
100
AcDbEntity
  8
0
  6
Continuous
 62
     7
370
    25
100
AcDbLine
 10
0.295984252
 20
0.3038582677
 30
0.0
 11
0.295984252
 21
0.2999212598
 31
0.0
  0
LINE
  5
41C
330
38C
100
AcDbEntity
  8
0
  6
Continuous
 62
     7
370
    25
100
AcDbLine
 10
0.2756237288
 20
0.3117322835
 30
0.0
 11
0.2881102362
 21
0.3117322835
 31
0.0
  0
LINE
  5
41D
330
38C
100
AcDbEntity
  8
0
  6
Continuous
 62
     7
370
    25
100
AcDbLine
 10
0.2756237288
 20
0.4574015748
 30
0.0
 11
0.2756237288
 21
0.3117322835
 31
0.0
  0
LINE
  5
41E
330
38C
100
AcDbEntity
  8
0
  6
Continuous
 62
     7
370
    25
100
AcDbLine
 10
0.4967716535
 20
0.4574015748
 30
0.0
 11
0.2756237288
 21
0.4574015748
 31
0.0
  0
LINE
  5
41F
330
38C
100
AcDbEntity
  8
0
  6
Continuous
 62
     7
370
    25
100
AcDbLine
 10
0.512519685
 20
0.5210691845
 30
0.0
 11
0.512519685
 21
0.4731496063
 31
0.0
  0
LINE
  5
420
330
38C
100
AcDbEntity
  8
0
  6
Continuous
 62
     7
370
    25
100
AcDbLine
 10
0.5275922328
 20
0.5361417323
 30
0.0
 11
0.512519685
 21
0.5210691845
 31
0.0
  0
LINE
  5
421
330
38C
100
AcDbEntity
  8
0
  6
Continuous
 62
     7
370
    25
100
AcDbLine
 10
1.3872109168
 20
0.5361417323
 30
0.0
 11
0.5275922328
 21
0.5361417323
 31
0.0
  0
LINE
  5
422
330
38C
100
AcDbEntity
  8
0
  6
Continuous
 62
     7
370
    25
100
AcDbLine
 10
1.4022834646
 20
0.5210691845
 30
0.0
 11
1.3872109168
 21
0.5361417323
 31
0.0
  0
LINE
  5
423
330
38C
100
AcDbEntity
  8
0
  6
Continuous
 62
     7
370
    25
100
AcDbLine
 10
1.4259055118
 20
0.2999212598
 30
0.0
 11
1.4259055118
 21
0.3038582677
 31
0.0
  0
LINE
  5
424
330
38C
100
AcDbEntity
  8
0
  6
Continuous
 62
     7
370
    25
100
AcDbLine
 10
1.4259055118
 20
0.3038582677
 30
0.0
 11
1.4298425197
 21
0.3038582677
 31
0.0
  0
LINE
  5
425
330
38C
100
AcDbEntity
  8
0
  6
Continuous
 62
     7
370
    25
100
AcDbLine
 10
1.3481496063
 20
0.3077952756
 30
0.0
 11
1.3412598425
 21
0.3077952756
 31
0.0
  0
LINE
  5
426
330
38C
100
AcDbEntity
  8
0
  6
Continuous
 62
     7
370
    25
100
AcDbLine
 10
1.3412598425
 20
0.3077952756
 30
0.0
 11
1.3412598425
 21
0.3117322835
 31
0.0
  0
LINE
  5
427
330
38C
100
AcDbEntity
  8
0
  6
Continuous
 62
     7
370
    25
100
AcDbLine
 10
1.3481496063
 20
0.3077952756
 30
0.0
 11
1.3481496063
 21
0.3117322835
 31
0.0
  0
LINE
  5
428
330
38C
100
AcDbEntity
  8
0
  6
Continuous
 62
     7
370
    25
100
AcDbLine
 10
0.295984252
 20
0.2999212598
 30
0.0
 11
0.2920472441
 21
0.2999212598
 31
0.0
  0
LINE
  5
429
330
38C
100
AcDbEntity
  8
0
  6
Continuous
 62
     7
370
    25
100
AcDbLine
 10
0.2920472441
 20
0.2999212598
 30
0.0
 11
0.2920472441
 21
0.3038582677
 31
0.0
  0
LINE
  5
42A
330
38C
100
AcDbEntity
  8
0
  6
Continuous
 62
     7
370
    25
100
AcDbLine
 10
1.6188188976
 20
0.295984252
 30
0.0
 11
1.6188188976
 21
0.2999212598
 31
0.0
  0
ARC
  5
42B
330
38C
100
AcDbEntity
  8
0
  6
Continuous
 62
     7
370
    25
100
AcDbCircle
 10
1.6188188976
 20
0.2999212598
 30
0.0
 40
0.003937007874016
100
AcDbArc
 50
270.0
 51
0.0
  0
LINE
  5
42C
330
38C
100
AcDbEntity
  8
0
  6
Continuous
 62
     7
370
    25
100
AcDbLine
 10
0.4849606299
 20
0.3038582677
 30
0.0
 11
0.4888976378
 21
0.3038582677
 31
0.0
  0
LINE
  5
42D
330
38C
100
AcDbEntity
  8
0
  6
Continuous
 62
     7
370
    25
100
AcDbLine
 10
0.4888976378
 20
0.3038582677
 30
0.0
 11
0.4888976378
 21
0.2999212598
 31
0.0
  0
ARC
  5
42E
330
38C
100
AcDbEntity
  8
0
  6
Continuous
 62
     7
370
    25
100
AcDbCircle
 10
1.4219685039
 20
0.3038582677
 30
0.0
 40
0.003937007874016
100
AcDbArc
 50
0.0
 51
90.0
  0
LINE
  5
42F
330
38C
100
AcDbEntity
  8
0
  6
Continuous
 62
     7
370
    25
100
AcDbLine
 10
1.4219685039
 20
0.3077952756
 30
0.0
 11
1.4219685039
 21
0.3117322835
 31
0.0
  0
ARC
  5
430
330
38C
100
AcDbEntity
  8
0
  6
Continuous
 62
     7
370
    25
100
AcDbCircle
 10
0.295984252
 20
0.2999212598
 30
0.0
 40
0.0039370078740159
100
AcDbArc
 50
180.0
 51
270.0
  0
LINE
  5
431
330
38C
100
AcDbEntity
  8
0
  6
Continuous
 62
     7
370
    25
100
AcDbLine
 10
0.295984252
 20
0.2999212598
 30
0.0
 11
0.295984252
 21
0.295984252
 31
0.0
  0
LINE
  5
432
330
38C
100
AcDbEntity
  8
0
  6
Continuous
 62
     7
370
    25
100
AcDbLine
 10
1.577480315
 20
0.295984252
 30
0.0
 11
1.577480315
 21
0.2999212598
 31
0.0
  0
LINE
  5
433
330
38C
100
AcDbEntity
  8
0
  6
Continuous
 62
     7
370
    25
100
AcDbLine
 10
0.4928346457
 20
0.3117322835
 30
0.0
 11
0.4928346457
 21
0.3077952756
 31
0.0
  0
ARC
  5
434
330
38C
100
AcDbEntity
  8
0
  6
Continuous
 62
     7
370
    25
100
AcDbCircle
 10
0.4928346457
 20
0.3038582677
 30
0.0
 40
0.0039370078740159
100
AcDbArc
 50
90.0
 51
180.0
  0
LINE
  5
435
330
38C
100
AcDbEntity
  8
0
  6
Continuous
 62
     7
370
    25
100
AcDbLine
 10
1.4219685039
 20
0.3077952756
 30
0.0
 11
1.4150787402
 21
0.3077952756
 31
0.0
  0
LINE
  5
436
330
38C
100
AcDbEntity
  8
0
  6
Continuous
 62
     7
370
    25
100
AcDbLine
 10
0.5814173228
 20
0.3038582677
 30
0.0
 11
0.577480315
 21
0.3038582677
 31
0.0
  0
ARC
  5
437
330
38C
100
AcDbEntity
  8
0
  6
Continuous
 62
     7
370
    25
100
AcDbCircle
 10
0.5735433071
 20
0.3038582677
 30
0.0
 40
0.0039370078740159
100
AcDbArc
 50
0.0
 51
90.0
  0
LINE
  5
438
330
38C
100
AcDbEntity
  8
0
  6
Continuous
 62
     7
370
    25
100
AcDbLine
 10
0.5735433071
 20
0.3117322835
 30
0.0
 11
0.5735433071
 21
0.3077952756
 31
0.0
  0
LINE
  5
439
330
38C
100
AcDbEntity
  8
0
  6
Continuous
 62
     7
370
    25
100
AcDbLine
 10
1.3373228346
 20
0.3038582677
 30
0.0
 11
1.3373228346
 21
0.2999212598
 31
0.0
  0
LINE
  5
43A
330
38C
100
AcDbEntity
  8
0
  6
Continuous
 62
     7
370
    25
100
AcDbLine
 10
1.3373228346
 20
0.2999212598
 30
0.0
 11
1.3333858268
 21
0.2999212598
 31
0.0
  0
LINE
  5
43B
330
38C
100
AcDbEntity
  8
0
  6
Continuous
 62
     7
370
    25
100
AcDbLine
 10
1.3373228346
 20
0.3038582677
 30
0.0
 11
1.3333858268
 21
0.3038582677
 31
0.0
  0
LINE
  5
43C
330
38C
100
AcDbEntity
  8
0
  6
Continuous
 62
     7
370
    25
100
AcDbLine
 10
0.3373228346
 20
0.2999212598
 30
0.0
 11
0.3373228346
 21
0.295984252
 31
0.0
  0
LINE
  5
43D
330
38C
100
AcDbEntity
  8
0
  6
Continuous
 62
     7
370
    25
100
AcDbLine
 10
1.5735433071
 20
0.2999212598
 30
0.0
 11
1.577480315
 21
0.2999212598
 31
0.0
  0
ARC
  5
43E
330
38C
100
AcDbEntity
  8
0
  6
Continuous
 62
     7
370
    25
100
AcDbCircle
 10
1.577480315
 20
0.2999212598
 30
0.0
 40
0.003937007874016
100
AcDbArc
 50
180.0
 51
270.0
  0
LINE
  5
43F
330
38C
100
AcDbEntity
  8
0
  6
Continuous
 62
     7
370
    25
100
AcDbLine
 10
0.4997244094
 20
0.3077952756
 30
0.0
 11
0.4928346457
 21
0.3077952756
 31
0.0
  0
ARC
  5
440
330
38C
100
AcDbEntity
  8
0
  6
Continuous
 62
     7
370
    25
100
AcDbCircle
 10
0.2735358151
 20
0.3112401575
 30
0.0
 40
0.0035144824943609
100
AcDbArc
 50
171.9505330245
 51
258.578246341
  0
LINE
  5
441
330
38C
100
AcDbEntity
  8
0
  6
Continuous
 62
     7
370
    25
100
AcDbLine
 10
0.2700559589
 20
0.3117322835
 30
0.0
 11
0.2756237288
 21
0.3117322835
 31
0.0
  0
LINE
  5
442
330
38C
100
AcDbEntity
  8
0
  6
Continuous
 62
     7
370
    25
100
AcDbLine
 10
0.2756237288
 20
0.3117322835
 30
0.0
 11
0.2756237288
 21
0.3077952756
 31
0.0
  0
LINE
  5
443
330
38C
100
AcDbEntity
  8
0
  6
Continuous
 62
     7
370
    25
100
AcDbLine
 10
0.2728398439
 20
0.3077952756
 30
0.0
 11
0.2756237288
 21
0.3077952756
 31
0.0
  0
LINE
  5
444
330
38C
100
AcDbEntity
  8
0
  6
Continuous
 62
     7
370
    25
100
AcDbLine
 10
0.2700559589
 20
0.3117322835
 30
0.0
 11
0.2700559589
 21
0.4574015748
 31
0.0
  0
LINE
  5
445
330
38C
100
AcDbEntity
  8
0
  6
Continuous
 62
     7
370
    25
100
AcDbLine
 10
0.2700559589
 20
0.4574015748
 30
0.0
 11
0.2756237288
 21
0.4574015748
 31
0.0
  0
ARC
  5
446
330
38C
100
AcDbEntity
  8
0
  6
Continuous
 62
     7
370
    25
100
AcDbCircle
 10
0.2770156713
 20
0.4583858268
 30
0.0
 40
0.0070289649887241
100
AcDbArc
 50
101.421753659
 51
188.0494669755
  0
LINE
  5
447
330
38C
100
AcDbEntity
  8
0
  6
Continuous
 62
     7
370
    25
100
AcDbLine
 10
0.2756237288
 20
0.4652755906
 30
0.0
 11
0.2756237288
 21
0.4574015748
 31
0.0
  0
LINE
  5
448
330
38C
100
AcDbEntity
  8
0
  6
Continuous
 62
     7
370
    25
100
AcDbLine
 10
1.5735433071
 20
0.2999212598
 30
0.0
 11
1.5735433071
 21
0.3038582677
 31
0.0
  0
LINE
  5
449
330
38C
100
AcDbEntity
  8
0
  6
Continuous
 62
     7
370
    25
100
AcDbLine
 10
1.5735433071
 20
0.3038582677
 30
0.0
 11
1.577480315
 21
0.3038582677
 31
0.0
  0
LINE
  5
44A
330
38C
100
AcDbEntity
  8
0
  6
Continuous
 62
     7
370
    25
100
AcDbLine
 10
1.4111417323
 20
0.3038582677
 30
0.0
 11
1.4111417323
 21
0.2999212598
 31
0.0
  0
LINE
  5
44B
330
38C
100
AcDbEntity
  8
0
  6
Continuous
 62
     7
370
    25
100
AcDbLine
 10
1.4111417323
 20
0.2999212598
 30
0.0
 11
1.4072047244
 21
0.2999212598
 31
0.0
  0
ARC
  5
44C
330
38C
100
AcDbEntity
  8
0
  6
Continuous
 62
     7
370
    25
100
AcDbCircle
 10
0.5814173228
 20
0.2999212598
 30
0.0
 40
0.0039370078740159
100
AcDbArc
 50
180.0
 51
270.0
  0
LINE
  5
44D
330
38C
100
AcDbEntity
  8
0
  6
Continuous
 62
     7
370
    25
100
AcDbLine
 10
0.5814173228
 20
0.2999212598
 30
0.0
 11
0.577480315
 21
0.2999212598
 31
0.0
  0
LINE
  5
44E
330
38C
100
AcDbEntity
  8
0
  6
Continuous
 62
     7
370
    25
100
AcDbLine
 10
0.5814173228
 20
0.2999212598
 30
0.0
 11
0.5814173228
 21
0.295984252
 31
0.0
  0
LINE
  5
44F
330
38C
100
AcDbEntity
  8
0
  6
Continuous
 62
     7
370
    25
100
AcDbLine
 10
1.2861417323
 20
0.295984252
 30
0.0
 11
1.2861417323
 21
0.2999212598
 31
0.0
  0
LINE
  5
450
330
38C
100
AcDbEntity
  8
0
  6
Continuous
 62
     7
370
    25
100
AcDbLine
 10
1.3333858268
 20
0.295984252
 30
0.0
 11
1.3333858268
 21
0.2999212598
 31
0.0
  0
LINE
  5
451
330
38C
100
AcDbEntity
  8
0
  6
Continuous
 62
     7
370
    25
100
AcDbLine
 10
0.3373228346
 20
0.3038582677
 30
0.0
 11
0.3412598425
 21
0.3038582677
 31
0.0
  0
LINE
  5
452
330
38C
100
AcDbEntity
  8
0
  6
Continuous
 62
     7
370
    25
100
AcDbLine
 10
0.3412598425
 20
0.3038582677
 30
0.0
 11
0.3412598425
 21
0.2999212598
 31
0.0
  0
LINE
  5
453
330
38C
100
AcDbEntity
  8
0
  6
Continuous
 62
     7
370
    25
100
AcDbLine
 10
0.3373228346
 20
0.2999212598
 30
0.0
 11
0.3412598425
 21
0.2999212598
 31
0.0
  0
ARC
  5
454
330
38C
100
AcDbEntity
  8
0
  6
Continuous
 62
     7
370
    25
100
AcDbCircle
 10
1.5696062992
 20
0.3038582677
 30
0.0
 40
0.0039370078740159
100
AcDbArc
 50
0.0
 51
90.0
  0
LINE
  5
455
330
38C
100
AcDbEntity
  8
0
  6
Continuous
 62
     7
370
    25
100
AcDbLine
 10
1.5696062992
 20
0.3077952756
 30
0.0
 11
1.5696062992
 21
0.3117322835
 31
0.0
  0
LINE
  5
456
330
38C
100
AcDbEntity
  8
0
  6
Continuous
 62
     7
370
    25
100
AcDbLine
 10
0.5075984252
 20
0.2999212598
 30
0.0
 11
0.5036614173
 21
0.2999212598
 31
0.0
  0
LINE
  5
457
330
38C
100
AcDbEntity
  8
0
  6
Continuous
 62
     7
370
    25
100
AcDbLine
 10
0.5036614173
 20
0.2999212598
 30
0.0
 11
0.5036614173
 21
0.3038582677
 31
0.0
  0
LINE
  5
458
330
38C
100
AcDbEntity
  8
0
  6
Continuous
 62
     7
370
    25
100
AcDbLine
 10
1.4072047244
 20
0.295984252
 30
0.0
 11
1.4072047244
 21
0.2999212598
 31
0.0
  0
ARC
  5
459
330
38C
100
AcDbEntity
  8
0
  6
Continuous
 62
     7
370
    25
100
AcDbCircle
 10
1.4072047244
 20
0.2999212598
 30
0.0
 40
0.0039370078740159
100
AcDbArc
 50
270.0
 51
0.0
  0
LINE
  5
45A
330
38C
100
AcDbEntity
  8
0
  6
Continuous
 62
     7
370
    25
100
AcDbLine
 10
1.6447471907
 20
0.4574015748
 30
0.0
 11
1.6391794208
 21
0.4574015748
 31
0.0
  0
LINE
  5
45B
330
38C
100
AcDbEntity
  8
0
  6
Continuous
 62
     7
370
    25
100
AcDbLine
 10
1.6391794208
 20
0.4574015748
 30
0.0
 11
1.6391794208
 21
0.4652755906
 31
0.0
  0
ARC
  5
45C
330
38C
100
AcDbEntity
  8
0
  6
Continuous
 62
     7
370
    25
100
AcDbCircle
 10
1.6377874783
 20
0.4583858268
 30
0.0
 40
0.0070289649887249
100
AcDbArc
 50
351.9505330245
 51
78.578246341
  0
LINE
  5
45D
330
38C
100
AcDbEntity
  8
0
  6
Continuous
 62
     7
370
    25
100
AcDbLine
 10
1.6447471907
 20
0.4574015748
 30
0.0
 11
1.6447471907
 21
0.3117322835
 31
0.0
  0
LINE
  5
45E
330
38C
100
AcDbEntity
  8
0
  6
Continuous
 62
     7
370
    25
100
AcDbLine
 10
1.6447471907
 20
0.3117322835
 30
0.0
 11
1.6391794208
 21
0.3117322835
 31
0.0
  0
ARC
  5
45F
330
38C
100
AcDbEntity
  8
0
  6
Continuous
 62
     7
370
    25
100
AcDbCircle
 10
0.5075984252
 20
0.2999212598
 30
0.0
 40
0.0039370078740159
100
AcDbArc
 50
180.0
 51
270.0
  0
LINE
  5
460
330
38C
100
AcDbEntity
  8
0
  6
Continuous
 62
     7
370
    25
100
AcDbLine
 10
0.5075984252
 20
0.2999212598
 30
0.0
 11
0.5075984252
 21
0.295984252
 31
0.0
  0
LINE
  5
461
330
38C
100
AcDbEntity
  8
0
  6
Continuous
 62
     7
370
    25
100
AcDbLine
 10
1.356023622
 20
0.295984252
 30
0.0
 11
1.356023622
 21
0.2999212598
 31
0.0
  0
LINE
  5
462
330
38C
100
AcDbEntity
  8
0
  6
Continuous
 62
     7
370
    25
100
AcDbLine
 10
0.5275922328
 20
0.544015748
 30
0.0
 11
1.3872109168
 21
0.544015748
 31
0.0
  0
LINE
  5
463
330
38C
100
AcDbEntity
  8
0
  6
Continuous
 62
     7
370
    25
100
AcDbLine
 10
1.3872109168
 20
0.5361417323
 30
0.0
 11
1.3872109168
 21
0.544015748
 31
0.0
  0
LINE
  5
464
330
38C
100
AcDbEntity
  8
0
  6
Continuous
 62
     7
370
    25
100
AcDbLine
 10
0.5275922328
 20
0.5361417323
 30
0.0
 11
0.5275922328
 21
0.544015748
 31
0.0
  0
LINE
  5
465
330
38C
100
AcDbEntity
  8
0
  6
Continuous
 62
     7
370
    25
100
AcDbLine
 10
0.5275922328
 20
0.5361417323
 30
0.0
 11
0.5220244628
 21
0.5417095022
 31
0.0
  0
ARC
  5
466
330
38C
100
AcDbEntity
  8
0
  6
Continuous
 62
     7
370
    25
100
AcDbCircle
 10
0.5275922328
 20
0.5361417323
 30
0.0
 40
0.0078740157480318
100
AcDbArc
 50
90.0
 51
135.0
  0
LINE
  5
467
330
38C
100
AcDbEntity
  8
0
  6
Continuous
 62
     7
370
    25
100
AcDbLine
 10
0.3520866142
 20
0.3117322835
 30
0.0
 11
0.3520866142
 21
0.3077952756
 31
0.0
  0
LINE
  5
468
330
38C
100
AcDbEntity
  8
0
  6
Continuous
 62
     7
370
    25
100
AcDbLine
 10
0.3520866142
 20
0.3077952756
 30
0.0
 11
0.3451968504
 21
0.3077952756
 31
0.0
  0
LINE
  5
469
330
38C
100
AcDbEntity
  8
0
  6
Continuous
 62
     7
370
    25
100
AcDbLine
 10
0.3451968504
 20
0.3117322835
 30
0.0
 11
0.3451968504
 21
0.3077952756
 31
0.0
  0
ARC
  5
46A
330
38C
100
AcDbEntity
  8
0
  6
Continuous
 62
     7
370
    25
100
AcDbCircle
 10
1.5627165354
 20
0.3038582677
 30
0.0
 40
0.003937007874016
100
AcDbArc
 50
90.0
 51
180.0
  0
LINE
  5
46B
330
38C
100
AcDbEntity
  8
0
  6
Continuous
 62
     7
370
    25
100
AcDbLine
 10
1.5587795276
 20
0.3038582677
 30
0.0
 11
1.5548425197
 21
0.3038582677
 31
0.0
  0
LINE
  5
46C
330
38C
100
AcDbEntity
  8
0
  6
Continuous
 62
     7
370
    25
100
AcDbLine
 10
1.5627165354
 20
0.3077952756
 30
0.0
 11
1.5627165354
 21
0.3117322835
 31
0.0
  0
LINE
  5
46D
330
38C
100
AcDbEntity
  8
0
  6
Continuous
 62
     7
370
    25
100
AcDbLine
 10
0.5587795276
 20
0.2999212598
 30
0.0
 11
0.5587795276
 21
0.295984252
 31
0.0
  0
LINE
  5
46E
330
38C
100
AcDbEntity
  8
0
  6
Continuous
 62
     7
370
    25
100
AcDbLine
 10
1.3520866142
 20
0.2999212598
 30
0.0
 11
1.356023622
 21
0.2999212598
 31
0.0
  0
ARC
  5
46F
330
38C
100
AcDbEntity
  8
0
  6
Continuous
 62
     7
370
    25
100
AcDbCircle
 10
1.356023622
 20
0.2999212598
 30
0.0
 40
0.0039370078740159
100
AcDbArc
 50
180.0
 51
270.0
  0
LINE
  5
470
330
38C
100
AcDbEntity
  8
0
  6
Continuous
 62
     7
370
    25
100
AcDbLine
 10
0.3599606299
 20
0.3038582677
 30
0.0
 11
0.356023622
 21
0.3038582677
 31
0.0
  0
ARC
  5
471
330
38C
100
AcDbEntity
  8
0
  6
Continuous
 62
     7
370
    25
100
AcDbCircle
 10
0.3520866142
 20
0.3038582677
 30
0.0
 40
0.0039370078740159
100
AcDbArc
 50
0.0
 51
90.0
  0
LINE
  5
472
330
38C
100
AcDbEntity
  8
0
  6
Continuous
 62
     7
370
    25
100
AcDbLine
 10
1.5587795276
 20
0.3038582677
 30
0.0
 11
1.5587795276
 21
0.2999212598
 31
0.0
  0
LINE
  5
473
330
38C
100
AcDbEntity
  8
0
  6
Continuous
 62
     7
370
    25
100
AcDbLine
 10
1.5587795276
 20
0.2999212598
 30
0.0
 11
1.5548425197
 21
0.2999212598
 31
0.0
  0
ARC
  5
474
330
38C
100
AcDbEntity
  8
0
  6
Continuous
 62
     7
370
    25
100
AcDbCircle
 10
0.5587795276
 20
0.2999212598
 30
0.0
 40
0.0039370078740159
100
AcDbArc
 50
270.0
 51
0.0
  0
LINE
  5
475
330
38C
100
AcDbEntity
  8
0
  6
Continuous
 62
     7
370
    25
100
AcDbLine
 10
0.5587795276
 20
0.2999212598
 30
0.0
 11
0.5627165354
 21
0.2999212598
 31
0.0
  0
LINE
  5
476
330
38C
100
AcDbEntity
  8
0
  6
Continuous
 62
     7
370
    25
100
AcDbLine
 10
1.3520866142
 20
0.2999212598
 30
0.0
 11
1.3520866142
 21
0.3038582677
 31
0.0
  0
LINE
  5
477
330
38C
100
AcDbEntity
  8
0
  6
Continuous
 62
     7
370
    25
100
AcDbLine
 10
1.3520866142
 20
0.3038582677
 30
0.0
 11
1.356023622
 21
0.3038582677
 31
0.0
  0
LINE
  5
478
330
38C
100
AcDbEntity
  8
0
  6
Continuous
 62
     7
370
    25
100
AcDbLine
 10
0.2881102362
 20
0.3077952756
 30
0.0
 11
0.2756237288
 21
0.3077952756
 31
0.0
  0
LINE
  5
479
330
38C
100
AcDbEntity
  8
0
  6
Continuous
 62
     7
370
    25
100
AcDbLine
 10
0.6365354331
 20
0.3077952756
 30
0.0
 11
0.6365354331
 21
0.3117322835
 31
0.0
  0
ARC
  5
47A
330
38C
100
AcDbEntity
  8
0
  6
Continuous
 62
     7
370
    25
100
AcDbCircle
 10
0.6365354331
 20
0.3038582677
 30
0.0
 40
0.0039370078740159
100
AcDbArc
 50
90.0
 51
180.0
  0
LINE
  5
47B
330
38C
100
AcDbEntity
  8
0
  6
Continuous
 62
     7
370
    25
100
AcDbLine
 10
0.6286614173
 20
0.3038582677
 30
0.0
 11
0.6325984252
 21
0.3038582677
 31
0.0
  0
LINE
  5
47C
330
38C
100
AcDbEntity
  8
0
  6
Continuous
 62
     7
370
    25
100
AcDbLine
 10
0.3599606299
 20
0.2999212598
 30
0.0
 11
0.356023622
 21
0.2999212598
 31
0.0
  0
LINE
  5
47D
330
38C
100
AcDbEntity
  8
0
  6
Continuous
 62
     7
370
    25
100
AcDbLine
 10
0.356023622
 20
0.2999212598
 30
0.0
 11
0.356023622
 21
0.3038582677
 31
0.0
  0
LINE
  5
47E
330
38C
100
AcDbEntity
  8
0
  6
Continuous
 62
     7
370
    25
100
AcDbLine
 10
1.5548425197
 20
0.295984252
 30
0.0
 11
1.5548425197
 21
0.2999212598
 31
0.0
  0
ARC
  5
47F
330
38C
100
AcDbEntity
  8
0
  6
Continuous
 62
     7
370
    25
100
AcDbCircle
 10
1.5548425197
 20
0.2999212598
 30
0.0
 40
0.0039370078740159
100
AcDbArc
 50
270.0
 51
0.0
  0
LINE
  5
480
330
38C
100
AcDbEntity
  8
0
  6
Continuous
 62
     7
370
    25
100
AcDbLine
 10
0.5587795276
 20
0.3038582677
 30
0.0
 11
0.5627165354
 21
0.3038582677
 31
0.0
  0
LINE
  5
481
330
38C
100
AcDbEntity
  8
0
  6
Continuous
 62
     7
370
    25
100
AcDbLine
 10
0.5627165354
 20
0.3038582677
 30
0.0
 11
0.5627165354
 21
0.2999212598
 31
0.0
  0
ARC
  5
482
330
38C
100
AcDbEntity
  8
0
  6
Continuous
 62
     7
370
    25
100
AcDbCircle
 10
1.3481496063
 20
0.3038582677
 30
0.0
 40
0.0039370078740159
100
AcDbArc
 50
0.0
 51
90.0
  0
ARC
  5
483
330
38C
100
AcDbEntity
  8
0
  6
Continuous
 62
     7
370
    25
100
AcDbCircle
 10
0.3599606299
 20
0.2999212598
 30
0.0
 40
0.0039370078740159
100
AcDbArc
 50
180.0
 51
270.0
  0
LINE
  5
484
330
38C
100
AcDbEntity
  8
0
  6
Continuous
 62
     7
370
    25
100
AcDbLine
 10
0.3599606299
 20
0.2999212598
 30
0.0
 11
0.3599606299
 21
0.295984252
 31
0.0
  0
LINE
  5
485
330
38C
100
AcDbEntity
  8
0
  6
Continuous
 62
     7
370
    25
100
AcDbLine
 10
1.5036614173
 20
0.295984252
 30
0.0
 11
1.5036614173
 21
0.2999212598
 31
0.0
  0
LINE
  5
486
330
38C
100
AcDbEntity
  8
0
  6
Continuous
 62
     7
370
    25
100
AcDbLine
 10
0.5666535433
 20
0.3117322835
 30
0.0
 11
0.5666535433
 21
0.3077952756
 31
0.0
  0
ARC
  5
487
330
38C
100
AcDbEntity
  8
0
  6
Continuous
 62
     7
370
    25
100
AcDbCircle
 10
0.5666535433
 20
0.3038582677
 30
0.0
 40
0.0039370078740159
100
AcDbArc
 50
90.0
 51
180.0
  0
LINE
  5
488
330
38C
100
AcDbEntity
  8
0
  6
Continuous
 62
     7
370
    25
100
AcDbLine
 10
0.5069519151
 20
0.5266369545
 30
0.0
 11
0.512519685
 21
0.5210691845
 31
0.0
  0
LINE
  5
489
330
38C
100
AcDbEntity
  8
0
  6
Continuous
 62
     7
370
    25
100
AcDbLine
 10
0.5046456693
 20
0.5210691845
 30
0.0
 11
0.512519685
 21
0.5210691845
 31
0.0
  0
ARC
  5
48A
330
38C
100
AcDbEntity
  8
0
  6
Continuous
 62
     7
370
    25
100
AcDbCircle
 10
0.512519685
 20
0.5210691845
 30
0.0
 40
0.0078740157480315
100
AcDbArc
 50
135.0
 51
180.0
  0
LINE
  5
48B
330
38C
100
AcDbEntity
  8
0
  6
Continuous
 62
     7
370
    25
100
AcDbLine
 10
0.6286614173
 20
0.2999212598
 30
0.0
 11
0.6286614173
 21
0.295984252
 31
0.0
  0
LINE
  5
48C
330
38C
100
AcDbEntity
  8
0
  6
Continuous
 62
     7
370
    25
100
AcDbLine
 10
1.2822047244
 20
0.2999212598
 30
0.0
 11
1.2861417323
 21
0.2999212598
 31
0.0
  0
ARC
  5
48D
330
38C
100
AcDbEntity
  8
0
  6
Continuous
 62
     7
370
    25
100
AcDbCircle
 10
1.2861417323
 20
0.2999212598
 30
0.0
 40
0.0039370078740159
100
AcDbArc
 50
180.0
 51
270.0
  0
LINE
  5
48E
330
38C
100
AcDbEntity
  8
0
  6
Continuous
 62
     7
370
    25
100
AcDbLine
 10
0.4111417323
 20
0.2999212598
 30
0.0
 11
0.4111417323
 21
0.295984252
 31
0.0
  0
LINE
  5
48F
330
38C
100
AcDbEntity
  8
0
  6
Continuous
 62
     7
370
    25
100
AcDbLine
 10
1.4997244094
 20
0.2999212598
 30
0.0
 11
1.5036614173
 21
0.2999212598
 31
0.0
  0
ARC
  5
490
330
38C
100
AcDbEntity
  8
0
  6
Continuous
 62
     7
370
    25
100
AcDbCircle
 10
1.5036614173
 20
0.2999212598
 30
0.0
 40
0.0039370078740159
100
AcDbArc
 50
180.0
 51
270.0
  0
LINE
  5
491
330
38C
100
AcDbEntity
  8
0
  6
Continuous
 62
     7
370
    25
100
AcDbLine
 10
0.5735433071
 20
0.3077952756
 30
0.0
 11
0.5666535433
 21
0.3077952756
 31
0.0
  0
ARC
  5
492
330
38C
100
AcDbEntity
  8
0
  6
Continuous
 62
     7
370
    25
100
AcDbCircle
 10
1.3412598425
 20
0.3038582677
 30
0.0
 40
0.0039370078740159
100
AcDbArc
 50
90.0
 51
180.0
  0
ARC
  5
493
330
38C
100
AcDbEntity
  8
0
  6
Continuous
 62
     7
370
    25
100
AcDbCircle
 10
0.4111417323
 20
0.2999212598
 30
0.0
 40
0.0039370078740159
100
AcDbArc
 50
270.0
 51
0.0
  0
LINE
  5
494
330
38C
100
AcDbEntity
  8
0
  6
Continuous
 62
     7
370
    25
100
AcDbLine
 10
1.4997244094
 20
0.2999212598
 30
0.0
 11
1.4997244094
 21
0.3038582677
 31
0.0
  0
LINE
  5
495
330
38C
100
AcDbEntity
  8
0
  6
Continuous
 62
     7
370
    25
100
AcDbLine
 10
0.4337795276
 20
0.2999212598
 30
0.0
 11
0.4298425197
 21
0.2999212598
 31
0.0
  0
LINE
  5
496
330
38C
100
AcDbEntity
  8
0
  6
Continuous
 62
     7
370
    25
100
AcDbLine
 10
0.4298425197
 20
0.2999212598
 30
0.0
 11
0.4298425197
 21
0.3038582677
 31
0.0
  0
LINE
  5
497
330
38C
100
AcDbEntity
  8
0
  6
Continuous
 62
     7
370
    25
100
AcDbLine
 10
0.4337795276
 20
0.3038582677
 30
0.0
 11
0.4298425197
 21
0.3038582677
 31
0.0
  0
LINE
  5
498
330
38C
100
AcDbEntity
  8
0
  6
Continuous
 62
     7
370
    25
100
AcDbLine
 10
1.481023622
 20
0.295984252
 30
0.0
 11
1.481023622
 21
0.2999212598
 31
0.0
  0
LINE
  5
499
330
38C
100
AcDbEntity
  8
0
  6
Continuous
 62
     7
370
    25
100
AcDbLine
 10
1.4849606299
 20
0.2999212598
 30
0.0
 11
1.481023622
 21
0.2999212598
 31
0.0
  0
ARC
  5
49A
330
38C
100
AcDbEntity
  8
0
  6
Continuous
 62
     7
370
    25
100
AcDbCircle
 10
1.481023622
 20
0.2999212598
 30
0.0
 40
0.0039370078740159
100
AcDbArc
 50
270.0
 51
0.0
  0
LINE
  5
49B
330
38C
100
AcDbEntity
  8
0
  6
Continuous
 62
     7
370
    25
100
AcDbLine
 10
0.6325984252
 20
0.3038582677
 30
0.0
 11
0.6325984252
 21
0.2999212598
 31
0.0
  0
LINE
  5
49C
330
38C
100
AcDbEntity
  8
0
  6
Continuous
 62
     7
370
    25
100
AcDbLine
 10
0.6286614173
 20
0.2999212598
 30
0.0
 11
0.6325984252
 21
0.2999212598
 31
0.0
  0
LINE
  5
49D
330
38C
100
AcDbEntity
  8
0
  6
Continuous
 62
     7
370
    25
100
AcDbLine
 10
1.2782677165
 20
0.3077952756
 30
0.0
 11
0.6365354331
 21
0.3077952756
 31
0.0
  0
LINE
  5
49E
330
38C
100
AcDbEntity
  8
0
  6
Continuous
 62
     7
370
    25
100
AcDbLine
 10
1.2782677165
 20
0.3117322835
 30
0.0
 11
1.2782677165
 21
0.3077952756
 31
0.0
  0
LINE
  5
49F
330
38C
100
AcDbEntity
  8
0
  6
Continuous
 62
     7
370
    25
100
AcDbLine
 10
1.2822047244
 20
0.3038582677
 30
0.0
 11
1.2861417323
 21
0.3038582677
 31
0.0
  0
ARC
  5
4A0
330
38C
100
AcDbEntity
  8
0
  6
Continuous
 62
     7
370
    25
100
AcDbCircle
 10
1.2782677165
 20
0.3038582677
 30
0.0
 40
0.0039370078740159
100
AcDbArc
 50
0.0
 51
90.0
  0
LINE
  5
4A1
330
38C
100
AcDbEntity
  8
0
  6
Continuous
 62
     7
370
    25
100
AcDbLine
 10
1.4180314961
 20
0.4574015748
 30
0.0
 11
1.4180314961
 21
0.4652755906
 31
0.0
  0
LINE
  5
4A2
330
38C
100
AcDbEntity
  8
0
  6
Continuous
 62
     7
370
    25
100
AcDbLine
 10
1.4180314961
 20
0.4652755906
 30
0.0
 11
1.6391794208
 21
0.4652755906
 31
0.0
  0
LINE
  5
4A3
330
38C
100
AcDbEntity
  8
0
  6
Continuous
 62
     7
370
    25
100
AcDbLine
 10
0.577480315
 20
0.2999212598
 30
0.0
 11
0.577480315
 21
0.3038582677
 31
0.0
  0
ARC
  5
4A4
330
38C
100
AcDbEntity
  8
0
  6
Continuous
 62
     7
370
    25
100
AcDbCircle
 10
1.3333858268
 20
0.2999212598
 30
0.0
 40
0.0039370078740159
100
AcDbArc
 50
270.0
 51
0.0
  0
ARC
  5
4A5
330
38C
100
AcDbEntity
  8
0
  6
Continuous
 62
     7
370
    25
100
AcDbCircle
 10
1.6266929134
 20
0.3038582677
 30
0.0
 40
0.0039370078740159
100
AcDbArc
 50
90.0
 51
180.0
  0
LINE
  5
4A6
330
38C
100
AcDbEntity
  8
0
  6
Continuous
 62
     7
370
    25
100
AcDbLine
 10
1.6266929134
 20
0.3077952756
 30
0.0
 11
1.6266929134
 21
0.3117322835
 31
0.0
  0
LINE
  5
4A7
330
38C
100
AcDbEntity
  8
0
  6
Continuous
 62
     7
370
    25
100
AcDbLine
 10
1.2822047244
 20
0.2999212598
 30
0.0
 11
1.2822047244
 21
0.3038582677
 31
0.0
  0
ARC
  5
4A8
330
38C
100
AcDbEntity
  8
0
  6
Continuous
 62
     7
370
    25
100
AcDbCircle
 10
1.4888976378
 20
0.3038582677
 30
0.0
 40
0.0039370078740159
100
AcDbArc
 50
90.0
 51
180.0
  0
LINE
  5
4A9
330
38C
100
AcDbEntity
  8
0
  6
Continuous
 62
     7
370
    25
100
AcDbLine
 10
1.4849606299
 20
0.3038582677
 30
0.0
 11
1.481023622
 21
0.3038582677
 31
0.0
  0
ARC
  5
4AA
330
38C
100
AcDbEntity
  8
0
  6
Continuous
 62
     7
370
    25
100
AcDbCircle
 10
0.3451968504
 20
0.3038582677
 30
0.0
 40
0.0039370078740159
100
AcDbArc
 50
90.0
 51
180.0
  0
LINE
  5
4AB
330
38C
100
AcDbEntity
  8
0
  6
Continuous
 62
     7
370
    25
100
AcDbLine
 10
0.5046456693
 20
0.4731496063
 30
0.0
 11
0.5046456693
 21
0.5210691845
 31
0.0
  0
LINE
  5
4AC
330
38C
100
AcDbEntity
  8
0
  6
Continuous
 62
     7
370
    25
100
AcDbLine
 10
1.4849606299
 20
0.3038582677
 30
0.0
 11
1.4849606299
 21
0.2999212598
 31
0.0
  0
LINE
  5
4AD
330
38C
100
AcDbEntity
  8
0
  6
Continuous
 62
     7
370
    25
100
AcDbLine
 10
0.4259055118
 20
0.3117322835
 30
0.0
 11
0.4259055118
 21
0.3077952756
 31
0.0
  0
LINE
  5
4AE
330
38C
100
AcDbEntity
  8
0
  6
Continuous
 62
     7
370
    25
100
AcDbLine
 10
0.4259055118
 20
0.3077952756
 30
0.0
 11
0.419015748
 21
0.3077952756
 31
0.0
  0
ARC
  5
4AF
330
38C
100
AcDbEntity
  8
0
  6
Continuous
 62
     7
370
    25
100
AcDbCircle
 10
0.4259055118
 20
0.3038582677
 30
0.0
 40
0.0039370078740159
100
AcDbArc
 50
0.0
 51
90.0
  0
ARC
  5
4B0
330
38C
100
AcDbEntity
  8
0
  6
Continuous
 62
     7
370
    25
100
AcDbCircle
 10
0.4337795276
 20
0.2999212598
 30
0.0
 40
0.0039370078740159
100
AcDbArc
 50
180.0
 51
270.0
  0
LINE
  5
4B1
330
38C
100
AcDbEntity
  8
0
  6
Continuous
 62
     7
370
    25
100
AcDbLine
 10
0.5069519151
 20
0.5266369545
 30
0.0
 11
0.5220244628
 21
0.5417095022
 31
0.0
  0
LINE
  5
4B2
330
38C
100
AcDbEntity
  8
0
  6
Continuous
 62
     7
370
    25
100
AcDbLine
 10
1.4078512345
 20
0.5266369545
 30
0.0
 11
1.4022834646
 21
0.5210691845
 31
0.0
  0
ARC
  5
4B3
330
38C
100
AcDbEntity
  8
0
  6
Continuous
 62
     7
370
    25
100
AcDbCircle
 10
1.4022834646
 20
0.5210691845
 30
0.0
 40
0.0078740157480315
100
AcDbArc
 50
0.0
 51
45.0
  0
ARC
  5
4B4
330
38C
100
AcDbEntity
  8
0
  6
Continuous
 62
     7
370
    25
100
AcDbCircle
 10
1.4180314961
 20
0.4731496063
 30
0.0
 40
0.0078740157480318
100
AcDbArc
 50
180.0
 51
270.0
  0
ARC
  5
4B5
330
38C
100
AcDbEntity
  8
0
  6
Continuous
 62
     7
370
    25
100
AcDbCircle
 10
0.6286614173
 20
0.2999212598
 30
0.0
 40
0.0039370078740159
100
AcDbArc
 50
270.0
 51
0.0
  0
LINE
  5
4B6
330
38C
100
AcDbEntity
  8
0
  6
Continuous
 62
     7
370
    25
100
AcDbLine
 10
1.6391794208
 20
0.3077952756
 30
0.0
 11
1.6419633057
 21
0.3077952756
 31
0.0
  0
LINE
  5
4B7
330
38C
100
AcDbEntity
  8
0
  6
Continuous
 62
     7
370
    25
100
AcDbLine
 10
1.6391794208
 20
0.3077952756
 30
0.0
 11
1.6391794208
 21
0.3117322835
 31
0.0
  0
ARC
  5
4B8
330
38C
100
AcDbEntity
  8
0
  6
Continuous
 62
     7
370
    25
100
AcDbCircle
 10
1.6412673345
 20
0.3112401575
 30
0.0
 40
0.0035144824943629
100
AcDbArc
 50
281.421753659
 51
8.0494669755
  0
LINE
  5
4B9
330
38C
100
AcDbEntity
  8
0
  6
Continuous
 62
     7
370
    25
100
AcDbLine
 10
1.6391794208
 20
0.3077952756
 30
0.0
 11
1.6266929134
 21
0.3077952756
 31
0.0
  0
LINE
  5
4BA
330
38C
100
AcDbEntity
  8
0
  6
Continuous
 62
     7
370
    25
100
AcDbLine
 10
1.3927786868
 20
0.5417095022
 30
0.0
 11
1.3872109168
 21
0.5361417323
 31
0.0
  0
LINE
  5
4BB
330
38C
100
AcDbEntity
  8
0
  6
Continuous
 62
     7
370
    25
100
AcDbLine
 10
1.3927786868
 20
0.5417095022
 30
0.0
 11
1.4078512345
 21
0.5266369545
 31
0.0
  0
ARC
  5
4BC
330
38C
100
AcDbEntity
  8
0
  6
Continuous
 62
     7
370
    25
100
AcDbCircle
 10
1.3872109168
 20
0.5361417323
 30
0.0
 40
0.0078740157480318
100
AcDbArc
 50
45.0
 51
90.0
  0
LINE
  5
4BD
330
38C
100
AcDbEntity
  8
0
  6
Continuous
 62
     7
370
    25
100
AcDbLine
 10
1.5696062992
 20
0.3077952756
 30
0.0
 11
1.5627165354
 21
0.3077952756
 31
0.0
  0
ARC
  5
4BE
330
38C
100
AcDbEntity
  8
0
  6
Continuous
 62
     7
370
    25
100
AcDbCircle
 10
0.3373228346
 20
0.2999212598
 30
0.0
 40
0.0039370078740159
100
AcDbArc
 50
270.0
 51
0.0
  0
LINE
  5
4BF
330
38C
100
AcDbEntity
  8
0
  6
Continuous
 62
     7
370
    25
100
AcDbLine
 10
0.2756237288
 20
0.4652755906
 30
0.0
 11
0.4967716535
 21
0.4652755906
 31
0.0
  0
ARC
  5
4C0
330
38C
100
AcDbEntity
  8
0
  6
Continuous
 62
     7
370
    25
100
AcDbCircle
 10
0.2740529632
 20
0.4601854598
 30
0.0
 40
0.0048709402297431
100
AcDbArc
 50
145.1430638682
 51
214.8569361318
  0
ARC
  5
4C1
330
38C
100
AcDbEntity
  8
0
  6
Continuous
 62
     7
370
    25
100
AcDbCircle
 10
0.2756237288
 20
0.4574015748
 30
0.0
 40
0.0078740157480317
100
AcDbArc
 50
90.0
 51
135.0
  0
ARC
  5
4C2
330
38C
100
AcDbEntity
  8
0
  6
Continuous
 62
     7
370
    25
100
AcDbCircle
 10
1.6391794208
 20
0.4574015748
 30
0.0
 40
0.0078740157480317
100
AcDbArc
 50
45.0
 51
90.0
  0
ARC
  5
4C3
330
38C
100
AcDbEntity
  8
0
  6
Continuous
 62
     7
370
    25
100
AcDbCircle
 10
1.6407501864
 20
0.4601854598
 30
0.0
 40
0.0048709402297432
100
AcDbArc
 50
325.1430638682
 51
34.8569361318
  0
LINE
  5
4C4
330
38C
100
AcDbEntity
  8
0
  6
Continuous
 62
     7
370
    25
100
AcDbLine
 10
0.2728398439
 20
0.3077952756
 30
0.0
 11
0.2577672961
 21
0.3077952756
 31
0.0
  0
ARC
  5
4C5
330
38C
100
AcDbEntity
  8
0
  6
Continuous
 62
     7
370
    25
100
AcDbCircle
 10
0.2584632674
 20
0.3112401575
 30
0.0
 40
0.0035144824943627
100
AcDbArc
 50
171.9505330245
 51
258.578246341
  0
LINE
  5
4C6
330
38C
100
AcDbEntity
  8
0
  6
Continuous
 62
     7
370
    25
100
AcDbLine
 10
0.2549834112
 20
0.3117322835
 30
0.0
 11
0.2700559589
 21
0.3117322835
 31
0.0
  0
ARC
  5
4C7
330
38C
100
AcDbEntity
  8
0
  6
Continuous
 62
     7
370
    25
100
AcDbCircle
 10
1.6563398822
 20
0.3112401575
 30
0.0
 40
0.0035144824943617
100
AcDbArc
 50
281.421753659
 51
8.0494669755
  0
LINE
  5
4C8
330
38C
100
AcDbEntity
  8
0
  6
Continuous
 62
     7
370
    25
100
AcDbLine
 10
1.6570358535
 20
0.3077952756
 30
0.0
 11
1.6419633057
 21
0.3077952756
 31
0.0
  0
LINE
  5
4C9
330
38C
100
AcDbEntity
  8
0
  6
Continuous
 62
     7
370
    25
100
AcDbLine
 10
1.6447471907
 20
0.3117322835
 30
0.0
 11
1.6598197384
 21
0.3117322835
 31
0.0
  0
LINE
  5
4CA
330
38C
100
AcDbEntity
  8
0
  6
Continuous
 62
     7
370
    25
100
AcDbLine
 10
1.6447471907
 20
0.4629693447
 30
0.0
 11
1.6609728613
 21
0.4467436741
 31
0.0
  0
ELLIPSE
  5
4CB
330
38C
100
AcDbEntity
  8
0
  6
Continuous
 62
     7
370
    25
100
AcDbEllipse
 10
1.6581889764
 20
0.4383920192
 30
0.0
 11
0.002568979441897934
 21
0.008484762714533578
 31
0.0
210
0.0
220
0.0
230
1.0
 40
0.2277350773
 41
5.900103982332499
 42
6.161903370132051
  0
ELLIPSE
  5
4CC
330
38C
100
AcDbEntity
  8
0
  6
Continuous
 62
     7
370
    25
100
AcDbEllipse
 10
1.6542519685
 20
0.4423290271
 30
0.0
 11
0.006825478561349296
 21
0.004248877260329575
 31
0.0
210
0.0
220
0.0
230
1.0
 40
0.452423454
 41
5.340864086945036
 42
6.126262250342332
  0
LINE
  5
4CD
330
38C
100
AcDbEntity
  8
0
  6
Continuous
 62
     7
370
    25
100
AcDbLine
 10
1.6598197384
 20
0.4423290271
 30
0.0
 11
1.6447471907
 21
0.4574015748
 31
0.0
  0
LINE
  5
4CE
330
38C
100
AcDbEntity
  8
0
  6
Continuous
 62
     7
370
    25
100
AcDbLine
 10
0.2538302883
 20
0.4467436741
 30
0.0
 11
0.2700559589
 21
0.4629693447
 31
0.0
  0
LINE
  5
4CF
330
38C
100
AcDbEntity
  8
0
  6
Continuous
 62
     7
370
    25
100
AcDbLine
 10
0.2700559589
 20
0.4574015748
 30
0.0
 11
0.2549834112
 21
0.4423290271
 31
0.0
  0
ELLIPSE
  5
4D0
330
38C
100
AcDbEntity
  8
0
  6
Continuous
 62
     7
370
    25
100
AcDbEllipse
 10
0.2605511811
 20
0.4423290271
 30
0.0
 11
0.006825478561349297
 21
-0.004248877260329521
 31
0.0
210
0.0
220
0.0
230
1.0
 40
0.452423454
 41
3.298515710427065
 42
4.083913873824358
  0
ELLIPSE
  5
4D1
330
38C
100
AcDbEntity
  8
0
  6
Continuous
 62
     7
370
    25
100
AcDbEllipse
 10
0.2566141732
 20
0.4383920192
 30
0.0
 11
-0.002568979441897657
 21
0.00848476271453358
 31
0.0
210
0.0
220
0.0
230
1.0
 40
0.2277350773
 41
0.121281937047773
 42
0.3830813248472881
  0
LINE
  5
4D2
330
38C
100
AcDbEntity
  8
0
  6
Continuous
 62
     7
370
    25
100
AcDbLine
 10
1.6598197384
 20
0.3117322835
 30
0.0
 11
1.6598197384
 21
0.4423290271
 31
0.0
  0
LINE
  5
4D3
330
38C
100
AcDbEntity
  8
0
  6
Continuous
 62
     7
370
    25
100
AcDbLine
 10
0.2549834112
 20
0.4423290271
 30
0.0
 11
0.2549834112
 21
0.3117322835
 31
0.0
  0
LINE
  5
4D4
330
38C
100
AcDbEntity
  8
0
  6
Continuous
 62
     7
370
    25
100
AcDbLine
 10
1.6598197384
 20
0.3117322835
 30
0.0
 11
1.6621259843
 21
0.3117322835
 31
0.0
  0
ARC
  5
4D5
330
38C
100
AcDbEntity
  8
0
  6
Continuous
 62
     7
370
    25
100
AcDbCircle
 10
1.6581889764
 20
0.3117322835
 30
0.0
 40
0.0039370078740159
100
AcDbArc
 50
270.0
 51
0.0
  0
LINE
  5
4D6
330
38C
100
AcDbEntity
  8
0
  6
Continuous
 62
     7
370
    25
100
AcDbLine
 10
1.6570358535
 20
0.3077952756
 30
0.0
 11
1.6581889764
 21
0.3077952756
 31
0.0
  0
ARC
  5
4D7
330
38C
100
AcDbEntity
  8
0
  6
Continuous
 62
     7
370
    25
100
AcDbCircle
 10
0.2566141732
 20
0.3117322835
 30
0.0
 40
0.0039370078740159
100
AcDbArc
 50
180.0
 51
270.0
  0
LINE
  5
4D8
330
38C
100
AcDbEntity
  8
0
  6
Continuous
 62
     7
370
    25
100
AcDbLine
 10
0.2549834112
 20
0.3117322835
 30
0.0
 11
0.2526771654
 21
0.3117322835
 31
0.0
  0
LINE
  5
4D9
330
38C
100
AcDbEntity
  8
0
  6
Continuous
 62
     7
370
    25
100
AcDbLine
 10
0.2566141732
 20
0.3077952756
 30
0.0
 11
0.2577672961
 21
0.3077952756
 31
0.0
  0
LINE
  5
4DA
330
38C
100
AcDbEntity
  8
0
  6
Continuous
 62
     7
370
    25
100
AcDbLine
 10
0.2526771654
 20
0.3117322835
 30
0.0
 11
0.2526771654
 21
0.443770072
 31
0.0
  0
ELLIPSE
  5
4DB
330
38C
100
AcDbEntity
  8
0
  6
Continuous
 62
     7
370
    25
100
AcDbEllipse
 10
0.2605511811
 20
0.4423290271
 30
0.0
 11
0.007869612693661043
 21
-0.001488423949813189
 31
0.0
210
0.0
220
0.0
230
1.0
 40
0.1768897998
 41
3.175036338434631
 42
3.960434501832139
  0
ELLIPSE
  5
4DC
330
38C
100
AcDbEntity
  8
0
  6
Continuous
 62
     7
370
    25
100
AcDbEllipse
 10
1.6542519685
 20
0.4423290271
 30
0.0
 11
0.007869612693661043
 21
0.001488423949813189
 31
0.0
210
0.0
220
0.0
230
1.0
 40
0.1768897998
 41
5.46434345893732
 42
6.249741622334904
  0
LINE
  5
4DD
330
38C
100
AcDbEntity
  8
0
  6
Continuous
 62
     7
370
    25
100
AcDbLine
 10
1.6621259843
 20
0.443770072
 30
0.0
 11
1.6621259843
 21
0.3117322835
 31
0.0
  0
ARC
  5
4DE
330
38C
100
AcDbEntity
  8
0
  6
Continuous
 62
     7
370
    25
100
AcDbCircle
 10
0.2562342951
 20
0.4437568527
 30
0.0
 40
0.0035571543428664
100
AcDbArc
 50
140.0051072368
 51
179.7870740412
  0
ARC
  5
4DF
330
38C
100
AcDbEntity
  8
0
  6
Continuous
 62
     7
370
    25
100
AcDbCircle
 10
1.6585688545
 20
0.4437568527
 30
0.0
 40
0.0035571543428671
100
AcDbArc
 50
0.2129259588
 51
39.9948927632
  0
ARC
  5
4E0
330
38C
100
AcDbEntity
  8
0
  6
Continuous
 62
     7
370
    25
100
AcDbCircle
 10
1.6581889764
 20
0.4439597891
 30
0.0
 40
0.003937007874016
100
AcDbArc
 50
0.0
 51
45.0
  0
LINE
  5
4E1
330
38C
100
AcDbEntity
  8
0
  6
Continuous
 62
     7
370
    25
100
AcDbLine
 10
1.6621259843
 20
0.4439597891
 30
0.0
 11
1.6621259843
 21
0.443770072
 31
0.0
  0
LINE
  5
4E2
330
38C
100
AcDbEntity
  8
0
  6
Continuous
 62
     7
370
    25
100
AcDbLine
 10
0.2526771654
 20
0.443770072
 30
0.0
 11
0.2526771654
 21
0.4439597891
 31
0.0
  0
ARC
  5
4E3
330
38C
100
AcDbEntity
  8
0
  6
Continuous
 62
     7
370
    25
100
AcDbCircle
 10
0.2566141732
 20
0.4439597891
 30
0.0
 40
0.0039370078740159
100
AcDbArc
 50
135.0
 51
180.0
  0
ENDBLK
  5
38F
330
38C
100
AcDbEntity
  8
0
100
AcDbBlockEnd
  0
ENDSEC
  0
SECTION
  2
ENTITIES
  0
LINE
  5
74
330
1F
100
AcDbEntity
  8
0
  6
Continuous
 62
     7
370
    25
100
AcDbLine
 10
1.7448031496
 20
0.2093700787
 30
0.0
 11
1.7448031496
 21
0.4849606299
 31
0.0
  0
ARC
  5
75
330
1F
100
AcDbEntity
  8
0
  6
Continuous
 62
     7
370
    25
100
AcDbCircle
 10
1.7054330709
 20
0.4849606299
 30
0.0
 40
0.0393700787401579
100
AcDbArc
 50
0.0
 51
90.0
  0
LINE
  5
76
330
1F
100
AcDbEntity
  8
0
  6
Continuous
 62
     7
370
    25
100
AcDbLine
 10
1.7054330709
 20
0.5243307087
 30
0.0
 11
1.4593700787
 21
0.5243307087
 31
0.0
  0
ARC
  5
77
330
1F
100
AcDbEntity
  8
0
  6
Continuous
 62
     7
370
    25
100
AcDbCircle
 10
1.4593700787
 20
0.514488189
 30
0.0
 40
0.0098425196850394
100
AcDbArc
 50
90.0
 51
180.0
  0
LINE
  5
78
330
1F
100
AcDbEntity
  8
0
  6
Continuous
 62
     7
370
    25
100
AcDbLine
 10
1.4495275591
 20
0.514488189
 30
0.0
 11
1.4495275591
 21
0.482992126
 31
0.0
  0
ARC
  5
79
330
1F
100
AcDbEntity
  8
0
  6
Continuous
 62
     7
370
    25
100
AcDbCircle
 10
1.4593700787
 20
0.482992126
 30
0.0
 40
0.0098425196850394
100
AcDbArc
 50
180.0
 51
270.0
  0
LINE
  5
7A
330
1F
100
AcDbEntity
  8
0
  6
Continuous
 62
     7
370
    25
100
AcDbLine
 10
1.4593700787
 20
0.4731496063
 30
0.0
 11
1.6562204724
 21
0.4731496063
 31
0.0
  0
ARC
  5
7B
330
1F
100
AcDbEntity
  8
0
  6
Continuous
 62
     7
370
    25
100
AcDbCircle
 10
1.6562204724
 20
0.4633070866
 30
0.0
 40
0.0098425196850394
100
AcDbArc
 50
0.0
 51
90.0
  0
LINE
  5
7C
330
1F
100
AcDbEntity
  8
0
  6
Continuous
 62
     7
370
    25
100
AcDbLine
 10
1.6660629921
 20
0.4633070866
 30
0.0
 11
1.6660629921
 21
0.3058267717
 31
0.0
  0
ARC
  5
7D
330
1F
100
AcDbEntity
  8
0
  6
Continuous
 62
     7
370
    25
100
AcDbCircle
 10
1.6562204724
 20
0.3058267717
 30
0.0
 40
0.0098425196850394
100
AcDbArc
 50
270.0
 51
0.0
  0
LINE
  5
7E
330
1F
100
AcDbEntity
  8
0
  6
Continuous
 62
     7
370
    25
100
AcDbLine
 10
1.6562204724
 20
0.295984252
 30
0.0
 11
0.2585826772
 21
0.295984252
 31
0.0
  0
ARC
  5
7F
330
1F
100
AcDbEntity
  8
0
  6
Continuous
 62
     7
370
    25
100
AcDbCircle
 10
0.2585826772
 20
0.3058267717
 30
0.0
 40
0.0098425196850394
100
AcDbArc
 50
180.0
 51
270.0
  0
LINE
  5
80
330
1F
100
AcDbEntity
  8
0
  6
Continuous
 62
     7
370
    25
100
AcDbLine
 10
0.2487401575
 20
0.3058267717
 30
0.0
 11
0.2487401575
 21
0.4633070866
 31
0.0
  0
ARC
  5
81
330
1F
100
AcDbEntity
  8
0
  6
Continuous
 62
     7
370
    25
100
AcDbCircle
 10
0.2585826772
 20
0.4633070866
 30
0.0
 40
0.0098425196850394
100
AcDbArc
 50
90.0
 51
180.0
  0
LINE
  5
82
330
1F
100
AcDbEntity
  8
0
  6
Continuous
 62
     7
370
    25
100
AcDbLine
 10
0.2585826772
 20
0.4731496063
 30
0.0
 11
0.4554330709
 21
0.4731496063
 31
0.0
  0
ARC
  5
83
330
1F
100
AcDbEntity
  8
0
  6
Continuous
 62
     7
370
    25
100
AcDbCircle
 10
0.4554330709
 20
0.482992126
 30
0.0
 40
0.0098425196850394
100
AcDbArc
 50
270.0
 51
0.0
  0
LINE
  5
84
330
1F
100
AcDbEntity
  8
0
  6
Continuous
 62
     7
370
    25
100
AcDbLine
 10
0.4652755906
 20
0.482992126
 30
0.0
 11
0.4652755906
 21
0.514488189
 31
0.0
  0
ARC
  5
85
330
1F
100
AcDbEntity
  8
0
  6
Continuous
 62
     7
370
    25
100
AcDbCircle
 10
0.4554330709
 20
0.514488189
 30
0.0
 40
0.0098425196850394
100
AcDbArc
 50
0.0
 51
90.0
  0
LINE
  5
86
330
1F
100
AcDbEntity
  8
0
  6
Continuous
 62
     7
370
    25
100
AcDbLine
 10
0.4554330709
 20
0.5243307087
 30
0.0
 11
0.2093700787
 21
0.5243307087
 31
0.0
  0
ARC
  5
87
330
1F
100
AcDbEntity
  8
0
  6
Continuous
 62
     7
370
    25
100
AcDbCircle
 10
0.2093700787
 20
0.4849606299
 30
0.0
 40
0.039370078740157
100
AcDbArc
 50
90.0
 51
180.0
  0
LINE
  5
88
330
1F
100
AcDbEntity
  8
0
  6
Continuous
 62
     7
370
    25
100
AcDbLine
 10
0.17
 20
0.4849606299
 30
0.0
 11
0.17
 21
0.2093700787
 31
0.0
  0
ARC
  5
89
330
1F
100
AcDbEntity
  8
0
  6
Continuous
 62
     7
370
    25
100
AcDbCircle
 10
0.2093700787
 20
0.2093700787
 30
0.0
 40
0.0393700787401575
100
AcDbArc
 50
180.0
 51
270.0
  0
LINE
  5
8A
330
1F
100
AcDbEntity
  8
0
  6
Continuous
 62
     7
370
    25
100
AcDbLine
 10
0.2093700787
 20
0.17
 30
0.0
 11
0.3234034098
 21
0.17
 31
0.0
  0
ARC
  5
8B
330
1F
100
AcDbEntity
  8
0
  6
Continuous
 62
     7
370
    25
100
AcDbCircle
 10
0.3234034098
 20
0.1798425197
 30
0.0
 40
0.0098425196850394
100
AcDbArc
 50
270.0
 51
315.0
  0
LINE
  5
8C
330
1F
100
AcDbEntity
  8
0
  6
Continuous
 62
     7
370
    25
100
AcDbLine
 10
0.3303631222
 20
0.1728828073
 30
0.0
 11
0.3639675864
 21
0.2064872715
 31
0.0
  0
ARC
  5
8D
330
1F
100
AcDbEntity
  8
0
  6
Continuous
 62
     7
370
    25
100
AcDbCircle
 10
0.3709272988
 20
0.1995275591
 30
0.0
 40
0.0098425196850395
100
AcDbArc
 50
90.0
 51
135.0
  0
LINE
  5
8E
330
1F
100
AcDbEntity
  8
0
  6
Continuous
 62
     7
370
    25
100
AcDbLine
 10
0.3709272988
 20
0.2093700787
 30
0.0
 11
0.756474276
 21
0.2093700787
 31
0.0
  0
ARC
  5
8F
330
1F
100
AcDbEntity
  8
0
  6
Continuous
 62
     7
370
    25
100
AcDbCircle
 10
0.756474276
 20
0.1995275591
 30
0.0
 40
0.0098425196850395
100
AcDbArc
 50
45.0
 51
90.0
  0
LINE
  5
90
330
1F
100
AcDbEntity
  8
0
  6
Continuous
 62
     7
370
    25
100
AcDbLine
 10
0.7634339884
 20
0.2064872715
 30
0.0
 11
0.7970384526
 21
0.1728828073
 31
0.0
  0
ARC
  5
91
330
1F
100
AcDbEntity
  8
0
  6
Continuous
 62
     7
370
    25
100
AcDbCircle
 10
0.803998165
 20
0.1798425197
 30
0.0
 40
0.0098425196850394
100
AcDbArc
 50
225.0
 51
270.0
  0
LINE
  5
92
330
1F
100
AcDbEntity
  8
0
  6
Continuous
 62
     7
370
    25
100
AcDbLine
 10
0.803998165
 20
0.17
 30
0.0
 11
1.1108049846
 21
0.17
 31
0.0
  0
ARC
  5
93
330
1F
100
AcDbEntity
  8
0
  6
Continuous
 62
     7
370
    25
100
AcDbCircle
 10
1.1108049846
 20
0.1798425197
 30
0.0
 40
0.0098425196850394
100
AcDbArc
 50
270.0
 51
315.0
  0
LINE
  5
94
330
1F
100
AcDbEntity
  8
0
  6
Continuous
 62
     7
370
    25
100
AcDbLine
 10
1.117764697
 20
0.1728828073
 30
0.0
 11
1.1513691612
 21
0.2064872715
 31
0.0
  0
ARC
  5
95
330
1F
100
AcDbEntity
  8
0
  6
Continuous
 62
     7
370
    25
100
AcDbCircle
 10
1.1583288736
 20
0.1995275591
 30
0.0
 40
0.0098425196850396
100
AcDbArc
 50
90.0
 51
135.0
  0
LINE
  5
96
330
1F
100
AcDbEntity
  8
0
  6
Continuous
 62
     7
370
    25
100
AcDbLine
 10
1.1583288736
 20
0.2093700787
 30
0.0
 11
1.5438758508
 21
0.2093700787
 31
0.0
  0
ARC
  5
97
330
1F
100
AcDbEntity
  8
0
  6
Continuous
 62
     7
370
    25
100
AcDbCircle
 10
1.5438758508
 20
0.1995275591
 30
0.0
 40
0.0098425196850395
100
AcDbArc
 50
45.0
 51
90.0
  0
LINE
  5
98
330
1F
100
AcDbEntity
  8
0
  6
Continuous
 62
     7
370
    25
100
AcDbLine
 10
1.5508355632
 20
0.2064872715
 30
0.0
 11
1.5844400274
 21
0.1728828073
 31
0.0
  0
ARC
  5
99
330
1F
100
AcDbEntity
  8
0
  6
Continuous
 62
     7
370
    25
100
AcDbCircle
 10
1.5913997398
 20
0.1798425197
 30
0.0
 40
0.0098425196850395
100
AcDbArc
 50
225.0
 51
270.0
  0
LINE
  5
9A
330
1F
100
AcDbEntity
  8
0
  6
Continuous
 62
     7
370
    25
100
AcDbLine
 10
1.5913997398
 20
0.17
 30
0.0
 11
1.7054330709
 21
0.17
 31
0.0
  0
ARC
  5
9B
330
1F
100
AcDbEntity
  8
0
  6
Continuous
 62
     7
370
    25
100
AcDbCircle
 10
1.7054330709
 20
0.2093700787
 30
0.0
 40
0.0393700787401581
100
AcDbArc
 50
270.0
 51
0.0
  0
LINE
  5
9C
330
1F
100
AcDbEntity
  8
0
  6
Continuous
 62
     7
370
    25
100
AcDbLine
 10
1.5036614173
 20
0.295984252
 30
0.0
 11
1.5036614173
 21
0.2999212598
 31
0.0
  0
LINE
  5
9D
330
1F
100
AcDbEntity
  8
0
  6
Continuous
 62
     7
370
    25
100
AcDbLine
 10
1.5036614173
 20
0.2999212598
 30
0.0
 11
1.5548425197
 21
0.2999212598
 31
0.0
  0
LINE
  5
9E
330
1F
100
AcDbEntity
  8
0
  6
Continuous
 62
     7
370
    25
100
AcDbLine
 10
1.5548425197
 20
0.295984252
 30
0.0
 11
1.5548425197
 21
0.2999212598
 31
0.0
  0
LINE
  5
9F
330
1F
100
AcDbEntity
  8
0
  6
Continuous
 62
     7
370
    25
100
AcDbLine
 10
1.4997244094
 20
0.2999212598
 30
0.0
 11
1.5036614173
 21
0.2999212598
 31
0.0
  0
ARC
  5
A0
330
1F
100
AcDbEntity
  8
0
  6
Continuous
 62
     7
370
    25
100
AcDbCircle
 10
1.5036614173
 20
0.2999212598
 30
0.0
 40
0.003937007874016
100
AcDbArc
 50
180.0
 51
270.0
  0
ARC
  5
A1
330
1F
100
AcDbEntity
  8
0
  6
Continuous
 62
     7
370
    25
100
AcDbCircle
 10
1.4180314961
 20
0.4731496063
 30
0.0
 40
0.0157480314960634
100
AcDbArc
 50
180.0
 51
270.0
  0
LINE
  5
A2
330
1F
100
AcDbEntity
  8
0
  6
Continuous
 62
     7
370
    25
100
AcDbLine
 10
1.4022834646
 20
0.4731496063
 30
0.0
 11
1.4101574803
 21
0.4731496063
 31
0.0
  0
ARC
  5
A3
330
1F
100
AcDbEntity
  8
0
  6
Continuous
 62
     7
370
    25
100
AcDbCircle
 10
1.4180314961
 20
0.4731496063
 30
0.0
 40
0.0078740157480318
100
AcDbArc
 50
180.0
 51
270.0
  0
LINE
  5
A4
330
1F
100
AcDbEntity
  8
0
  6
Continuous
 62
     7
370
    25
100
AcDbLine
 10
1.4180314961
 20
0.4574015748
 30
0.0
 11
1.4180314961
 21
0.4652755906
 31
0.0
  0
LINE
  5
A5
330
1F
100
AcDbEntity
  8
0
  6
Continuous
 62
     7
370
    25
100
AcDbLine
 10
0.4111417323
 20
0.2999212598
 30
0.0
 11
0.4111417323
 21
0.3038582677
 31
0.0
  0
LINE
  5
A6
330
1F
100
AcDbEntity
  8
0
  6
Continuous
 62
     7
370
    25
100
AcDbLine
 10
0.4111417323
 20
0.3038582677
 30
0.0
 11
0.4150787402
 21
0.3038582677
 31
0.0
  0
LINE
  5
A7
330
1F
100
AcDbEntity
  8
0
  6
Continuous
 62
     7
370
    25
100
AcDbLine
 10
0.4150787402
 20
0.3038582677
 30
0.0
 11
0.4150787402
 21
0.2999212598
 31
0.0
  0
LINE
  5
A8
330
1F
100
AcDbEntity
  8
0
  6
Continuous
 62
     7
370
    25
100
AcDbLine
 10
0.4111417323
 20
0.2999212598
 30
0.0
 11
0.4150787402
 21
0.2999212598
 31
0.0
  0
LINE
  5
A9
330
1F
100
AcDbEntity
  8
0
  6
Continuous
 62
     7
370
    25
100
AcDbLine
 10
1.4997244094
 20
0.2999212598
 30
0.0
 11
1.4997244094
 21
0.3038582677
 31
0.0
  0
LINE
  5
AA
330
1F
100
AcDbEntity
  8
0
  6
Continuous
 62
     7
370
    25
100
AcDbLine
 10
1.4997244094
 20
0.3038582677
 30
0.0
 11
1.5036614173
 21
0.3038582677
 31
0.0
  0
LINE
  5
AB
330
1F
100
AcDbEntity
  8
0
  6
Continuous
 62
     7
370
    25
100
AcDbLine
 10
1.5036614173
 20
0.3038582677
 30
0.0
 11
1.5036614173
 21
0.2999212598
 31
0.0
  0
LINE
  5
AC
330
1F
100
AcDbEntity
  8
0
  6
Continuous
 62
     7
370
    25
100
AcDbLine
 10
1.4022834646
 20
0.4731496063
 30
0.0
 11
1.4022834646
 21
0.5210691845
 31
0.0
  0
LINE
  5
AD
330
1F
100
AcDbEntity
  8
0
  6
Continuous
 62
     7
370
    25
100
AcDbLine
 10
1.4022834646
 20
0.5210691845
 30
0.0
 11
1.4101574803
 21
0.5210691845
 31
0.0
  0
LINE
  5
AE
330
1F
100
AcDbEntity
  8
0
  6
Continuous
 62
     7
370
    25
100
AcDbLine
 10
1.4101574803
 20
0.5210691845
 30
0.0
 11
1.4101574803
 21
0.4731496063
 31
0.0
  0
LINE
  5
AF
330
1F
100
AcDbEntity
  8
0
  6
Continuous
 62
     7
370
    25
100
AcDbLine
 10
1.4219685039
 20
0.3077952756
 30
0.0
 11
1.4150787402
 21
0.3077952756
 31
0.0
  0
LINE
  5
B0
330
1F
100
AcDbEntity
  8
0
  6
Continuous
 62
     7
370
    25
100
AcDbLine
 10
1.4150787402
 20
0.3077952756
 30
0.0
 11
1.4150787402
 21
0.3117322835
 31
0.0
  0
LINE
  5
B1
330
1F
100
AcDbEntity
  8
0
  6
Continuous
 62
     7
370
    25
100
AcDbLine
 10
1.4150787402
 20
0.3117322835
 30
0.0
 11
1.4219685039
 21
0.3117322835
 31
0.0
  0
LINE
  5
B2
330
1F
100
AcDbEntity
  8
0
  6
Continuous
 62
     7
370
    25
100
AcDbLine
 10
1.4219685039
 20
0.3077952756
 30
0.0
 11
1.4219685039
 21
0.3117322835
 31
0.0
  0
LINE
  5
B3
330
1F
100
AcDbEntity
  8
0
  6
Continuous
 62
     7
370
    25
100
AcDbLine
 10
1.4022834646
 20
0.5210691845
 30
0.0
 11
1.4078512345
 21
0.5266369545
 31
0.0
  0
ARC
  5
B4
330
1F
100
AcDbEntity
  8
0
  6
Continuous
 62
     7
370
    25
100
AcDbCircle
 10
1.4022834646
 20
0.5210691845
 30
0.0
 40
0.0078740157480315
100
AcDbArc
 50
0.0
 51
45.0
  0
ARC
  5
B5
330
1F
100
AcDbEntity
  8
0
  6
Continuous
 62
     7
370
    25
100
AcDbCircle
 10
0.419015748
 20
0.3038582677
 30
0.0
 40
0.0078740157480317
100
AcDbArc
 50
90.0
 51
180.0
  0
LINE
  5
B6
330
1F
100
AcDbEntity
  8
0
  6
Continuous
 62
     7
370
    25
100
AcDbLine
 10
0.419015748
 20
0.3117322835
 30
0.0
 11
0.419015748
 21
0.3077952756
 31
0.0
  0
ARC
  5
B7
330
1F
100
AcDbEntity
  8
0
  6
Continuous
 62
     7
370
    25
100
AcDbCircle
 10
0.419015748
 20
0.3038582677
 30
0.0
 40
0.0039370078740159
100
AcDbArc
 50
90.0
 51
180.0
  0
ARC
  5
B8
330
1F
100
AcDbEntity
  8
0
  6
Continuous
 62
     7
370
    25
100
AcDbCircle
 10
1.4957874016
 20
0.3038582677
 30
0.0
 40
0.0039370078740157
100
AcDbArc
 50
0.0
 51
90.0
  0
LINE
  5
B9
330
1F
100
AcDbEntity
  8
0
  6
Continuous
 62
     7
370
    25
100
AcDbLine
 10
1.4957874016
 20
0.3077952756
 30
0.0
 11
1.4957874016
 21
0.3117322835
 31
0.0
  0
ARC
  5
BA
330
1F
100
AcDbEntity
  8
0
  6
Continuous
 62
     7
370
    25
100
AcDbCircle
 10
1.4957874016
 20
0.3038582677
 30
0.0
 40
0.0078740157480317
100
AcDbArc
 50
0.0
 51
90.0
  0
LINE
  5
BB
330
1F
100
AcDbEntity
  8
0
  6
Continuous
 62
     7
370
    25
100
AcDbLine
 10
1.4022834646
 20
0.5210691845
 30
0.0
 11
1.3872109168
 21
0.5361417323
 31
0.0
  0
LINE
  5
BC
330
1F
100
AcDbEntity
  8
0
  6
Continuous
 62
     7
370
    25
100
AcDbLine
 10
1.3927786868
 20
0.5417095022
 30
0.0
 11
1.3872109168
 21
0.5361417323
 31
0.0
  0
LINE
  5
BD
330
1F
100
AcDbEntity
  8
0
  6
Continuous
 62
     7
370
    25
100
AcDbLine
 10
1.3927786868
 20
0.5417095022
 30
0.0
 11
1.4078512345
 21
0.5266369545
 31
0.0
  0
ARC
  5
BE
330
1F
100
AcDbEntity
  8
0
  6
Continuous
 62
     7
370
    25
100
AcDbCircle
 10
1.4150787402
 20
0.3038582677
 30
0.0
 40
0.0039370078740159
100
AcDbArc
 50
90.0
 51
180.0
  0
LINE
  5
BF
330
1F
100
AcDbEntity
  8
0
  6
Continuous
 62
     7
370
    25
100
AcDbLine
 10
1.4111417323
 20
0.3038582677
 30
0.0
 11
1.4072047244
 21
0.3038582677
 31
0.0
  0
ARC
  5
C0
330
1F
100
AcDbEntity
  8
0
  6
Continuous
 62
     7
370
    25
100
AcDbCircle
 10
1.4150787402
 20
0.3038582677
 30
0.0
 40
0.0078740157480317
100
AcDbArc
 50
90.0
 51
180.0
  0
LINE
  5
C1
330
1F
100
AcDbEntity
  8
0
  6
Continuous
 62
     7
370
    25
100
AcDbLine
 10
0.512519685
 20
0.5210691845
 30
0.0
 11
0.5069519151
 21
0.5266369545
 31
0.0
  0
LINE
  5
C2
330
1F
100
AcDbEntity
  8
0
  6
Continuous
 62
     7
370
    25
100
AcDbLine
 10
0.5069519151
 20
0.5266369545
 30
0.0
 11
0.5220244628
 21
0.5417095022
 31
0.0
  0
LINE
  5
C3
330
1F
100
AcDbEntity
  8
0
  6
Continuous
 62
     7
370
    25
100
AcDbLine
 10
0.5275922328
 20
0.5361417323
 30
0.0
 11
0.5220244628
 21
0.5417095022
 31
0.0
  0
LINE
  5
C4
330
1F
100
AcDbEntity
  8
0
  6
Continuous
 62
     7
370
    25
100
AcDbLine
 10
0.5275922328
 20
0.5361417323
 30
0.0
 11
0.512519685
 21
0.5210691845
 31
0.0
  0
LINE
  5
C5
330
1F
100
AcDbEntity
  8
0
  6
Continuous
 62
     7
370
    25
100
AcDbLine
 10
0.419015748
 20
0.3117322835
 30
0.0
 11
0.4259055118
 21
0.3117322835
 31
0.0
  0
LINE
  5
C6
330
1F
100
AcDbEntity
  8
0
  6
Continuous
 62
     7
370
    25
100
AcDbLine
 10
0.4259055118
 20
0.3117322835
 30
0.0
 11
0.4259055118
 21
0.3077952756
 31
0.0
  0
LINE
  5
C7
330
1F
100
AcDbEntity
  8
0
  6
Continuous
 62
     7
370
    25
100
AcDbLine
 10
0.4259055118
 20
0.3077952756
 30
0.0
 11
0.419015748
 21
0.3077952756
 31
0.0
  0
LINE
  5
C8
330
1F
100
AcDbEntity
  8
0
  6
Continuous
 62
     7
370
    25
100
AcDbLine
 10
1.4957874016
 20
0.3077952756
 30
0.0
 11
1.4888976378
 21
0.3077952756
 31
0.0
  0
LINE
  5
C9
330
1F
100
AcDbEntity
  8
0
  6
Continuous
 62
     7
370
    25
100
AcDbLine
 10
1.4888976378
 20
0.3077952756
 30
0.0
 11
1.4888976378
 21
0.3117322835
 31
0.0
  0
LINE
  5
CA
330
1F
100
AcDbEntity
  8
0
  6
Continuous
 62
     7
370
    25
100
AcDbLine
 10
1.4888976378
 20
0.3117322835
 30
0.0
 11
1.4957874016
 21
0.3117322835
 31
0.0
  0
LINE
  5
CB
330
1F
100
AcDbEntity
  8
0
  6
Continuous
 62
     7
370
    25
100
AcDbLine
 10
0.4967716535
 20
0.4652755906
 30
0.0
 11
0.4967716535
 21
0.4574015748
 31
0.0
  0
LINE
  5
CC
330
1F
100
AcDbEntity
  8
0
  6
Continuous
 62
     7
370
    25
100
AcDbLine
 10
0.4967716535
 20
0.4574015748
 30
0.0
 11
0.2756237288
 21
0.4574015748
 31
0.0
  0
LINE
  5
CD
330
1F
100
AcDbEntity
  8
0
  6
Continuous
 62
     7
370
    25
100
AcDbLine
 10
0.2756237288
 20
0.4652755906
 30
0.0
 11
0.2756237288
 21
0.4574015748
 31
0.0
  0
LINE
  5
CE
330
1F
100
AcDbEntity
  8
0
  6
Continuous
 62
     7
370
    25
100
AcDbLine
 10
0.2756237288
 20
0.4652755906
 30
0.0
 11
0.4967716535
 21
0.4652755906
 31
0.0
  0
ARC
  5
CF
330
1F
100
AcDbEntity
  8
0
  6
Continuous
 62
     7
370
    25
100
AcDbCircle
 10
0.512519685
 20
0.5210691845
 30
0.0
 40
0.0078740157480316
100
AcDbArc
 50
135.0
 51
180.0
  0
LINE
  5
D0
330
1F
100
AcDbEntity
  8
0
  6
Continuous
 62
     7
370
    25
100
AcDbLine
 10
0.5046456693
 20
0.5210691845
 30
0.0
 11
0.512519685
 21
0.5210691845
 31
0.0
  0
ARC
  5
D1
330
1F
100
AcDbEntity
  8
0
  6
Continuous
 62
     7
370
    25
100
AcDbCircle
 10
0.4967716535
 20
0.4731496063
 30
0.0
 40
0.0078740157480318
100
AcDbArc
 50
270.0
 51
0.0
  0
LINE
  5
D2
330
1F
100
AcDbEntity
  8
0
  6
Continuous
 62
     7
370
    25
100
AcDbLine
 10
0.512519685
 20
0.4731496063
 30
0.0
 11
0.5046456693
 21
0.4731496063
 31
0.0
  0
ARC
  5
D3
330
1F
100
AcDbEntity
  8
0
  6
Continuous
 62
     7
370
    25
100
AcDbCircle
 10
0.4967716535
 20
0.4731496063
 30
0.0
 40
0.0157480314960635
100
AcDbArc
 50
270.0
 51
0.0
  0
ARC
  5
D4
330
1F
100
AcDbEntity
  8
0
  6
Continuous
 62
     7
370
    25
100
AcDbCircle
 10
0.4259055118
 20
0.3038582677
 30
0.0
 40
0.0078740157480316
100
AcDbArc
 50
0.0
 51
90.0
  0
LINE
  5
D5
330
1F
100
AcDbEntity
  8
0
  6
Continuous
 62
     7
370
    25
100
AcDbLine
 10
0.4337795276
 20
0.3038582677
 30
0.0
 11
0.4298425197
 21
0.3038582677
 31
0.0
  0
ARC
  5
D6
330
1F
100
AcDbEntity
  8
0
  6
Continuous
 62
     7
370
    25
100
AcDbCircle
 10
0.4259055118
 20
0.3038582677
 30
0.0
 40
0.0039370078740159
100
AcDbArc
 50
0.0
 51
90.0
  0
ARC
  5
D7
330
1F
100
AcDbEntity
  8
0
  6
Continuous
 62
     7
370
    25
100
AcDbCircle
 10
1.4888976378
 20
0.3038582677
 30
0.0
 40
0.0039370078740159
100
AcDbArc
 50
90.0
 51
180.0
  0
LINE
  5
D8
330
1F
100
AcDbEntity
  8
0
  6
Continuous
 62
     7
370
    25
100
AcDbLine
 10
1.4849606299
 20
0.3038582677
 30
0.0
 11
1.481023622
 21
0.3038582677
 31
0.0
  0
ARC
  5
D9
330
1F
100
AcDbEntity
  8
0
  6
Continuous
 62
     7
370
    25
100
AcDbCircle
 10
1.4888976378
 20
0.3038582677
 30
0.0
 40
0.0078740157480317
100
AcDbArc
 50
90.0
 51
180.0
  0
LINE
  5
DA
330
1F
100
AcDbEntity
  8
0
  6
Continuous
 62
     7
370
    25
100
AcDbLine
 10
0.5075984252
 20
0.2999212598
 30
0.0
 11
0.5075984252
 21
0.295984252
 31
0.0
  0
ARC
  5
DB
330
1F
100
AcDbEntity
  8
0
  6
Continuous
 62
     7
370
    25
100
AcDbCircle
 10
0.5075984252
 20
0.2999212598
 30
0.0
 40
0.0039370078740159
100
AcDbArc
 50
180.0
 51
270.0
  0
LINE
  5
DC
330
1F
100
AcDbEntity
  8
0
  6
Continuous
 62
     7
370
    25
100
AcDbLine
 10
0.5075984252
 20
0.2999212598
 30
0.0
 11
0.5036614173
 21
0.2999212598
 31
0.0
  0
LINE
  5
DD
330
1F
100
AcDbEntity
  8
0
  6
Continuous
 62
     7
370
    25
100
AcDbLine
 10
1.4072047244
 20
0.295984252
 30
0.0
 11
1.4072047244
 21
0.2999212598
 31
0.0
  0
LINE
  5
DE
330
1F
100
AcDbEntity
  8
0
  6
Continuous
 62
     7
370
    25
100
AcDbLine
 10
1.4111417323
 20
0.2999212598
 30
0.0
 11
1.4072047244
 21
0.2999212598
 31
0.0
  0
ARC
  5
DF
330
1F
100
AcDbEntity
  8
0
  6
Continuous
 62
     7
370
    25
100
AcDbCircle
 10
1.4072047244
 20
0.2999212598
 30
0.0
 40
0.003937007874016
100
AcDbArc
 50
270.0
 51
360.0
  0
LINE
  5
E0
330
1F
100
AcDbEntity
  8
0
  6
Continuous
 62
     7
370
    25
100
AcDbLine
 10
0.2756237288
 20
0.3117322835
 30
0.0
 11
0.2700559589
 21
0.3117322835
 31
0.0
  0
LINE
  5
E1
330
1F
100
AcDbEntity
  8
0
  6
Continuous
 62
     7
370
    25
100
AcDbLine
 10
0.2756237288
 20
0.3117322835
 30
0.0
 11
0.2756237288
 21
0.3077952756
 31
0.0
  0
LINE
  5
E2
330
1F
100
AcDbEntity
  8
0
  6
Continuous
 62
     7
370
    25
100
AcDbLine
 10
0.2728398439
 20
0.3077952756
 30
0.0
 11
0.2756237288
 21
0.3077952756
 31
0.0
  0
ARC
  5
E3
330
1F
100
AcDbEntity
  8
0
  6
Continuous
 62
     7
370
    25
100
AcDbCircle
 10
0.2735358151
 20
0.3112401575
 30
0.0
 40
0.003514482494361
100
AcDbArc
 50
171.9505330245
 51
258.578246341
  0
LINE
  5
E4
330
1F
100
AcDbEntity
  8
0
  6
Continuous
 62
     7
370
    25
100
AcDbLine
 10
0.4337795276
 20
0.3038582677
 30
0.0
 11
0.4337795276
 21
0.2999212598
 31
0.0
  0
LINE
  5
E5
330
1F
100
AcDbEntity
  8
0
  6
Continuous
 62
     7
370
    25
100
AcDbLine
 10
0.4337795276
 20
0.2999212598
 30
0.0
 11
0.4298425197
 21
0.2999212598
 31
0.0
  0
LINE
  5
E6
330
1F
100
AcDbEntity
  8
0
  6
Continuous
 62
     7
370
    25
100
AcDbLine
 10
0.4298425197
 20
0.2999212598
 30
0.0
 11
0.4298425197
 21
0.3038582677
 31
0.0
  0
LINE
  5
E7
330
1F
100
AcDbEntity
  8
0
  6
Continuous
 62
     7
370
    25
100
AcDbLine
 10
1.4849606299
 20
0.3038582677
 30
0.0
 11
1.4849606299
 21
0.2999212598
 31
0.0
  0
LINE
  5
E8
330
1F
100
AcDbEntity
  8
0
  6
Continuous
 62
     7
370
    25
100
AcDbLine
 10
1.4849606299
 20
0.2999212598
 30
0.0
 11
1.481023622
 21
0.2999212598
 31
0.0
  0
LINE
  5
E9
330
1F
100
AcDbEntity
  8
0
  6
Continuous
 62
     7
370
    25
100
AcDbLine
 10
1.481023622
 20
0.2999212598
 30
0.0
 11
1.481023622
 21
0.3038582677
 31
0.0
  0
LINE
  5
EA
330
1F
100
AcDbEntity
  8
0
  6
Continuous
 62
     7
370
    25
100
AcDbLine
 10
0.5075984252
 20
0.2999212598
 30
0.0
 11
0.5587795276
 21
0.2999212598
 31
0.0
  0
LINE
  5
EB
330
1F
100
AcDbEntity
  8
0
  6
Continuous
 62
     7
370
    25
100
AcDbLine
 10
0.5587795276
 20
0.2999212598
 30
0.0
 11
0.5587795276
 21
0.295984252
 31
0.0
  0
LINE
  5
EC
330
1F
100
AcDbEntity
  8
0
  6
Continuous
 62
     7
370
    25
100
AcDbLine
 10
1.356023622
 20
0.295984252
 30
0.0
 11
1.356023622
 21
0.2999212598
 31
0.0
  0
LINE
  5
ED
330
1F
100
AcDbEntity
  8
0
  6
Continuous
 62
     7
370
    25
100
AcDbLine
 10
1.356023622
 20
0.2999212598
 30
0.0
 11
1.4072047244
 21
0.2999212598
 31
0.0
  0
LINE
  5
EE
330
1F
100
AcDbEntity
  8
0
  6
Continuous
 62
     7
370
    25
100
AcDbLine
 10
0.6286614173
 20
0.2999212598
 30
0.0
 11
0.6286614173
 21
0.3038582677
 31
0.0
  0
LINE
  5
EF
330
1F
100
AcDbEntity
  8
0
  6
Continuous
 62
     7
370
    25
100
AcDbLine
 10
0.6286614173
 20
0.3038582677
 30
0.0
 11
0.6325984252
 21
0.3038582677
 31
0.0
  0
LINE
  5
F0
330
1F
100
AcDbEntity
  8
0
  6
Continuous
 62
     7
370
    25
100
AcDbLine
 10
0.6325984252
 20
0.3038582677
 30
0.0
 11
0.6325984252
 21
0.2999212598
 31
0.0
  0
LINE
  5
F1
330
1F
100
AcDbEntity
  8
0
  6
Continuous
 62
     7
370
    25
100
AcDbLine
 10
0.6286614173
 20
0.2999212598
 30
0.0
 11
0.6325984252
 21
0.2999212598
 31
0.0
  0
LINE
  5
F2
330
1F
100
AcDbEntity
  8
0
  6
Continuous
 62
     7
370
    25
100
AcDbLine
 10
0.4337795276
 20
0.2999212598
 30
0.0
 11
0.4337795276
 21
0.295984252
 31
0.0
  0
ARC
  5
F3
330
1F
100
AcDbEntity
  8
0
  6
Continuous
 62
     7
370
    25
100
AcDbCircle
 10
0.4337795276
 20
0.2999212598
 30
0.0
 40
0.0039370078740159
100
AcDbArc
 50
180.0
 51
270.0
  0
LINE
  5
F4
330
1F
100
AcDbEntity
  8
0
  6
Continuous
 62
     7
370
    25
100
AcDbLine
 10
1.481023622
 20
0.295984252
 30
0.0
 11
1.481023622
 21
0.2999212598
 31
0.0
  0
ARC
  5
F5
330
1F
100
AcDbEntity
  8
0
  6
Continuous
 62
     7
370
    25
100
AcDbCircle
 10
1.481023622
 20
0.2999212598
 30
0.0
 40
0.003937007874016
100
AcDbArc
 50
270.0
 51
360.0
  0
LINE
  5
F6
330
1F
100
AcDbEntity
  8
0
  6
Continuous
 62
     7
370
    25
100
AcDbLine
 10
0.512519685
 20
0.5210691845
 30
0.0
 11
0.512519685
 21
0.4731496063
 31
0.0
  0
LINE
  5
F7
330
1F
100
AcDbEntity
  8
0
  6
Continuous
 62
     7
370
    25
100
AcDbLine
 10
1.3872109168
 20
0.5361417323
 30
0.0
 11
0.5275922328
 21
0.5361417323
 31
0.0
  0
LINE
  5
F8
330
1F
100
AcDbEntity
  8
0
  6
Continuous
 62
     7
370
    25
100
AcDbLine
 10
1.6391794208
 20
0.4574015748
 30
0.0
 11
1.4180314961
 21
0.4574015748
 31
0.0
  0
LINE
  5
F9
330
1F
100
AcDbEntity
  8
0
  6
Continuous
 62
     7
370
    25
100
AcDbLine
 10
1.6391794208
 20
0.3117322835
 30
0.0
 11
1.6391794208
 21
0.4574015748
 31
0.0
  0
LINE
  5
FA
330
1F
100
AcDbEntity
  8
0
  6
Continuous
 62
     7
370
    25
100
AcDbLine
 10
1.6266929134
 20
0.3117322835
 30
0.0
 11
1.6391794208
 21
0.3117322835
 31
0.0
  0
ARC
  5
FB
330
1F
100
AcDbEntity
  8
0
  6
Continuous
 62
     7
370
    25
100
AcDbCircle
 10
1.6266929134
 20
0.3038582677
 30
0.0
 40
0.0078740157480317
100
AcDbArc
 50
90.0
 51
180.0
  0
LINE
  5
FC
330
1F
100
AcDbEntity
  8
0
  6
Continuous
 62
     7
370
    25
100
AcDbLine
 10
1.6188188976
 20
0.2999212598
 30
0.0
 11
1.6188188976
 21
0.3038582677
 31
0.0
  0
LINE
  5
FD
330
1F
100
AcDbEntity
  8
0
  6
Continuous
 62
     7
370
    25
100
AcDbLine
 10
1.577480315
 20
0.2999212598
 30
0.0
 11
1.6188188976
 21
0.2999212598
 31
0.0
  0
LINE
  5
FE
330
1F
100
AcDbEntity
  8
0
  6
Continuous
 62
     7
370
    25
100
AcDbLine
 10
1.577480315
 20
0.3038582677
 30
0.0
 11
1.577480315
 21
0.2999212598
 31
0.0
  0
ARC
  5
FF
330
1F
100
AcDbEntity
  8
0
  6
Continuous
 62
     7
370
    25
100
AcDbCircle
 10
1.5696062992
 20
0.3038582677
 30
0.0
 40
0.0078740157480317
100
AcDbArc
 50
0.0
 51
90.0
  0
LINE
  5
100
330
1F
100
AcDbEntity
  8
0
  6
Continuous
 62
     7
370
    25
100
AcDbLine
 10
1.5627165354
 20
0.3117322835
 30
0.0
 11
1.5696062992
 21
0.3117322835
 31
0.0
  0
ARC
  5
101
330
1F
100
AcDbEntity
  8
0
  6
Continuous
 62
     7
370
    25
100
AcDbCircle
 10
1.5627165354
 20
0.3038582677
 30
0.0
 40
0.0078740157480317
100
AcDbArc
 50
90.0
 51
180.0
  0
LINE
  5
102
330
1F
100
AcDbEntity
  8
0
  6
Continuous
 62
     7
370
    25
100
AcDbLine
 10
1.5548425197
 20
0.2999212598
 30
0.0
 11
1.5548425197
 21
0.3038582677
 31
0.0
  0
LINE
  5
103
330
1F
100
AcDbEntity
  8
0
  6
Continuous
 62
     7
370
    25
100
AcDbLine
 10
1.4298425197
 20
0.2999212598
 30
0.0
 11
1.481023622
 21
0.2999212598
 31
0.0
  0
LINE
  5
104
330
1F
100
AcDbEntity
  8
0
  6
Continuous
 62
     7
370
    25
100
AcDbLine
 10
1.4298425197
 20
0.3038582677
 30
0.0
 11
1.4298425197
 21
0.2999212598
 31
0.0
  0
ARC
  5
105
330
1F
100
AcDbEntity
  8
0
  6
Continuous
 62
     7
370
    25
100
AcDbCircle
 10
1.4219685039
 20
0.3038582677
 30
0.0
 40
0.0078740157480317
100
AcDbArc
 50
0.0
 51
90.0
  0
LINE
  5
106
330
1F
100
AcDbEntity
  8
0
  6
Continuous
 62
     7
370
    25
100
AcDbLine
 10
1.4072047244
 20
0.2999212598
 30
0.0
 11
1.4072047244
 21
0.3038582677
 31
0.0
  0
LINE
  5
107
330
1F
100
AcDbEntity
  8
0
  6
Continuous
 62
     7
370
    25
100
AcDbLine
 10
1.356023622
 20
0.3038582677
 30
0.0
 11
1.356023622
 21
0.2999212598
 31
0.0
  0
ARC
  5
108
330
1F
100
AcDbEntity
  8
0
  6
Continuous
 62
     7
370
    25
100
AcDbCircle
 10
1.3481496063
 20
0.3038582677
 30
0.0
 40
0.0078740157480317
100
AcDbArc
 50
0.0
 51
90.0
  0
LINE
  5
109
330
1F
100
AcDbEntity
  8
0
  6
Continuous
 62
     7
370
    25
100
AcDbLine
 10
1.3412598425
 20
0.3117322835
 30
0.0
 11
1.3481496063
 21
0.3117322835
 31
0.0
  0
ARC
  5
10A
330
1F
100
AcDbEntity
  8
0
  6
Continuous
 62
     7
370
    25
100
AcDbCircle
 10
1.3412598425
 20
0.3038582677
 30
0.0
 40
0.0078740157480317
100
AcDbArc
 50
90.0
 51
180.0
  0
LINE
  5
10B
330
1F
100
AcDbEntity
  8
0
  6
Continuous
 62
     7
370
    25
100
AcDbLine
 10
1.3333858268
 20
0.2999212598
 30
0.0
 11
1.3333858268
 21
0.3038582677
 31
0.0
  0
LINE
  5
10C
330
1F
100
AcDbEntity
  8
0
  6
Continuous
 62
     7
370
    25
100
AcDbLine
 10
1.2861417323
 20
0.2999212598
 30
0.0
 11
1.3333858268
 21
0.2999212598
 31
0.0
  0
LINE
  5
10D
330
1F
100
AcDbEntity
  8
0
  6
Continuous
 62
     7
370
    25
100
AcDbLine
 10
1.2861417323
 20
0.3038582677
 30
0.0
 11
1.2861417323
 21
0.2999212598
 31
0.0
  0
ARC
  5
10E
330
1F
100
AcDbEntity
  8
0
  6
Continuous
 62
     7
370
    25
100
AcDbCircle
 10
1.2782677165
 20
0.3038582677
 30
0.0
 40
0.0078740157480317
100
AcDbArc
 50
0.0
 51
90.0
  0
LINE
  5
10F
330
1F
100
AcDbEntity
  8
0
  6
Continuous
 62
     7
370
    25
100
AcDbLine
 10
0.6365354331
 20
0.3117322835
 30
0.0
 11
1.2782677165
 21
0.3117322835
 31
0.0
  0
ARC
  5
110
330
1F
100
AcDbEntity
  8
0
  6
Continuous
 62
     7
370
    25
100
AcDbCircle
 10
0.6365354331
 20
0.3038582677
 30
0.0
 40
0.0078740157480317
100
AcDbArc
 50
90.0
 51
180.0
  0
LINE
  5
111
330
1F
100
AcDbEntity
  8
0
  6
Continuous
 62
     7
370
    25
100
AcDbLine
 10
0.5814173228
 20
0.2999212598
 30
0.0
 11
0.6286614173
 21
0.2999212598
 31
0.0
  0
LINE
  5
112
330
1F
100
AcDbEntity
  8
0
  6
Continuous
 62
     7
370
    25
100
AcDbLine
 10
0.5814173228
 20
0.3038582677
 30
0.0
 11
0.5814173228
 21
0.2999212598
 31
0.0
  0
ARC
  5
113
330
1F
100
AcDbEntity
  8
0
  6
Continuous
 62
     7
370
    25
100
AcDbCircle
 10
0.5735433071
 20
0.3038582677
 30
0.0
 40
0.0078740157480317
100
AcDbArc
 50
0.0
 51
90.0
  0
LINE
  5
114
330
1F
100
AcDbEntity
  8
0
  6
Continuous
 62
     7
370
    25
100
AcDbLine
 10
0.5666535433
 20
0.3117322835
 30
0.0
 11
0.5735433071
 21
0.3117322835
 31
0.0
  0
ARC
  5
115
330
1F
100
AcDbEntity
  8
0
  6
Continuous
 62
     7
370
    25
100
AcDbCircle
 10
0.5666535433
 20
0.3038582677
 30
0.0
 40
0.0078740157480317
100
AcDbArc
 50
90.0
 51
180.0
  0
LINE
  5
116
330
1F
100
AcDbEntity
  8
0
  6
Continuous
 62
     7
370
    25
100
AcDbLine
 10
0.5587795276
 20
0.2999212598
 30
0.0
 11
0.5587795276
 21
0.3038582677
 31
0.0
  0
LINE
  5
117
330
1F
100
AcDbEntity
  8
0
  6
Continuous
 62
     7
370
    25
100
AcDbLine
 10
0.5075984252
 20
0.3038582677
 30
0.0
 11
0.5075984252
 21
0.2999212598
 31
0.0
  0
ARC
  5
118
330
1F
100
AcDbEntity
  8
0
  6
Continuous
 62
     7
370
    25
100
AcDbCircle
 10
0.4997244094
 20
0.3038582677
 30
0.0
 40
0.0078740157480316
100
AcDbArc
 50
0.0
 51
90.0
  0
LINE
  5
119
330
1F
100
AcDbEntity
  8
0
  6
Continuous
 62
     7
370
    25
100
AcDbLine
 10
0.4928346457
 20
0.3117322835
 30
0.0
 11
0.4997244094
 21
0.3117322835
 31
0.0
  0
ARC
  5
11A
330
1F
100
AcDbEntity
  8
0
  6
Continuous
 62
     7
370
    25
100
AcDbCircle
 10
0.4928346457
 20
0.3038582677
 30
0.0
 40
0.0078740157480317
100
AcDbArc
 50
90.0
 51
180.0
  0
LINE
  5
11B
330
1F
100
AcDbEntity
  8
0
  6
Continuous
 62
     7
370
    25
100
AcDbLine
 10
0.4849606299
 20
0.2999212598
 30
0.0
 11
0.4849606299
 21
0.3038582677
 31
0.0
  0
LINE
  5
11C
330
1F
100
AcDbEntity
  8
0
  6
Continuous
 62
     7
370
    25
100
AcDbLine
 10
0.4337795276
 20
0.2999212598
 30
0.0
 11
0.4849606299
 21
0.2999212598
 31
0.0
  0
LINE
  5
11D
330
1F
100
AcDbEntity
  8
0
  6
Continuous
 62
     7
370
    25
100
AcDbLine
 10
0.3599606299
 20
0.2999212598
 30
0.0
 11
0.4111417323
 21
0.2999212598
 31
0.0
  0
LINE
  5
11E
330
1F
100
AcDbEntity
  8
0
  6
Continuous
 62
     7
370
    25
100
AcDbLine
 10
0.3599606299
 20
0.3038582677
 30
0.0
 11
0.3599606299
 21
0.2999212598
 31
0.0
  0
ARC
  5
11F
330
1F
100
AcDbEntity
  8
0
  6
Continuous
 62
     7
370
    25
100
AcDbCircle
 10
0.3520866142
 20
0.3038582677
 30
0.0
 40
0.0078740157480317
100
AcDbArc
 50
0.0
 51
90.0
  0
LINE
  5
120
330
1F
100
AcDbEntity
  8
0
  6
Continuous
 62
     7
370
    25
100
AcDbLine
 10
0.3451968504
 20
0.3117322835
 30
0.0
 11
0.3520866142
 21
0.3117322835
 31
0.0
  0
ARC
  5
121
330
1F
100
AcDbEntity
  8
0
  6
Continuous
 62
     7
370
    25
100
AcDbCircle
 10
0.3451968504
 20
0.3038582677
 30
0.0
 40
0.0078740157480317
100
AcDbArc
 50
90.0
 51
180.0
  0
LINE
  5
122
330
1F
100
AcDbEntity
  8
0
  6
Continuous
 62
     7
370
    25
100
AcDbLine
 10
0.3373228346
 20
0.2999212598
 30
0.0
 11
0.3373228346
 21
0.3038582677
 31
0.0
  0
LINE
  5
123
330
1F
100
AcDbEntity
  8
0
  6
Continuous
 62
     7
370
    25
100
AcDbLine
 10
0.295984252
 20
0.2999212598
 30
0.0
 11
0.3373228346
 21
0.2999212598
 31
0.0
  0
LINE
  5
124
330
1F
100
AcDbEntity
  8
0
  6
Continuous
 62
     7
370
    25
100
AcDbLine
 10
0.295984252
 20
0.3038582677
 30
0.0
 11
0.295984252
 21
0.2999212598
 31
0.0
  0
ARC
  5
125
330
1F
100
AcDbEntity
  8
0
  6
Continuous
 62
     7
370
    25
100
AcDbCircle
 10
0.2881102362
 20
0.3038582677
 30
0.0
 40
0.0078740157480317
100
AcDbArc
 50
0.0
 51
90.0
  0
LINE
  5
126
330
1F
100
AcDbEntity
  8
0
  6
Continuous
 62
     7
370
    25
100
AcDbLine
 10
0.2756237288
 20
0.3117322835
 30
0.0
 11
0.2881102362
 21
0.3117322835
 31
0.0
  0
LINE
  5
127
330
1F
100
AcDbEntity
  8
0
  6
Continuous
 62
     7
370
    25
100
AcDbLine
 10
0.2756237288
 20
0.4574015748
 30
0.0
 11
0.2756237288
 21
0.3117322835
 31
0.0
  0
ARC
  5
128
330
1F
100
AcDbEntity
  8
0
  6
Continuous
 62
     7
370
    25
100
AcDbCircle
 10
1.2782677165
 20
0.3038582677
 30
0.0
 40
0.003937007874016
100
AcDbArc
 50
0.0
 51
90.0
  0
LINE
  5
129
330
1F
100
AcDbEntity
  8
0
  6
Continuous
 62
     7
370
    25
100
AcDbLine
 10
1.2782677165
 20
0.3077952756
 30
0.0
 11
1.2782677165
 21
0.3117322835
 31
0.0
  0
LINE
  5
12A
330
1F
100
AcDbEntity
  8
0
  6
Continuous
 62
     7
370
    25
100
AcDbLine
 10
1.2822047244
 20
0.3038582677
 30
0.0
 11
1.2861417323
 21
0.3038582677
 31
0.0
  0
LINE
  5
12B
330
1F
100
AcDbEntity
  8
0
  6
Continuous
 62
     7
370
    25
100
AcDbLine
 10
1.2782677165
 20
0.3077952756
 30
0.0
 11
0.6365354331
 21
0.3077952756
 31
0.0
  0
LINE
  5
12C
330
1F
100
AcDbEntity
  8
0
  6
Continuous
 62
     7
370
    25
100
AcDbLine
 10
0.6365354331
 20
0.3117322835
 30
0.0
 11
0.6365354331
 21
0.3077952756
 31
0.0
  0
LINE
  5
12D
330
1F
100
AcDbEntity
  8
0
  6
Continuous
 62
     7
370
    25
100
AcDbLine
 10
0.4849606299
 20
0.2999212598
 30
0.0
 11
0.4849606299
 21
0.295984252
 31
0.0
  0
LINE
  5
12E
330
1F
100
AcDbEntity
  8
0
  6
Continuous
 62
     7
370
    25
100
AcDbLine
 10
1.4298425197
 20
0.295984252
 30
0.0
 11
1.4298425197
 21
0.2999212598
 31
0.0
  0
LINE
  5
12F
330
1F
100
AcDbEntity
  8
0
  6
Continuous
 62
     7
370
    25
100
AcDbLine
 10
0.5587795276
 20
0.3038582677
 30
0.0
 11
0.5627165354
 21
0.3038582677
 31
0.0
  0
LINE
  5
130
330
1F
100
AcDbEntity
  8
0
  6
Continuous
 62
     7
370
    25
100
AcDbLine
 10
0.5627165354
 20
0.3038582677
 30
0.0
 11
0.5627165354
 21
0.2999212598
 31
0.0
  0
LINE
  5
131
330
1F
100
AcDbEntity
  8
0
  6
Continuous
 62
     7
370
    25
100
AcDbLine
 10
0.5587795276
 20
0.2999212598
 30
0.0
 11
0.5627165354
 21
0.2999212598
 31
0.0
  0
LINE
  5
132
330
1F
100
AcDbEntity
  8
0
  6
Continuous
 62
     7
370
    25
100
AcDbLine
 10
0.295984252
 20
0.3038582677
 30
0.0
 11
0.2920472441
 21
0.3038582677
 31
0.0
  0
ARC
  5
133
330
1F
100
AcDbEntity
  8
0
  6
Continuous
 62
     7
370
    25
100
AcDbCircle
 10
0.2881102362
 20
0.3038582677
 30
0.0
 40
0.003937007874016
100
AcDbArc
 50
0.0
 51
90.0
  0
LINE
  5
134
330
1F
100
AcDbEntity
  8
0
  6
Continuous
 62
     7
370
    25
100
AcDbLine
 10
0.2881102362
 20
0.3117322835
 30
0.0
 11
0.2881102362
 21
0.3077952756
 31
0.0
  0
LINE
  5
135
330
1F
100
AcDbEntity
  8
0
  6
Continuous
 62
     7
370
    25
100
AcDbLine
 10
1.6447471907
 20
0.4574015748
 30
0.0
 11
1.6391794208
 21
0.4574015748
 31
0.0
  0
LINE
  5
136
330
1F
100
AcDbEntity
  8
0
  6
Continuous
 62
     7
370
    25
100
AcDbLine
 10
1.6391794208
 20
0.4574015748
 30
0.0
 11
1.6391794208
 21
0.4652755906
 31
0.0
  0
ARC
  5
137
330
1F
100
AcDbEntity
  8
0
  6
Continuous
 62
     7
370
    25
100
AcDbCircle
 10
1.6377874783
 20
0.4583858268
 30
0.0
 40
0.0070289649887245
100
AcDbArc
 50
351.9505330245
 51
78.578246341
  0
LINE
  5
138
330
1F
100
AcDbEntity
  8
0
  6
Continuous
 62
     7
370
    25
100
AcDbLine
 10
0.4849606299
 20
0.2999212598
 30
0.0
 11
0.4888976378
 21
0.2999212598
 31
0.0
  0
ARC
  5
139
330
1F
100
AcDbEntity
  8
0
  6
Continuous
 62
     7
370
    25
100
AcDbCircle
 10
0.4849606299
 20
0.2999212598
 30
0.0
 40
0.0039370078740159
100
AcDbArc
 50
270.0
 51
0.0
  0
LINE
  5
13A
330
1F
100
AcDbEntity
  8
0
  6
Continuous
 62
     7
370
    25
100
AcDbLine
 10
1.4259055118
 20
0.2999212598
 30
0.0
 11
1.4298425197
 21
0.2999212598
 31
0.0
  0
ARC
  5
13B
330
1F
100
AcDbEntity
  8
0
  6
Continuous
 62
     7
370
    25
100
AcDbCircle
 10
1.4298425197
 20
0.2999212598
 30
0.0
 40
0.003937007874016
100
AcDbArc
 50
180.0
 51
270.0
  0
LINE
  5
13C
330
1F
100
AcDbEntity
  8
0
  6
Continuous
 62
     7
370
    25
100
AcDbLine
 10
0.5666535433
 20
0.3117322835
 30
0.0
 11
0.5666535433
 21
0.3077952756
 31
0.0
  0
ARC
  5
13D
330
1F
100
AcDbEntity
  8
0
  6
Continuous
 62
     7
370
    25
100
AcDbCircle
 10
0.5666535433
 20
0.3038582677
 30
0.0
 40
0.0039370078740159
100
AcDbArc
 50
90.0
 51
180.0
  0
LINE
  5
13E
330
1F
100
AcDbEntity
  8
0
  6
Continuous
 62
     7
370
    25
100
AcDbLine
 10
0.295984252
 20
0.2999212598
 30
0.0
 11
0.2920472441
 21
0.2999212598
 31
0.0
  0
LINE
  5
13F
330
1F
100
AcDbEntity
  8
0
  6
Continuous
 62
     7
370
    25
100
AcDbLine
 10
0.2920472441
 20
0.2999212598
 30
0.0
 11
0.2920472441
 21
0.3038582677
 31
0.0
  0
LINE
  5
140
330
1F
100
AcDbEntity
  8
0
  6
Continuous
 62
     7
370
    25
100
AcDbLine
 10
1.6227559055
 20
0.3038582677
 30
0.0
 11
1.6227559055
 21
0.2999212598
 31
0.0
  0
LINE
  5
141
330
1F
100
AcDbEntity
  8
0
  6
Continuous
 62
     7
370
    25
100
AcDbLine
 10
1.6227559055
 20
0.2999212598
 30
0.0
 11
1.6188188976
 21
0.2999212598
 31
0.0
  0
LINE
  5
142
330
1F
100
AcDbEntity
  8
0
  6
Continuous
 62
     7
370
    25
100
AcDbLine
 10
1.6227559055
 20
0.3038582677
 30
0.0
 11
1.6188188976
 21
0.3038582677
 31
0.0
  0
LINE
  5
143
330
1F
100
AcDbEntity
  8
0
  6
Continuous
 62
     7
370
    25
100
AcDbLine
 10
0.4849606299
 20
0.3038582677
 30
0.0
 11
0.4888976378
 21
0.3038582677
 31
0.0
  0
LINE
  5
144
330
1F
100
AcDbEntity
  8
0
  6
Continuous
 62
     7
370
    25
100
AcDbLine
 10
0.4888976378
 20
0.3038582677
 30
0.0
 11
0.4888976378
 21
0.2999212598
 31
0.0
  0
LINE
  5
145
330
1F
100
AcDbEntity
  8
0
  6
Continuous
 62
     7
370
    25
100
AcDbLine
 10
1.4259055118
 20
0.2999212598
 30
0.0
 11
1.4259055118
 21
0.3038582677
 31
0.0
  0
LINE
  5
146
330
1F
100
AcDbEntity
  8
0
  6
Continuous
 62
     7
370
    25
100
AcDbLine
 10
1.4259055118
 20
0.3038582677
 30
0.0
 11
1.4298425197
 21
0.3038582677
 31
0.0
  0
LINE
  5
147
330
1F
100
AcDbEntity
  8
0
  6
Continuous
 62
     7
370
    25
100
AcDbLine
 10
0.2700559589
 20
0.3117322835
 30
0.0
 11
0.2700559589
 21
0.4574015748
 31
0.0
  0
LINE
  5
148
330
1F
100
AcDbEntity
  8
0
  6
Continuous
 62
     7
370
    25
100
AcDbLine
 10
0.2756237288
 20
0.4574015748
 30
0.0
 11
0.2700559589
 21
0.4574015748
 31
0.0
  0
LINE
  5
149
330
1F
100
AcDbEntity
  8
0
  6
Continuous
 62
     7
370
    25
100
AcDbLine
 10
1.3481496063
 20
0.3077952756
 30
0.0
 11
1.3412598425
 21
0.3077952756
 31
0.0
  0
LINE
  5
14A
330
1F
100
AcDbEntity
  8
0
  6
Continuous
 62
     7
370
    25
100
AcDbLine
 10
1.3412598425
 20
0.3077952756
 30
0.0
 11
1.3412598425
 21
0.3117322835
 31
0.0
  0
LINE
  5
14B
330
1F
100
AcDbEntity
  8
0
  6
Continuous
 62
     7
370
    25
100
AcDbLine
 10
1.3481496063
 20
0.3077952756
 30
0.0
 11
1.3481496063
 21
0.3117322835
 31
0.0
  0
LINE
  5
14C
330
1F
100
AcDbEntity
  8
0
  6
Continuous
 62
     7
370
    25
100
AcDbLine
 10
1.6188188976
 20
0.295984252
 30
0.0
 11
1.6188188976
 21
0.2999212598
 31
0.0
  0
ARC
  5
14D
330
1F
100
AcDbEntity
  8
0
  6
Continuous
 62
     7
370
    25
100
AcDbCircle
 10
1.6188188976
 20
0.2999212598
 30
0.0
 40
0.0039370078740159
100
AcDbArc
 50
270.0
 51
0.0
  0
LINE
  5
14E
330
1F
100
AcDbEntity
  8
0
  6
Continuous
 62
     7
370
    25
100
AcDbLine
 10
0.4928346457
 20
0.3117322835
 30
0.0
 11
0.4928346457
 21
0.3077952756
 31
0.0
  0
ARC
  5
14F
330
1F
100
AcDbEntity
  8
0
  6
Continuous
 62
     7
370
    25
100
AcDbCircle
 10
0.4928346457
 20
0.3038582677
 30
0.0
 40
0.0039370078740159
100
AcDbArc
 50
90.0
 51
180.0
  0
ARC
  5
150
330
1F
100
AcDbEntity
  8
0
  6
Continuous
 62
     7
370
    25
100
AcDbCircle
 10
1.4219685039
 20
0.3038582677
 30
0.0
 40
0.0039370078740157
100
AcDbArc
 50
0.0
 51
90.0
  0
LINE
  5
151
330
1F
100
AcDbEntity
  8
0
  6
Continuous
 62
     7
370
    25
100
AcDbLine
 10
0.5814173228
 20
0.3038582677
 30
0.0
 11
0.577480315
 21
0.3038582677
 31
0.0
  0
ARC
  5
152
330
1F
100
AcDbEntity
  8
0
  6
Continuous
 62
     7
370
    25
100
AcDbCircle
 10
0.5735433071
 20
0.3038582677
 30
0.0
 40
0.0039370078740159
100
AcDbArc
 50
0.0
 51
90.0
  0
LINE
  5
153
330
1F
100
AcDbEntity
  8
0
  6
Continuous
 62
     7
370
    25
100
AcDbLine
 10
0.5735433071
 20
0.3117322835
 30
0.0
 11
0.5735433071
 21
0.3077952756
 31
0.0
  0
LINE
  5
154
330
1F
100
AcDbEntity
  8
0
  6
Continuous
 62
     7
370
    25
100
AcDbLine
 10
0.3373228346
 20
0.2999212598
 30
0.0
 11
0.3373228346
 21
0.295984252
 31
0.0
  0
LINE
  5
155
330
1F
100
AcDbEntity
  8
0
  6
Continuous
 62
     7
370
    25
100
AcDbLine
 10
0.295984252
 20
0.2999212598
 30
0.0
 11
0.295984252
 21
0.295984252
 31
0.0
  0
LINE
  5
156
330
1F
100
AcDbEntity
  8
0
  6
Continuous
 62
     7
370
    25
100
AcDbLine
 10
1.577480315
 20
0.295984252
 30
0.0
 11
1.577480315
 21
0.2999212598
 31
0.0
  0
LINE
  5
157
330
1F
100
AcDbEntity
  8
0
  6
Continuous
 62
     7
370
    25
100
AcDbLine
 10
0.4997244094
 20
0.3117322835
 30
0.0
 11
0.4997244094
 21
0.3077952756
 31
0.0
  0
LINE
  5
158
330
1F
100
AcDbEntity
  8
0
  6
Continuous
 62
     7
370
    25
100
AcDbLine
 10
0.4997244094
 20
0.3077952756
 30
0.0
 11
0.4928346457
 21
0.3077952756
 31
0.0
  0
ARC
  5
159
330
1F
100
AcDbEntity
  8
0
  6
Continuous
 62
     7
370
    25
100
AcDbCircle
 10
0.5587795276
 20
0.2999212598
 30
0.0
 40
0.0039370078740159
100
AcDbArc
 50
270.0
 51
0.0
  0
LINE
  5
15A
330
1F
100
AcDbEntity
  8
0
  6
Continuous
 62
     7
370
    25
100
AcDbLine
 10
0.5814173228
 20
0.2999212598
 30
0.0
 11
0.577480315
 21
0.2999212598
 31
0.0
  0
LINE
  5
15B
330
1F
100
AcDbEntity
  8
0
  6
Continuous
 62
     7
370
    25
100
AcDbLine
 10
0.577480315
 20
0.2999212598
 30
0.0
 11
0.577480315
 21
0.3038582677
 31
0.0
  0
LINE
  5
15C
330
1F
100
AcDbEntity
  8
0
  6
Continuous
 62
     7
370
    25
100
AcDbLine
 10
0.3373228346
 20
0.2999212598
 30
0.0
 11
0.3412598425
 21
0.2999212598
 31
0.0
  0
ARC
  5
15D
330
1F
100
AcDbEntity
  8
0
  6
Continuous
 62
     7
370
    25
100
AcDbCircle
 10
0.3373228346
 20
0.2999212598
 30
0.0
 40
0.0039370078740159
100
AcDbArc
 50
270.0
 51
0.0
  0
LINE
  5
15E
330
1F
100
AcDbEntity
  8
0
  6
Continuous
 62
     7
370
    25
100
AcDbLine
 10
1.5735433071
 20
0.2999212598
 30
0.0
 11
1.577480315
 21
0.2999212598
 31
0.0
  0
ARC
  5
15F
330
1F
100
AcDbEntity
  8
0
  6
Continuous
 62
     7
370
    25
100
AcDbCircle
 10
1.577480315
 20
0.2999212598
 30
0.0
 40
0.003937007874016
100
AcDbArc
 50
180.0
 51
270.0
  0
LINE
  5
160
330
1F
100
AcDbEntity
  8
0
  6
Continuous
 62
     7
370
    25
100
AcDbLine
 10
0.5075984252
 20
0.3038582677
 30
0.0
 11
0.5036614173
 21
0.3038582677
 31
0.0
  0
ARC
  5
161
330
1F
100
AcDbEntity
  8
0
  6
Continuous
 62
     7
370
    25
100
AcDbCircle
 10
0.4997244094
 20
0.3038582677
 30
0.0
 40
0.0039370078740159
100
AcDbArc
 50
0.0
 51
90.0
  0
LINE
  5
162
330
1F
100
AcDbEntity
  8
0
  6
Continuous
 62
     7
370
    25
100
AcDbLine
 10
0.3520866142
 20
0.3117322835
 30
0.0
 11
0.3520866142
 21
0.3077952756
 31
0.0
  0
LINE
  5
163
330
1F
100
AcDbEntity
  8
0
  6
Continuous
 62
     7
370
    25
100
AcDbLine
 10
0.3520866142
 20
0.3077952756
 30
0.0
 11
0.3451968504
 21
0.3077952756
 31
0.0
  0
LINE
  5
164
330
1F
100
AcDbEntity
  8
0
  6
Continuous
 62
     7
370
    25
100
AcDbLine
 10
0.3451968504
 20
0.3117322835
 30
0.0
 11
0.3451968504
 21
0.3077952756
 31
0.0
  0
LINE
  5
165
330
1F
100
AcDbEntity
  8
0
  6
Continuous
 62
     7
370
    25
100
AcDbLine
 10
0.5814173228
 20
0.2999212598
 30
0.0
 11
0.5814173228
 21
0.295984252
 31
0.0
  0
ARC
  5
166
330
1F
100
AcDbEntity
  8
0
  6
Continuous
 62
     7
370
    25
100
AcDbCircle
 10
0.5814173228
 20
0.2999212598
 30
0.0
 40
0.0039370078740159
100
AcDbArc
 50
180.0
 51
270.0
  0
LINE
  5
167
330
1F
100
AcDbEntity
  8
0
  6
Continuous
 62
     7
370
    25
100
AcDbLine
 10
0.3373228346
 20
0.3038582677
 30
0.0
 11
0.3412598425
 21
0.3038582677
 31
0.0
  0
LINE
  5
168
330
1F
100
AcDbEntity
  8
0
  6
Continuous
 62
     7
370
    25
100
AcDbLine
 10
0.3412598425
 20
0.3038582677
 30
0.0
 11
0.3412598425
 21
0.2999212598
 31
0.0
  0
LINE
  5
169
330
1F
100
AcDbEntity
  8
0
  6
Continuous
 62
     7
370
    25
100
AcDbLine
 10
1.5735433071
 20
0.2999212598
 30
0.0
 11
1.5735433071
 21
0.3038582677
 31
0.0
  0
LINE
  5
16A
330
1F
100
AcDbEntity
  8
0
  6
Continuous
 62
     7
370
    25
100
AcDbLine
 10
1.5735433071
 20
0.3038582677
 30
0.0
 11
1.577480315
 21
0.3038582677
 31
0.0
  0
LINE
  5
16B
330
1F
100
AcDbEntity
  8
0
  6
Continuous
 62
     7
370
    25
100
AcDbLine
 10
0.5036614173
 20
0.2999212598
 30
0.0
 11
0.5036614173
 21
0.3038582677
 31
0.0
  0
LINE
  5
16C
330
1F
100
AcDbEntity
  8
0
  6
Continuous
 62
     7
370
    25
100
AcDbLine
 10
1.4111417323
 20
0.3038582677
 30
0.0
 11
1.4111417323
 21
0.2999212598
 31
0.0
  0
LINE
  5
16D
330
1F
100
AcDbEntity
  8
0
  6
Continuous
 62
     7
370
    25
100
AcDbLine
 10
0.5275922328
 20
0.544015748
 30
0.0
 11
0.5275922328
 21
0.5361417323
 31
0.0
  0
LINE
  5
16E
330
1F
100
AcDbEntity
  8
0
  6
Continuous
 62
     7
370
    25
100
AcDbLine
 10
0.5275922328
 20
0.544015748
 30
0.0
 11
1.3872109168
 21
0.544015748
 31
0.0
  0
LINE
  5
16F
330
1F
100
AcDbEntity
  8
0
  6
Continuous
 62
     7
370
    25
100
AcDbLine
 10
1.3872109168
 20
0.544015748
 30
0.0
 11
1.3872109168
 21
0.5361417323
 31
0.0
  0
ARC
  5
170
330
1F
100
AcDbEntity
  8
0
  6
Continuous
 62
     7
370
    25
100
AcDbCircle
 10
1.3872109168
 20
0.5361417323
 30
0.0
 40
0.0078740157480318
100
AcDbArc
 50
45.0
 51
90.0
  0
ARC
  5
171
330
1F
100
AcDbEntity
  8
0
  6
Continuous
 62
     7
370
    25
100
AcDbCircle
 10
1.5696062992
 20
0.3038582677
 30
0.0
 40
0.003937007874016
100
AcDbArc
 50
0.0
 51
90.0
  0
LINE
  5
172
330
1F
100
AcDbEntity
  8
0
  6
Continuous
 62
     7
370
    25
100
AcDbLine
 10
1.5696062992
 20
0.3077952756
 30
0.0
 11
1.5696062992
 21
0.3117322835
 31
0.0
  0
ARC
  5
173
330
1F
100
AcDbEntity
  8
0
  6
Continuous
 62
     7
370
    25
100
AcDbCircle
 10
0.2770156713
 20
0.4583858268
 30
0.0
 40
0.0070289649887234
100
AcDbArc
 50
101.421753659
 51
188.0494669755
  0
LINE
  5
174
330
1F
100
AcDbEntity
  8
0
  6
Continuous
 62
     7
370
    25
100
AcDbLine
 10
0.5735433071
 20
0.3077952756
 30
0.0
 11
0.5666535433
 21
0.3077952756
 31
0.0
  0
LINE
  5
175
330
1F
100
AcDbEntity
  8
0
  6
Continuous
 62
     7
370
    25
100
AcDbLine
 10
1.5587795276
 20
0.3038582677
 30
0.0
 11
1.5587795276
 21
0.2999212598
 31
0.0
  0
LINE
  5
176
330
1F
100
AcDbEntity
  8
0
  6
Continuous
 62
     7
370
    25
100
AcDbLine
 10
1.5587795276
 20
0.2999212598
 30
0.0
 11
1.5548425197
 21
0.2999212598
 31
0.0
  0
LINE
  5
177
330
1F
100
AcDbEntity
  8
0
  6
Continuous
 62
     7
370
    25
100
AcDbLine
 10
1.5587795276
 20
0.3038582677
 30
0.0
 11
1.5548425197
 21
0.3038582677
 31
0.0
  0
ARC
  5
178
330
1F
100
AcDbEntity
  8
0
  6
Continuous
 62
     7
370
    25
100
AcDbCircle
 10
0.295984252
 20
0.2999212598
 30
0.0
 40
0.0039370078740159
100
AcDbArc
 50
180.0
 51
270.0
  0
LINE
  5
179
330
1F
100
AcDbEntity
  8
0
  6
Continuous
 62
     7
370
    25
100
AcDbLine
 10
1.5696062992
 20
0.3077952756
 30
0.0
 11
1.5627165354
 21
0.3077952756
 31
0.0
  0
LINE
  5
17A
330
1F
100
AcDbEntity
  8
0
  6
Continuous
 62
     7
370
    25
100
AcDbLine
 10
1.5627165354
 20
0.3077952756
 30
0.0
 11
1.5627165354
 21
0.3117322835
 31
0.0
  0
ARC
  5
17B
330
1F
100
AcDbEntity
  8
0
  6
Continuous
 62
     7
370
    25
100
AcDbCircle
 10
0.4111417323
 20
0.2999212598
 30
0.0
 40
0.0039370078740159
100
AcDbArc
 50
270.0
 51
0.0
  0
LINE
  5
17C
330
1F
100
AcDbEntity
  8
0
  6
Continuous
 62
     7
370
    25
100
AcDbLine
 10
0.4111417323
 20
0.2999212598
 30
0.0
 11
0.4111417323
 21
0.295984252
 31
0.0
  0
LINE
  5
17D
330
1F
100
AcDbEntity
  8
0
  6
Continuous
 62
     7
370
    25
100
AcDbLine
 10
0.3599606299
 20
0.2999212598
 30
0.0
 11
0.3599606299
 21
0.295984252
 31
0.0
  0
ARC
  5
17E
330
1F
100
AcDbEntity
  8
0
  6
Continuous
 62
     7
370
    25
100
AcDbCircle
 10
0.3599606299
 20
0.2999212598
 30
0.0
 40
0.0039370078740159
100
AcDbArc
 50
180.0
 51
270.0
  0
LINE
  5
17F
330
1F
100
AcDbEntity
  8
0
  6
Continuous
 62
     7
370
    25
100
AcDbLine
 10
0.3599606299
 20
0.2999212598
 30
0.0
 11
0.356023622
 21
0.2999212598
 31
0.0
  0
ARC
  5
180
330
1F
100
AcDbEntity
  8
0
  6
Continuous
 62
     7
370
    25
100
AcDbCircle
 10
1.3412598425
 20
0.3038582677
 30
0.0
 40
0.0039370078740159
100
AcDbArc
 50
90.0
 51
180.0
  0
LINE
  5
181
330
1F
100
AcDbEntity
  8
0
  6
Continuous
 62
     7
370
    25
100
AcDbLine
 10
1.3373228346
 20
0.3038582677
 30
0.0
 11
1.3333858268
 21
0.3038582677
 31
0.0
  0
LINE
  5
182
330
1F
100
AcDbEntity
  8
0
  6
Continuous
 62
     7
370
    25
100
AcDbLine
 10
0.3599606299
 20
0.3038582677
 30
0.0
 11
0.356023622
 21
0.3038582677
 31
0.0
  0
ARC
  5
183
330
1F
100
AcDbEntity
  8
0
  6
Continuous
 62
     7
370
    25
100
AcDbCircle
 10
0.3520866142
 20
0.3038582677
 30
0.0
 40
0.0039370078740159
100
AcDbArc
 50
0.0
 51
90.0
  0
ARC
  5
184
330
1F
100
AcDbEntity
  8
0
  6
Continuous
 62
     7
370
    25
100
AcDbCircle
 10
1.5627165354
 20
0.3038582677
 30
0.0
 40
0.003937007874016
100
AcDbArc
 50
90.0
 51
180.0
  0
ARC
  5
185
330
1F
100
AcDbEntity
  8
0
  6
Continuous
 62
     7
370
    25
100
AcDbCircle
 10
0.6365354331
 20
0.3038582677
 30
0.0
 40
0.0039370078740159
100
AcDbArc
 50
90.0
 51
180.0
  0
LINE
  5
186
330
1F
100
AcDbEntity
  8
0
  6
Continuous
 62
     7
370
    25
100
AcDbLine
 10
1.3520866142
 20
0.2999212598
 30
0.0
 11
1.356023622
 21
0.2999212598
 31
0.0
  0
ARC
  5
187
330
1F
100
AcDbEntity
  8
0
  6
Continuous
 62
     7
370
    25
100
AcDbCircle
 10
1.356023622
 20
0.2999212598
 30
0.0
 40
0.0039370078740157
100
AcDbArc
 50
180.0
 51
270.0
  0
LINE
  5
188
330
1F
100
AcDbEntity
  8
0
  6
Continuous
 62
     7
370
    25
100
AcDbLine
 10
0.2881102362
 20
0.3077952756
 30
0.0
 11
0.2756237288
 21
0.3077952756
 31
0.0
  0
LINE
  5
189
330
1F
100
AcDbEntity
  8
0
  6
Continuous
 62
     7
370
    25
100
AcDbLine
 10
0.356023622
 20
0.2999212598
 30
0.0
 11
0.356023622
 21
0.3038582677
 31
0.0
  0
ARC
  5
18A
330
1F
100
AcDbEntity
  8
0
  6
Continuous
 62
     7
370
    25
100
AcDbCircle
 10
0.5275922328
 20
0.5361417323
 30
0.0
 40
0.0078740157480318
100
AcDbArc
 50
90.0
 51
135.0
  0
ARC
  5
18B
330
1F
100
AcDbEntity
  8
0
  6
Continuous
 62
     7
370
    25
100
AcDbCircle
 10
0.6286614173
 20
0.2999212598
 30
0.0
 40
0.0039370078740159
100
AcDbArc
 50
270.0
 51
0.0
  0
LINE
  5
18C
330
1F
100
AcDbEntity
  8
0
  6
Continuous
 62
     7
370
    25
100
AcDbLine
 10
0.6286614173
 20
0.2999212598
 30
0.0
 11
0.6286614173
 21
0.295984252
 31
0.0
  0
LINE
  5
18D
330
1F
100
AcDbEntity
  8
0
  6
Continuous
 62
     7
370
    25
100
AcDbLine
 10
1.3520866142
 20
0.2999212598
 30
0.0
 11
1.3520866142
 21
0.3038582677
 31
0.0
  0
LINE
  5
18E
330
1F
100
AcDbEntity
  8
0
  6
Continuous
 62
     7
370
    25
100
AcDbLine
 10
1.3520866142
 20
0.3038582677
 30
0.0
 11
1.356023622
 21
0.3038582677
 31
0.0
  0
LINE
  5
18F
330
1F
100
AcDbEntity
  8
0
  6
Continuous
 62
     7
370
    25
100
AcDbLine
 10
1.3333858268
 20
0.295984252
 30
0.0
 11
1.3333858268
 21
0.2999212598
 31
0.0
  0
LINE
  5
190
330
1F
100
AcDbEntity
  8
0
  6
Continuous
 62
     7
370
    25
100
AcDbLine
 10
1.3373228346
 20
0.2999212598
 30
0.0
 11
1.3333858268
 21
0.2999212598
 31
0.0
  0
ARC
  5
191
330
1F
100
AcDbEntity
  8
0
  6
Continuous
 62
     7
370
    25
100
AcDbCircle
 10
1.3333858268
 20
0.2999212598
 30
0.0
 40
0.0039370078740159
100
AcDbArc
 50
270.0
 51
360.0
  0
LINE
  5
192
330
1F
100
AcDbEntity
  8
0
  6
Continuous
 62
     7
370
    25
100
AcDbLine
 10
0.5046456693
 20
0.4731496063
 30
0.0
 11
0.5046456693
 21
0.5210691845
 31
0.0
  0
ARC
  5
193
330
1F
100
AcDbEntity
  8
0
  6
Continuous
 62
     7
370
    25
100
AcDbCircle
 10
1.5548425197
 20
0.2999212598
 30
0.0
 40
0.0039370078740159
100
AcDbArc
 50
270.0
 51
360.0
  0
LINE
  5
194
330
1F
100
AcDbEntity
  8
0
  6
Continuous
 62
     7
370
    25
100
AcDbLine
 10
1.2822047244
 20
0.2999212598
 30
0.0
 11
1.2822047244
 21
0.3038582677
 31
0.0
  0
LINE
  5
195
330
1F
100
AcDbEntity
  8
0
  6
Continuous
 62
     7
370
    25
100
AcDbLine
 10
1.2822047244
 20
0.2999212598
 30
0.0
 11
1.2861417323
 21
0.2999212598
 31
0.0
  0
ARC
  5
196
330
1F
100
AcDbEntity
  8
0
  6
Continuous
 62
     7
370
    25
100
AcDbCircle
 10
1.3481496063
 20
0.3038582677
 30
0.0
 40
0.003937007874016
100
AcDbArc
 50
0.0
 51
90.0
  0
LINE
  5
197
330
1F
100
AcDbEntity
  8
0
  6
Continuous
 62
     7
370
    25
100
AcDbLine
 10
1.2861417323
 20
0.295984252
 30
0.0
 11
1.2861417323
 21
0.2999212598
 31
0.0
  0
LINE
  5
198
330
1F
100
AcDbEntity
  8
0
  6
Continuous
 62
     7
370
    25
100
AcDbLine
 10
1.3373228346
 20
0.3038582677
 30
0.0
 11
1.3373228346
 21
0.2999212598
 31
0.0
  0
LINE
  5
199
330
1F
100
AcDbEntity
  8
0
  6
Continuous
 62
     7
370
    25
100
AcDbLine
 10
1.6266929134
 20
0.3077952756
 30
0.0
 11
1.6266929134
 21
0.3117322835
 31
0.0
  0
LINE
  5
19A
330
1F
100
AcDbEntity
  8
0
  6
Continuous
 62
     7
370
    25
100
AcDbLine
 10
1.6391794208
 20
0.3077952756
 30
0.0
 11
1.6391794208
 21
0.3117322835
 31
0.0
  0
LINE
  5
19B
330
1F
100
AcDbEntity
  8
0
  6
Continuous
 62
     7
370
    25
100
AcDbLine
 10
1.6391794208
 20
0.3077952756
 30
0.0
 11
1.6266929134
 21
0.3077952756
 31
0.0
  0
ARC
  5
19C
330
1F
100
AcDbEntity
  8
0
  6
Continuous
 62
     7
370
    25
100
AcDbCircle
 10
0.3451968504
 20
0.3038582677
 30
0.0
 40
0.0039370078740159
100
AcDbArc
 50
90.0
 51
180.0
  0
LINE
  5
19D
330
1F
100
AcDbEntity
  8
0
  6
Continuous
 62
     7
370
    25
100
AcDbLine
 10
1.4180314961
 20
0.4652755906
 30
0.0
 11
1.6391794208
 21
0.4652755906
 31
0.0
  0
LINE
  5
19E
330
1F
100
AcDbEntity
  8
0
  6
Continuous
 62
     7
370
    25
100
AcDbLine
 10
1.6447471907
 20
0.4574015748
 30
0.0
 11
1.6447471907
 21
0.3117322835
 31
0.0
  0
LINE
  5
19F
330
1F
100
AcDbEntity
  8
0
  6
Continuous
 62
     7
370
    25
100
AcDbLine
 10
1.6447471907
 20
0.3117322835
 30
0.0
 11
1.6391794208
 21
0.3117322835
 31
0.0
  0
LINE
  5
1A0
330
1F
100
AcDbEntity
  8
0
  6
Continuous
 62
     7
370
    25
100
AcDbLine
 10
1.6391794208
 20
0.3077952756
 30
0.0
 11
1.6419633057
 21
0.3077952756
 31
0.0
  0
ARC
  5
1A1
330
1F
100
AcDbEntity
  8
0
  6
Continuous
 62
     7
370
    25
100
AcDbCircle
 10
1.6412673345
 20
0.3112401575
 30
0.0
 40
0.0035144824943628
100
AcDbArc
 50
281.421753659
 51
8.0494669755
  0
ARC
  5
1A2
330
1F
100
AcDbEntity
  8
0
  6
Continuous
 62
     7
370
    25
100
AcDbCircle
 10
1.6266929134
 20
0.3038582677
 30
0.0
 40
0.003937007874016
100
AcDbArc
 50
90.0
 51
180.0
  0
ARC
  5
1A3
330
1F
100
AcDbEntity
  8
0
  6
Continuous
 62
     7
370
    25
100
AcDbCircle
 10
1.2861417323
 20
0.2999212598
 30
0.0
 40
0.0039370078740157
100
AcDbArc
 50
180.0
 51
270.0
  0
ARC
  5
1A4
330
1F
100
AcDbEntity
  8
0
  6
Continuous
 62
     7
370
    25
100
AcDbCircle
 10
0.2740529632
 20
0.4601854598
 30
0.0
 40
0.0048709402297423
100
AcDbArc
 50
145.1430638682
 51
214.8569361318
  0
ARC
  5
1A5
330
1F
100
AcDbEntity
  8
0
  6
Continuous
 62
     7
370
    25
100
AcDbCircle
 10
0.2756237288
 20
0.4574015748
 30
0.0
 40
0.0078740157480316
100
AcDbArc
 50
90.0
 51
135.0
  0
ARC
  5
1A6
330
1F
100
AcDbEntity
  8
0
  6
Continuous
 62
     7
370
    25
100
AcDbCircle
 10
1.6391794208
 20
0.4574015748
 30
0.0
 40
0.0078740157480316
100
AcDbArc
 50
45.0
 51
90.0
  0
ARC
  5
1A7
330
1F
100
AcDbEntity
  8
0
  6
Continuous
 62
     7
370
    25
100
AcDbCircle
 10
1.6407501864
 20
0.4601854598
 30
0.0
 40
0.0048709402297429
100
AcDbArc
 50
325.1430638682
 51
34.8569361318
  0
ARC
  5
1A8
330
1F
100
AcDbEntity
  8
0
  6
Continuous
 62
     7
370
    25
100
AcDbCircle
 10
1.6563398822
 20
0.3112401575
 30
0.0
 40
0.0035144824943615
100
AcDbArc
 50
281.421753659
 51
8.0494669755
  0
LINE
  5
1A9
330
1F
100
AcDbEntity
  8
0
  6
Continuous
 62
     7
370
    25
100
AcDbLine
 10
1.6570358535
 20
0.3077952756
 30
0.0
 11
1.6419633057
 21
0.3077952756
 31
0.0
  0
LINE
  5
1AA
330
1F
100
AcDbEntity
  8
0
  6
Continuous
 62
     7
370
    25
100
AcDbLine
 10
1.6447471907
 20
0.3117322835
 30
0.0
 11
1.6598197384
 21
0.3117322835
 31
0.0
  0
LINE
  5
1AB
330
1F
100
AcDbEntity
  8
0
  6
Continuous
 62
     7
370
    25
100
AcDbLine
 10
0.2728398439
 20
0.3077952756
 30
0.0
 11
0.2577672961
 21
0.3077952756
 31
0.0
  0
ARC
  5
1AC
330
1F
100
AcDbEntity
  8
0
  6
Continuous
 62
     7
370
    25
100
AcDbCircle
 10
0.2584632674
 20
0.3112401575
 30
0.0
 40
0.0035144824943627
100
AcDbArc
 50
171.9505330245
 51
258.578246341
  0
LINE
  5
1AD
330
1F
100
AcDbEntity
  8
0
  6
Continuous
 62
     7
370
    25
100
AcDbLine
 10
0.2549834112
 20
0.3117322835
 30
0.0
 11
0.2700559589
 21
0.3117322835
 31
0.0
  0
LINE
  5
1AE
330
1F
100
AcDbEntity
  8
0
  6
Continuous
 62
     7
370
    25
100
AcDbLine
 10
0.2549834112
 20
0.4423290271
 30
0.0
 11
0.2549834112
 21
0.3117322835
 31
0.0
  0
LINE
  5
1AF
330
1F
100
AcDbEntity
  8
0
  6
Continuous
 62
     7
370
    25
100
AcDbLine
 10
0.2700559589
 20
0.4574015748
 30
0.0
 11
0.2549834112
 21
0.4423290271
 31
0.0
  0
LINE
  5
1B0
330
1F
100
AcDbEntity
  8
0
  6
Continuous
 62
     7
370
    25
100
AcDbLine
 10
0.2538302883
 20
0.4467436741
 30
0.0
 11
0.2700559589
 21
0.4629693447
 31
0.0
  0
ELLIPSE
  5
1B1
330
1F
100
AcDbEntity
  8
0
  6
Continuous
 62
     7
370
    25
100
AcDbEllipse
 10
0.2605511811
 20
0.4423290271
 30
0.0
 11
0.006825478561349351
 21
-0.00424887726032952
 31
0.0
210
0.0
220
0.0
230
1.0
 40
0.452423454
 41
3.298515710426925
 42
4.08391387382436
  0
ELLIPSE
  5
1B2
330
1F
100
AcDbEntity
  8
0
  6
Continuous
 62
     7
370
    25
100
AcDbEllipse
 10
0.2566141732
 20
0.4383920192
 30
0.0
 11
-0.002568979441897657
 21
0.00848476271453358
 31
0.0
210
0.0
220
0.0
230
1.0
 40
0.2277350773
 41
0.1212819370476488
 42
0.3830813248470734
  0
LINE
  5
1B3
330
1F
100
AcDbEntity
  8
0
  6
Continuous
 62
     7
370
    25
100
AcDbLine
 10
1.6447471907
 20
0.4629693447
 30
0.0
 11
1.6609728613
 21
0.4467436741
 31
0.0
  0
ELLIPSE
  5
1B4
330
1F
100
AcDbEntity
  8
0
  6
Continuous
 62
     7
370
    25
100
AcDbEllipse
 10
1.6581889764
 20
0.4383920192
 30
0.0
 11
0.002568979441897711
 21
0.008484762714533576
 31
0.0
210
0.0
220
0.0
230
1.0
 40
0.2277350773
 41
5.900103982332383
 42
6.161903370131843
  0
ELLIPSE
  5
1B5
330
1F
100
AcDbEntity
  8
0
  6
Continuous
 62
     7
370
    25
100
AcDbEllipse
 10
1.6542519685
 20
0.4423290271
 30
0.0
 11
0.006825478561349296
 21
0.004248877260329575
 31
0.0
210
0.0
220
0.0
230
1.0
 40
0.452423454
 41
5.340864086945051
 42
6.126262250342378
  0
LINE
  5
1B6
330
1F
100
AcDbEntity
  8
0
  6
Continuous
 62
     7
370
    25
100
AcDbLine
 10
1.6598197384
 20
0.4423290271
 30
0.0
 11
1.6447471907
 21
0.4574015748
 31
0.0
  0
LINE
  5
1B7
330
1F
100
AcDbEntity
  8
0
  6
Continuous
 62
     7
370
    25
100
AcDbLine
 10
1.6598197384
 20
0.3117322835
 30
0.0
 11
1.6598197384
 21
0.4423290271
 31
0.0
  0
ARC
  5
1B8
330
1F
100
AcDbEntity
  8
0
  6
Continuous
 62
     7
370
    25
100
AcDbCircle
 10
0.2566141732
 20
0.3117322835
 30
0.0
 40
0.0039370078740159
100
AcDbArc
 50
180.0
 51
270.0
  0
LINE
  5
1B9
330
1F
100
AcDbEntity
  8
0
  6
Continuous
 62
     7
370
    25
100
AcDbLine
 10
0.2526771654
 20
0.3117322835
 30
0.0
 11
0.2549834112
 21
0.3117322835
 31
0.0
  0
LINE
  5
1BA
330
1F
100
AcDbEntity
  8
0
  6
Continuous
 62
     7
370
    25
100
AcDbLine
 10
0.2566141732
 20
0.3077952756
 30
0.0
 11
0.2577672961
 21
0.3077952756
 31
0.0
  0
LINE
  5
1BB
330
1F
100
AcDbEntity
  8
0
  6
Continuous
 62
     7
370
    25
100
AcDbLine
 10
1.6598197384
 20
0.3117322835
 30
0.0
 11
1.6621259843
 21
0.3117322835
 31
0.0
  0
ARC
  5
1BC
330
1F
100
AcDbEntity
  8
0
  6
Continuous
 62
     7
370
    25
100
AcDbCircle
 10
1.6581889764
 20
0.3117322835
 30
0.0
 40
0.003937007874016
100
AcDbArc
 50
270.0
 51
0.0
  0
LINE
  5
1BD
330
1F
100
AcDbEntity
  8
0
  6
Continuous
 62
     7
370
    25
100
AcDbLine
 10
1.6570358535
 20
0.3077952756
 30
0.0
 11
1.6581889764
 21
0.3077952756
 31
0.0
  0
LINE
  5
1BE
330
1F
100
AcDbEntity
  8
0
  6
Continuous
 62
     7
370
    25
100
AcDbLine
 10
0.2526771654
 20
0.3117322835
 30
0.0
 11
0.2526771654
 21
0.443770072
 31
0.0
  0
ELLIPSE
  5
1BF
330
1F
100
AcDbEntity
  8
0
  6
Continuous
 62
     7
370
    25
100
AcDbEllipse
 10
0.2605511811
 20
0.4423290271
 30
0.0
 11
0.007869612693661043
 21
-0.001488423949813189
 31
0.0
210
0.0
220
0.0
230
1.0
 40
0.1768897998
 41
3.175036338434624
 42
3.960434501832139
  0
ARC
  5
1C0
330
1F
100
AcDbEntity
  8
0
  6
Continuous
 62
     7
370
    25
100
AcDbCircle
 10
0.2562183033
 20
0.4441072501
 30
0.0
 40
0.0035571543428698
100
AcDbArc
 50
132.1695938191
 51
185.4391606038
  0
ELLIPSE
  5
1C1
330
1F
100
AcDbEntity
  8
0
  6
Continuous
 62
     7
370
    25
100
AcDbEllipse
 10
1.6542519685
 20
0.4423290271
 30
0.0
 11
0.007869612693661043
 21
0.001488423949813245
 31
0.0
210
0.0
220
0.0
230
1.0
 40
0.1768897998
 41
5.464343458937288
 42
6.249741622334867
  0
LINE
  5
1C2
330
1F
100
AcDbEntity
  8
0
  6
Continuous
 62
     7
370
    25
100
AcDbLine
 10
1.6621259843
 20
0.443770072
 30
0.0
 11
1.6621259843
 21
0.3117322835
 31
0.0
  0
ARC
  5
1C3
330
1F
100
AcDbEntity
  8
0
  6
Continuous
 62
     7
370
    25
100
AcDbCircle
 10
1.6585848463
 20
0.4441072501
 30
0.0
 40
0.0035571543428665
100
AcDbArc
 50
354.5608393962
 51
47.8304061809
  0
LINE
  5
1C4
330
1F
100
AcDbEntity
  8
0
  6
Continuous
 62
     7
370
    25
100
AcDbLine
 10
0.2526771654
 20
0.443770072
 30
0.0
 11
0.2526771654
 21
0.4439597891
 31
0.0
  0
ARC
  5
1C5
330
1F
100
AcDbEntity
  8
0
  6
Continuous
 62
     7
370
    25
100
AcDbCircle
 10
0.2566141732
 20
0.4439597891
 30
0.0
 40
0.0039370078740157
100
AcDbArc
 50
135.0
 51
180.0
  0
ARC
  5
1C6
330
1F
100
AcDbEntity
  8
0
  6
Continuous
 62
     7
370
    25
100
AcDbCircle
 10
1.6581889764
 20
0.4439597891
 30
0.0
 40
0.003937007874016
100
AcDbArc
 50
0.0
 51
45.0
  0
LINE
  5
1C7
330
1F
100
AcDbEntity
  8
0
  6
Continuous
 62
     7
370
    25
100
AcDbLine
 10
1.6621259843
 20
0.4439597891
 30
0.0
 11
1.6621259843
 21
0.443770072
 31
0.0
  0
LINE
  5
1C8
330
1B
100
AcDbEntity
 67
     1
  8
0
  6
Continuous
 62
     7
370
    25
100
AcDbLine
 10
19.855
 20
0.2093700787
 30
0.0
 11
0.17
 21
0.2093700787
 31
0.0
  0
LINE
  5
1C9
330
1B
100
AcDbEntity
 67
     1
  8
0
  6
Continuous
 62
     7
370
    25
100
AcDbLine
 10
19.855
 20
0.17
 30
0.0
 11
19.855
 21
0.2093700787
 31
0.0
  0
LINE
  5
1CA
330
1B
100
AcDbEntity
 67
     1
  8
0
  6
Continuous
 62
     7
370
    25
100
AcDbLine
 10
19.855
 20
0.17
 30
0.0
 11
0.17
 21
0.17
 31
0.0
  0
LINE
  5
1CB
330
1B
100
AcDbEntity
 67
     1
  8
0
  6
Continuous
 62
     7
370
    25
100
AcDbLine
 10
0.17
 20
0.17
 30
0.0
 11
0.17
 21
0.2093700787
 31
0.0
  0
LINE
  5
1CC
330
1B
100
AcDbEntity
 67
     1
  8
0
  6
Continuous
 62
     7
370
    25
100
AcDbLine
 10
19.855
 20
0.4849606299
 30
0.0
 11
0.17
 21
0.4849606299
 31
0.0
  0
LINE
  5
1CD
330
1B
100
AcDbEntity
 67
     1
  8
0
  6
Continuous
 62
     7
370
    25
100
AcDbLine
 10
0.17
 20
0.2093700787
 30
0.0
 11
0.17
 21
0.4849606299
 31
0.0
  0
LINE
  5
1CE
330
1B
100
AcDbEntity
 67
     1
  8
0
  6
Continuous
 62
     7
370
    25
100
AcDbLine
 10
19.855
 20
0.2093700787
 30
0.0
 11
19.855
 21
0.4849606299
 31
0.0
  0
LINE
  5
1CF
330
1B
100
AcDbEntity
 67
     1
  8
0
  6
Continuous
 62
     7
370
    25
100
AcDbLine
 10
19.855
 20
0.5243307087
 30
0.0
 11
0.17
 21
0.5243307087
 31
0.0
  0
LINE
  5
1D0
330
1B
100
AcDbEntity
 67
     1
  8
0
  6
Continuous
 62
     7
370
    25
100
AcDbLine
 10
0.17
 20
0.4849606299
 30
0.0
 11
0.17
 21
0.5243307087
 31
0.0
  0
LINE
  5
1D1
330
1B
100
AcDbEntity
 67
     1
  8
0
  6
Continuous
 62
     7
370
    25
100
AcDbLine
 10
19.855
 20
0.4849606299
 30
0.0
 11
19.855
 21
0.5243307087
 31
0.0
  0
LINE
  5
1D2
330
1B
100
AcDbEntity
 67
     1
  8
0
  6
Continuous
 62
     7
370
    25
100
AcDbLine
 10
1.1621259843
 20
0.5266369545
 30
0.0
 11
3.1148818898
 21
0.5266369545
 31
0.0
  0
ARC
  5
1D3
330
1B
100
AcDbEntity
 67
     1
  8
0
  6
Continuous
 62
     7
370
    25
100
AcDbCircle
 10
1.1611417323
 20
0.5347497898
 30
0.0
 40
0.0070289649887254
100
AcDbArc
 50
81.9505330245
 51
168.578246341
  0
LINE
  5
1D4
330
1B
100
AcDbEntity
 67
     1
  8
0
  6
Continuous
 62
     7
370
    25
100
AcDbLine
 10
1.1621259843
 20
0.5417095022
 30
0.0
 11
1.1621259843
 21
0.5266369545
 31
0.0
  0
LINE
  5
1D5
330
1B
100
AcDbEntity
 67
     1
  8
0
  6
Continuous
 62
     7
370
    25
100
AcDbLine
 10
1.1542519685
 20
0.5243307087
 30
0.0
 11
1.1542519685
 21
0.5361417323
 31
0.0
  0
LINE
  5
1D6
330
1B
100
AcDbEntity
 67
     1
  8
0
  6
Continuous
 62
     7
370
    25
100
AcDbLine
 10
3.1148818898
 20
0.5266369545
 30
0.0
 11
3.1148818898
 21
0.5417095022
 31
0.0
  0
ARC
  5
1D7
330
1B
100
AcDbEntity
 67
     1
  8
0
  6
Continuous
 62
     7
370
    25
100
AcDbCircle
 10
3.1158661417
 20
0.5347497898
 30
0.0
 40
0.0070289649887233
100
AcDbArc
 50
11.421753659
 51
98.0494669755
  0
LINE
  5
1D8
330
1B
100
AcDbEntity
 67
     1
  8
0
  6
Continuous
 62
     7
370
    25
100
AcDbLine
 10
3.1227559055
 20
0.5361417323
 30
0.0
 11
3.1227559055
 21
0.5243307087
 31
0.0
  0
LINE
  5
1D9
330
1B
100
AcDbEntity
 67
     1
  8
0
  6
Continuous
 62
     7
370
    25
100
AcDbLine
 10
3.1148818898
 20
0.5417095022
 30
0.0
 11
1.1621259843
 21
0.5417095022
 31
0.0
  0
ARC
  5
1DA
330
1B
100
AcDbEntity
 67
     1
  8
0
  6
Continuous
 62
     7
370
    25
100
AcDbCircle
 10
3.1148818898
 20
0.5361417323
 30
0.0
 40
0.0078740157480328
100
AcDbArc
 50
0.0
 51
90.0
  0
LINE
  5
1DB
330
1B
100
AcDbEntity
 67
     1
  8
0
  6
Continuous
 62
     7
370
    25
100
AcDbLine
 10
3.1148818898
 20
0.5417095022
 30
0.0
 11
3.1148818898
 21
0.544015748
 31
0.0
  0
LINE
  5
1DC
330
1B
100
AcDbEntity
 67
     1
  8
0
  6
Continuous
 62
     7
370
    25
100
AcDbLine
 10
1.1621259843
 20
0.544015748
 30
0.0
 11
1.1621259843
 21
0.5417095022
 31
0.0
  0
ARC
  5
1DD
330
1B
100
AcDbEntity
 67
     1
  8
0
  6
Continuous
 62
     7
370
    25
100
AcDbCircle
 10
1.1621259843
 20
0.5361417323
 30
0.0
 40
0.0078740157480318
100
AcDbArc
 50
90.0
 51
180.0
  0
LINE
  5
1DE
330
1B
100
AcDbEntity
 67
     1
  8
0
  6
Continuous
 62
     7
370
    25
100
AcDbLine
 10
1.1621259843
 20
0.544015748
 30
0.0
 11
3.1148818898
 21
0.544015748
 31
0.0
  0
ARC
  5
1DF
330
1B
100
AcDbEntity
 67
     1
  8
0
  6
Continuous
 62
     8
370
    25
100
AcDbCircle
 10
1.1618481428
 20
0.5174233531
 30
0.0
 40
0.009217789640686
100
AcDbArc
 50
88.2727364179
 51
131.4658500272
  0
LINE
  5
1E0
330
1B
100
AcDbEntity
 67
     1
  8
0
  6
Continuous
 62
     8
370
    25
100
AcDbLine
 10
1.1621259843
 20
0.5243307087
 30
0.0
 11
1.1621259843
 21
0.5266369545
 31
0.0
  0
LINE
  5
1E1
330
1B
100
AcDbEntity
 67
     1
  8
0
  6
Continuous
 62
     8
370
    25
100
AcDbLine
 10
3.1148818898
 20
0.5266369545
 30
0.0
 11
3.1148818898
 21
0.5243307087
 31
0.0
  0
ARC
  5
1E2
330
1B
100
AcDbEntity
 67
     1
  8
0
  6
Continuous
 62
     8
370
    25
100
AcDbCircle
 10
3.1152077978
 20
0.5175563584
 30
0.0
 40
0.0090864427047744
100
AcDbArc
 50
48.2059158304
 51
92.0554977244
  0
ENDSEC
  0
SECTION
  2
OBJECTS
  0
DICTIONARY
  5
C
330
0
100
AcDbDictionary
281
     1
  3
ACAD_DETAILVIEWSTYLE
350
4EB
  3
ACAD_GROUP
350
D
  3
ACAD_LAYOUT
350
1A
  3
ACAD_MATERIAL
350
43
  3
ACAD_MLEADERSTYLE
350
6B
  3
ACAD_MLINESTYLE
350
17
  3
ACAD_PLOTSETTINGS
350
19
  3
ACAD_PLOTSTYLENAME
350
E
  3
ACAD_SCALELIST
350
47
  3
ACAD_SECTIONVIEWSTYLE
350
4EC
  3
ACAD_TABLESTYLE
350
69
  3
ACAD_VISUALSTYLE
350
2A
  3
ACDB_RECOMPOSE_DATA
350
4E8
  3
AcDbVariableDictionary
350
4E4
  0
SUN
  5
6D
330
29
100
AcDbSun
 90
        1
290
     0
 63
     7
421
 16777215
 40
1.0
291
     1
 91
  2455826
 92
 54000000
292
     0
 70
     2
 71
   256
280
     1
  0
DICTIONARY
  5
4EB
102
{ACAD_REACTORS
330
C
102
}
330
C
100
AcDbDictionary
281
     1
  0
DICTIONARY
  5
D
102
{ACAD_REACTORS
330
C
102
}
330
C
100
AcDbDictionary
281
     1
  0
DICTIONARY
  5
1A
102
{ACAD_REACTORS
330
C
102
}
330
C
100
AcDbDictionary
281
     1
  3
Back
350
38D
  3
Left
350
26
  3
Model
350
22
  3
Right
350
1E
  3
Top
350
1FF
  0
DICTIONARY
  5
43
102
{ACAD_REACTORS
330
C
102
}
330
C
100
AcDbDictionary
281
     1
  3
ByBlock
350
45
  3
ByLayer
350
44
  3
Global
350
46
  0
DICTIONARY
  5
6B
102
{ACAD_REACTORS
330
C
102
}
330
C
100
AcDbDictionary
281
     1
  3
Standard
350
6C
  0
DICTIONARY
  5
17
102
{ACAD_REACTORS
330
C
102
}
330
C
100
AcDbDictionary
281
     1
  3
Standard
350
18
  0
DICTIONARY
  5
19
102
{ACAD_REACTORS
330
C
102
}
330
C
100
AcDbDictionary
281
     1
  0
ACDBDICTIONARYWDFLT
  5
E
102
{ACAD_REACTORS
330
C
102
}
330
C
100
AcDbDictionary
281
     1
  3
Normal
350
F
100
AcDbDictionaryWithDefault
340
F
  0
DICTIONARY
  5
47
102
{ACAD_REACTORS
330
C
102
}
330
C
100
AcDbDictionary
281
     1
  3
A0
350
48
  3
A1
350
49
  3
A2
350
4A
  3
A3
350
4B
  3
A4
350
4C
  3
A5
350
4D
  3
A6
350
4E
  3
A7
350
4F
  3
A8
350
50
  3
A9
350
51
  3
B0
350
52
  3
B1
350
53
  3
B2
350
54
  3
B3
350
55
  3
B4
350
56
  3
B5
350
57
  3
B6
350
58
  3
B7
350
59
  3
B8
350
5A
  3
B9
350
5B
  3
C0
350
5C
  3
C1
350
5D
  3
C2
350
5E
  3
C3
350
5F
  3
C4
350
60
  3
C5
350
61
  3
C6
350
62
  3
C7
350
63
  3
C8
350
64
  3
C9
350
65
  3
D0
350
66
  3
D1
350
67
  3
D2
350
68
  0
DICTIONARY
  5
4EC
102
{ACAD_REACTORS
330
C
102
}
330
C
100
AcDbDictionary
281
     1
  0
DICTIONARY
  5
69
102
{ACAD_REACTORS
330
C
102
}
330
C
100
AcDbDictionary
281
     1
  3
Standard
350
6A
  0
DICTIONARY
  5
2A
102
{ACAD_REACTORS
330
C
102
}
330
C
100
AcDbDictionary
281
     1
  3
2dWireframe
350
2F
  3
Basic
350
32
  3
Brighten
350
36
  3
ColorChange
350
3A
  3
Conceptual
350
34
  3
Dim
350
35
  3
EdgeColorOff
350
3D
  3
Facepattern
350
39
  3
Flat
350
2B
  3
FlatWithEdges
350
2C
  3
Gouraud
350
2D
  3
GouraudWithEdges
350
2E
  3
Hidden
350
31
  3
JitterOff
350
3B
  3
Linepattern
350
38
  3
OverhangOff
350
3C
  3
Realistic
350
33
  3
Shaded
350
42
  3
Shaded with edges
350
41
  3
Shades of Gray
350
3E
  3
Sketchy
350
3F
  3
Thicken
350
37
  3
Wireframe
350
30
  3
X-Ray
350
40
  0
XRECORD
  5
4E8
102
{ACAD_REACTORS
330
C
102
}
330
C
100
AcDbXrecord
280
     1
 90
        1
330
6A
  0
DICTIONARY
  5
4E4
102
{ACAD_REACTORS
330
C
102
}
330
C
100
AcDbDictionary
281
     1
  3
CANNOSCALE
350
4E5
  3
CMLEADERSTYLE
350
4EA
  3
CTABLESTYLE
350
4E9
  0
LAYOUT
  5
38D
102
{ACAD_REACTORS
330
1A
102
}
330
1A
100
AcDbPlotSettings
  1

  2
none_device
  4
ANSI_A_(11.00_x_8.50_Inches)
  6

 40
6.35
 41
19.05
 42
6.35000508
 43
19.05000254
 44
279.4
 45
215.9
 46
0.0
 47
0.0
 48
0.0
 49
0.0
140
0.0
141
0.0
142
1.0
143
1.0
 70
  4832
 72
     0
 73
     0
 74
     1
  7

 75
    16
 76
     0
 77
     2
 78
   300
147
1.0
148
0.0
149
0.0
100
AcDbLayout
  1
Back
 70
     1
 71
     4
 10
0.0
 20
0.0
 11
11.0
 21
8.5
 12
0.0
 22
0.0
 32
0.0
 14
0.0
 24
0.0
 34
0.0
 15
11.0
 25
8.5
 35
0.0
146
0.0
 13
0.0
 23
0.0
 33
0.0
 16
1.0
 26
0.0
 36
0.0
 17
0.0
 27
1.0
 37
0.0
 76
     0
330
38C
  0
LAYOUT
  5
26
102
{ACAD_REACTORS
330
1A
102
}
330
1A
100
AcDbPlotSettings
  1

  2
none_device
  4
ANSI_A_(11.00_x_8.50_Inches)
  6

 40
6.35
 41
19.05
 42
6.35000508
 43
19.05000254
 44
279.4
 45
215.9
 46
0.0
 47
0.0
 48
0.0
 49
0.0
140
0.0
141
0.0
142
1.0
143
1.0
 70
  4832
 72
     0
 73
     0
 74
     1
  7

 75
    16
 76
     0
 77
     2
 78
   300
147
1.0
148
0.0
149
0.0
100
AcDbLayout
  1
Left
 70
     1
 71
     2
 10
0.0
 20
0.0
 11
11.0
 21
8.5
 12
0.0
 22
0.0
 32
0.0
 14
0.0
 24
0.0
 34
0.0
 15
11.0
 25
8.5
 35
0.0
146
0.0
 13
0.0
 23
0.0
 33
0.0
 16
1.0
 26
0.0
 36
0.0
 17
0.0
 27
1.0
 37
0.0
 76
     0
330
23
  0
LAYOUT
  5
22
102
{ACAD_REACTORS
330
1A
102
}
330
1A
100
AcDbPlotSettings
  1

  2
none_device
  4
Letter_(8.50_x_11.00_Inches)
  6

 40
6.35
 41
6.35
 42
6.35000508
 43
6.35000508
 44
215.9
 45
279.4
 46
0.0
 47
0.0
 48
0.0
 49
0.0
140
0.0
141
0.0
142
1.0
143
1.0
 70
  1712
 72
     0
 73
     0
 74
     0
  7

 75
     0
 76
     0
 77
     2
 78
   300
147
1.0
148
0.0
149
0.0
100
AcDbLayout
  1
Model
 70
     1
 71
     0
 10
0.0
 20
0.0
 11
11.0
 21
8.5
 12
0.0
 22
0.0
 32
0.0
 14
0.0
 24
0.0
 34
0.0
 15
11.0
 25
8.5
 35
0.0
146
0.0
 13
0.0
 23
0.0
 33
0.0
 16
1.0
 26
0.0
 36
0.0
 17
0.0
 27
1.0
 37
0.0
 76
     0
330
1F
331
29
  0
LAYOUT
  5
1E
102
{ACAD_REACTORS
330
1A
102
}
330
1A
100
AcDbPlotSettings
  1

  2
none_device
  4
ANSI_A_(11.00_x_8.50_Inches)
  6

 40
6.35
 41
19.05
 42
6.35000508
 43
19.05000254
 44
279.4
 45
215.9
 46
0.0
 47
0.0
 48
0.0
 49
0.0
140
0.0
141
0.0
142
1.0
143
1.0
 70
  4832
 72
     0
 73
     0
 74
     1
  7

 75
     0
 76
     0
 77
     2
 78
   300
147
1.0
148
0.0
149
0.0
100
AcDbLayout
  1
Right
 70
     1
 71
     1
 10
0.0
 20
0.0
 11
11.0
 21
8.5
 12
0.0
 22
0.0
 32
0.0
 14
0.0
 24
0.0
 34
0.0
 15
11.0
 25
8.5
 35
0.0
146
0.0
 13
0.0
 23
0.0
 33
0.0
 16
1.0
 26
0.0
 36
0.0
 17
0.0
 27
1.0
 37
0.0
 76
     0
330
1B
  0
LAYOUT
  5
1FF
102
{ACAD_REACTORS
330
1A
102
}
330
1A
100
AcDbPlotSettings
  1

  2
none_device
  4
ANSI_A_(11.00_x_8.50_Inches)
  6

 40
6.35
 41
19.05
 42
6.35000508
 43
19.05000254
 44
279.4
 45
215.9
 46
0.0
 47
0.0
 48
0.0
 49
0.0
140
0.0
141
0.0
142
1.0
143
1.0
 70
  4832
 72
     0
 73
     0
 74
     1
  7

 75
    16
 76
     0
 77
     2
 78
   300
147
1.0
148
0.0
149
0.0
100
AcDbLayout
  1
Top
 70
     1
 71
     3
 10
0.0
 20
0.0
 11
11.0
 21
8.5
 12
0.0
 22
0.0
 32
0.0
 14
0.0
 24
0.0
 34
0.0
 15
11.0
 25
8.5
 35
0.0
146
0.0
 13
0.0
 23
0.0
 33
0.0
 16
1.0
 26
0.0
 36
0.0
 17
0.0
 27
1.0
 37
0.0
 76
     0
330
1FE
  0
MATERIAL
  5
45
102
{ACAD_REACTORS
330
43
102
}
330
43
100
AcDbMaterial
  1
ByBlock
 72
     1
 94
      127
  0
MATERIAL
  5
44
102
{ACAD_REACTORS
330
43
102
}
330
43
100
AcDbMaterial
  1
ByLayer
 72
     1
 94
      127
  0
MATERIAL
  5
46
102
{ACAD_REACTORS
330
43
102
}
330
43
100
AcDbMaterial
  1
Global
 72
     1
 94
      127
  0
MLEADERSTYLE
  5
6C
102
{ACAD_REACTORS
330
6B
102
}
330
6B
100
AcDbMLeaderStyle
179
     2
170
     2
171
     1
172
     0
 90
        2
 40
0.0
 41
0.0
173
     1
 91
-1056964608
340
14
 92
       -2
290
     1
 42
0.09
291
     1
 43
0.36
  3
Standard
341
0
 44
0.18
300

342
11
174
     1
178
     6
175
     1
176
     0
 93
-1056964608
 45
0.18
292
     0
297
     0
 46
0.18
343
0
 94
-1056964608
 47
1.0
 49
1.0
140
1.0
293
     1
141
0.0
294
     1
177
     0
142
1.0
295
     0
296
     0
143
0.125
271
     0
272
     9
273
     9
298
     0
  0
MLINESTYLE
  5
18
102
{ACAD_REACTORS
330
17
102
}
330
17
100
AcDbMlineStyle
  2
Standard
 70
     0
  3

 62
   256
 51
90.0
 52
90.0
 71
     2
 49
0.5
 62
   256
  6
BYLAYER
 49
-0.5
 62
   256
  6
BYLAYER
  0
ACDBPLACEHOLDER
  5
F
102
{ACAD_REACTORS
330
E
102
}
330
E
  0
SCALE
  5
48
102
{ACAD_REACTORS
330
47
102
}
330
47
100
AcDbScale
 70
     0
300
1:1
140
1.0
141
1.0
290
     1
  0
SCALE
  5
49
102
{ACAD_REACTORS
330
47
102
}
330
47
100
AcDbScale
 70
     0
300
1:2
140
1.0
141
2.0
290
     0
  0
SCALE
  5
4A
102
{ACAD_REACTORS
330
47
102
}
330
47
100
AcDbScale
 70
     0
300
1:4
140
1.0
141
4.0
290
     0
  0
SCALE
  5
4B
102
{ACAD_REACTORS
330
47
102
}
330
47
100
AcDbScale
 70
     0
300
1:5
140
1.0
141
5.0
290
     0
  0
SCALE
  5
4C
102
{ACAD_REACTORS
330
47
102
}
330
47
100
AcDbScale
 70
     0
300
1:8
140
1.0
141
8.0
290
     0
  0
SCALE
  5
4D
102
{ACAD_REACTORS
330
47
102
}
330
47
100
AcDbScale
 70
     0
300
1:10
140
1.0
141
10.0
290
     0
  0
SCALE
  5
4E
102
{ACAD_REACTORS
330
47
102
}
330
47
100
AcDbScale
 70
     0
300
1:16
140
1.0
141
16.0
290
     0
  0
SCALE
  5
4F
102
{ACAD_REACTORS
330
47
102
}
330
47
100
AcDbScale
 70
     0
300
1:20
140
1.0
141
20.0
290
     0
  0
SCALE
  5
50
102
{ACAD_REACTORS
330
47
102
}
330
47
100
AcDbScale
 70
     0
300
1:30
140
1.0
141
30.0
290
     0
  0
SCALE
  5
51
102
{ACAD_REACTORS
330
47
102
}
330
47
100
AcDbScale
 70
     0
300
1:40
140
1.0
141
40.0
290
     0
  0
SCALE
  5
52
102
{ACAD_REACTORS
330
47
102
}
330
47
100
AcDbScale
 70
     0
300
1:50
140
1.0
141
50.0
290
     0
  0
SCALE
  5
53
102
{ACAD_REACTORS
330
47
102
}
330
47
100
AcDbScale
 70
     0
300
1:100
140
1.0
141
100.0
290
     0
  0
SCALE
  5
54
102
{ACAD_REACTORS
330
47
102
}
330
47
100
AcDbScale
 70
     0
300
2:1
140
2.0
141
1.0
290
     0
  0
SCALE
  5
55
102
{ACAD_REACTORS
330
47
102
}
330
47
100
AcDbScale
 70
     0
300
4:1
140
4.0
141
1.0
290
     0
  0
SCALE
  5
56
102
{ACAD_REACTORS
330
47
102
}
330
47
100
AcDbScale
 70
     0
300
8:1
140
8.0
141
1.0
290
     0
  0
SCALE
  5
57
102
{ACAD_REACTORS
330
47
102
}
330
47
100
AcDbScale
 70
     0
300
10:1
140
10.0
141
1.0
290
     0
  0
SCALE
  5
58
102
{ACAD_REACTORS
330
47
102
}
330
47
100
AcDbScale
 70
     0
300
100:1
140
100.0
141
1.0
290
     0
  0
SCALE
  5
59
102
{ACAD_REACTORS
330
47
102
}
330
47
100
AcDbScale
 70
     0
300
1/128" = 1'-0"
140
0.0078125
141
12.0
290
     0
  0
SCALE
  5
5A
102
{ACAD_REACTORS
330
47
102
}
330
47
100
AcDbScale
 70
     0
300
1/64" = 1'-0"
140
0.015625
141
12.0
290
     0
  0
SCALE
  5
5B
102
{ACAD_REACTORS
330
47
102
}
330
47
100
AcDbScale
 70
     0
300
1/32" = 1'-0"
140
0.03125
141
12.0
290
     0
  0
SCALE
  5
5C
102
{ACAD_REACTORS
330
47
102
}
330
47
100
AcDbScale
 70
     0
300
1/16" = 1'-0"
140
0.0625
141
12.0
290
     0
  0
SCALE
  5
5D
102
{ACAD_REACTORS
330
47
102
}
330
47
100
AcDbScale
 70
     0
300
3/32" = 1'-0"
140
0.09375
141
12.0
290
     0
  0
SCALE
  5
5E
102
{ACAD_REACTORS
330
47
102
}
330
47
100
AcDbScale
 70
     0
300
1/8" = 1'-0"
140
0.125
141
12.0
290
     0
  0
SCALE
  5
5F
102
{ACAD_REACTORS
330
47
102
}
330
47
100
AcDbScale
 70
     0
300
3/16" = 1'-0"
140
0.1875
141
12.0
290
     0
  0
SCALE
  5
60
102
{ACAD_REACTORS
330
47
102
}
330
47
100
AcDbScale
 70
     0
300
1/4" = 1'-0"
140
0.25
141
12.0
290
     0
  0
SCALE
  5
61
102
{ACAD_REACTORS
330
47
102
}
330
47
100
AcDbScale
 70
     0
300
3/8" = 1'-0"
140
0.375
141
12.0
290
     0
  0
SCALE
  5
62
102
{ACAD_REACTORS
330
47
102
}
330
47
100
AcDbScale
 70
     0
300
1/2" = 1'-0"
140
0.5
141
12.0
290
     0
  0
SCALE
  5
63
102
{ACAD_REACTORS
330
47
102
}
330
47
100
AcDbScale
 70
     0
300
3/4" = 1'-0"
140
0.75
141
12.0
290
     0
  0
SCALE
  5
64
102
{ACAD_REACTORS
330
47
102
}
330
47
100
AcDbScale
 70
     0
300
1" = 1'-0"
140
1.0
141
12.0
290
     0
  0
SCALE
  5
65
102
{ACAD_REACTORS
330
47
102
}
330
47
100
AcDbScale
 70
     0
300
1-1/2" = 1'-0"
140
1.5
141
12.0
290
     0
  0
SCALE
  5
66
102
{ACAD_REACTORS
330
47
102
}
330
47
100
AcDbScale
 70
     0
300
3" = 1'-0"
140
3.0
141
12.0
290
     0
  0
SCALE
  5
67
102
{ACAD_REACTORS
330
47
102
}
330
47
100
AcDbScale
 70
     0
300
6" = 1'-0"
140
6.0
141
12.0
290
     0
  0
SCALE
  5
68
102
{ACAD_REACTORS
330
47
102
}
330
47
100
AcDbScale
 70
     0
300
1'-0" = 1'-0"
140
12.0
141
12.0
290
     0
  0
TABLESTYLE
  5
6A
102
{ACAD_REACTORS
330
69
102
}
102
{ACAD_XDICTIONARY
360
4E6
102
}
330
69
100
AcDbTableStyle
  3
Standard
 70
     0
 71
     0
 40
0.06
 41
0.06
280
     0
281
     0
  7
Standard
140
0.18
170
     2
 62
     0
 63
   257
283
     0
 90
        4
 91
        0
  1

274
    -2
284
     1
 64
     0
275
    -2
285
     1
 65
     0
276
    -2
286
     1
 66
     0
277
    -2
287
     1
 67
     0
278
    -2
288
     1
 68
     0
279
    -2
289
     1
 69
     0
  7
Standard
140
0.25
170
     5
 62
     0
 63
   257
283
     0
 90
        4
 91
        0
  1

274
    -2
284
     1
 64
     0
275
    -2
285
     1
 65
     0
276
    -2
286
     1
 66
     0
277
    -2
287
     1
 67
     0
278
    -2
288
     1
 68
     0
279
    -2
289
     1
 69
     0
  7
Standard
140
0.18
170
     5
 62
     0
 63
   257
283
     0
 90
        4
 91
        0
  1

274
    -2
284
     1
 64
     0
275
    -2
285
     1
 65
     0
276
    -2
286
     1
 66
     0
277
    -2
287
     1
 67
     0
278
    -2
288
     1
 68
     0
279
    -2
289
     1
 69
     0
  0
VISUALSTYLE
  5
2F
102
{ACAD_REACTORS
330
2A
102
}
330
2A
100
AcDbVisualStyle
  2
2dWireframe
 70
     4
177
     3
291
     0
 70
    58
 90
        0
176
     1
 90
        2
176
     1
 90
        0
176
     1
 90
        0
176
     1
 40
0.6
176
     1
 40
30.0
176
     1
 62
     7
420
 16777215
176
     1
 90
        1
176
     1
 90
        4
176
     1
 62
     7
176
     1
 62
   257
176
     1
 90
        1
176
     1
 90
        1
176
     1
 40
1.0
176
     1
 90
        0
176
     1
 62
   257
176
     1
 40
1.0
176
     1
 90
        1
176
     1
 90
        6
176
     1
 90
        2
176
     1
 62
     7
176
     1
 90
        5
176
     1
 90
        0
176
     1
 90
        0
176
     1
290
     0
176
     1
 90
        1
176
     1
 40
0.0
176
     1
 90
        0
176
     1
290
     1
176
     1
290
     1
176
     1
290
     0
176
     1
290
     0
176
     1
290
     0
176
     1
290
     0
176
     1
290
     0
176
     1
290
     0
176
     1
290
     0
176
     1
 90
       50
176
     1
 40
0.0
176
     1
 40
1.0
176
     1
 90
        0
176
     1
 62
    18
420
        0
176
     1
 90
       50
176
     1
 90
        3
176
     1
 62
     5
420
      255
176
     1
290
     0
176
     1
 90
       50
176
     1
 90
       50
176
     1
 90
       50
176
     1
290
     0
176
     1
 90
       50
176
     1
 62
   256
176
     0
 40
1.0
176
     0
 90
        2
176
     1
  1
strokes_ogs.tif
176
     1
290
     0
176
     1
 40
1.0
176
     1
 40
1.0
176
     1
  0
VISUALSTYLE
  5
32
102
{ACAD_REACTORS
330
2A
102
}
330
2A
100
AcDbVisualStyle
  2
Basic
 70
     7
177
     3
291
     1
 70
    58
 90
        1
176
     1
 90
        0
176
     1
 90
        1
176
     1
 90
        0
176
     1
 40
0.6
176
     1
 40
30.0
176
     1
 62
     7
420
 16777215
176
     1
 90
        0
176
     1
 90
        4
176
     1
 62
     7
176
     1
 62
   257
176
     1
 90
        1
176
     1
 90
        1
176
     1
 40
1.0
176
     1
 90
        8
176
     1
 62
     7
176
     1
 40
1.0
176
     1
 90
        1
176
     1
 90
        6
176
     1
 90
        2
176
     1
 62
     7
176
     1
 90
        5
176
     1
 90
        0
176
     1
 90
        0
176
     1
290
     0
176
     1
 90
        1
176
     1
 40
0.0
176
     1
 90
        0
176
     1
290
     0
176
     1
290
     1
176
     1
290
     1
176
     1
290
     0
176
     1
290
     0
176
     1
290
     0
176
     1
290
     0
176
     1
290
     0
176
     1
290
     0
176
     1
 90
       50
176
     1
 40
0.0
176
     1
 40
1.0
176
     1
 90
        0
176
     1
 62
    18
420
        0
176
     1
 90
       50
176
     1
 90
        3
176
     1
 62
     5
420
      255
176
     1
290
     0
176
     1
 90
       50
176
     1
 90
       50
176
     1
 90
       50
176
     1
290
     0
176
     1
 90
       50
176
     1
 62
   256
176
     0
 40
1.0
176
     0
 90
        2
176
     1
  1
strokes_ogs.tif
176
     1
290
     0
176
     1
 40
1.0
176
     1
 40
1.0
176
     1
  0
VISUALSTYLE
  5
36
102
{ACAD_REACTORS
330
2A
102
}
330
2A
100
AcDbVisualStyle
  2
Brighten
 70
    12
177
     3
291
     1
 70
    58
 90
        2
176
     1
 90
        2
176
     1
 90
        0
176
     1
 90
        0
176
     1
 40
0.6
176
     1
 40
30.0
176
     1
 62
     7
420
 16777215
176
     1
 90
        1
176
     1
 90
        4
176
     1
 62
     7
176
     1
 62
   257
176
     1
 90
        1
176
     1
 90
        1
176
     1
 40
1.0
176
     1
 90
        8
176
     1
 62
     7
176
     1
 40
1.0
176
     1
 90
        1
176
     1
 90
        6
176
     1
 90
        2
176
     1
 62
     7
176
     1
 90
        5
176
     1
 90
        0
176
     1
 90
        0
176
     1
290
     0
176
     1
 90
        1
176
     1
 40
50.0
176
     1
 90
        0
176
     1
290
     0
176
     1
290
     1
176
     1
290
     1
176
     1
290
     0
176
     1
290
     0
176
     1
290
     0
176
     1
290
     0
176
     1
290
     0
176
     1
290
     0
176
     1
 90
       50
176
     1
 40
0.0
176
     1
 40
1.0
176
     1
 90
        0
176
     1
 62
    18
420
        0
176
     1
 90
       50
176
     1
 90
        3
176
     1
 62
     5
420
      255
176
     1
290
     0
176
     1
 90
       50
176
     1
 90
       50
176
     1
 90
       50
176
     1
290
     0
176
     1
 90
       50
176
     1
 62
   256
176
     0
 40
1.0
176
     0
 90
        2
176
     1
  1
strokes_ogs.tif
176
     1
290
     0
176
     1
 40
1.0
176
     1
 40
1.0
176
     1
  0
VISUALSTYLE
  5
3A
102
{ACAD_REACTORS
330
2A
102
}
330
2A
100
AcDbVisualStyle
  2
ColorChange
 70
    16
177
     3
291
     1
 70
    58
 90
        2
176
     1
 90
        2
176
     1
 90
        3
176
     1
 90
        0
176
     1
 40
0.6
176
     1
 40
30.0
176
     1
 62
     8
420
  8421504
176
     1
 90
        1
176
     1
 90
        4
176
     1
 62
     7
176
     1
 62
   257
176
     1
 90
        1
176
     1
 90
        1
176
     1
 40
1.0
176
     1
 90
        8
176
     1
 62
     8
420
  8421504
176
     1
 40
1.0
176
     1
 90
        1
176
     1
 90
        6
176
     1
 90
        2
176
     1
 62
     7
176
     1
 90
        5
176
     1
 90
        0
176
     1
 90
        0
176
     1
290
     0
176
     1
 90
        1
176
     1
 40
0.0
176
     1
 90
        0
176
     1
290
     0
176
     1
290
     1
176
     1
290
     1
176
     1
290
     0
176
     1
290
     0
176
     1
290
     0
176
     1
290
     0
176
     1
290
     0
176
     1
290
     0
176
     1
 90
       50
176
     1
 40
0.0
176
     1
 40
1.0
176
     1
 90
        0
176
     1
 62
    18
420
        0
176
     1
 90
       50
176
     1
 90
        3
176
     1
 62
     5
420
      255
176
     1
290
     0
176
     1
 90
       50
176
     1
 90
       50
176
     1
 90
       50
176
     1
290
     0
176
     1
 90
       50
176
     1
 62
   256
176
     0
 40
1.0
176
     0
 90
        2
176
     1
  1
strokes_ogs.tif
176
     1
290
     0
176
     1
 40
1.0
176
     1
 40
1.0
176
     1
  0
VISUALSTYLE
  5
34
102
{ACAD_REACTORS
330
2A
102
}
330
2A
100
AcDbVisualStyle
  2
Conceptual
 70
     9
177
     3
291
     0
 70
    58
 90
        3
176
     1
 90
        2
176
     1
 90
        0
176
     1
 90
        0
176
     1
 40
0.6
176
     1
 40
30.0
176
     1
 62
     7
420
 16777215
176
     1
 90
        2
176
     1
 90
        2
176
     1
 62
     7
176
     1
 62
   257
176
     1
 90
        1
176
     1
 90
        1
176
     1
 40
179.0
176
     1
 90
        8
176
     1
 62
     7
176
     1
 40
1.0
176
     1
 90
        1
176
     1
 90
        6
176
     1
 90
        2
176
     1
 62
     7
176
     1
 90
        3
176
     1
 90
        0
176
     1
 90
        0
176
     1
290
     0
176
     1
 90
        1
176
     1
 40
0.0
176
     1
 90
        0
176
     1
290
     0
176
     1
290
     1
176
     1
290
     1
176
     1
290
     0
176
     1
290
     0
176
     1
290
     0
176
     1
290
     0
176
     1
290
     0
176
     1
290
     0
176
     1
 90
       50
176
     1
 40
0.0
176
     1
 40
1.0
176
     1
 90
        0
176
     1
 62
    18
420
        0
176
     1
 90
       50
176
     1
 90
        3
176
     1
 62
     5
420
      255
176
     1
290
     0
176
     1
 90
       50
176
     1
 90
       50
176
     1
 90
       50
176
     1
290
     0
176
     1
 90
       50
176
     1
 62
   256
176
     0
 40
1.0
176
     0
 90
        2
176
     1
  1
strokes_ogs.tif
176
     1
290
     0
176
     1
 40
1.0
176
     1
 40
1.0
176
     1
  0
VISUALSTYLE
  5
35
102
{ACAD_REACTORS
330
2A
102
}
330
2A
100
AcDbVisualStyle
  2
Dim
 70
    11
177
     3
291
     1
 70
    58
 90
        2
176
     1
 90
        2
176
     1
 90
        0
176
     1
 90
        0
176
     1
 40
0.6
176
     1
 40
30.0
176
     1
 62
     7
420
 16777215
176
     1
 90
        1
176
     1
 90
        4
176
     1
 62
     7
176
     1
 62
   257
176
     1
 90
        1
176
     1
 90
        1
176
     1
 40
1.0
176
     1
 90
        8
176
     1
 62
     7
176
     1
 40
1.0
176
     1
 90
        1
176
     1
 90
        6
176
     1
 90
        2
176
     1
 62
     7
176
     1
 90
        5
176
     1
 90
        0
176
     1
 90
        0
176
     1
290
     0
176
     1
 90
        1
176
     1
 40
-50.0
176
     1
 90
        0
176
     1
290
     0
176
     1
290
     1
176
     1
290
     1
176
     1
290
     0
176
     1
290
     0
176
     1
290
     0
176
     1
290
     0
176
     1
290
     0
176
     1
290
     0
176
     1
 90
       50
176
     1
 40
0.0
176
     1
 40
1.0
176
     1
 90
        0
176
     1
 62
    18
420
        0
176
     1
 90
       50
176
     1
 90
        3
176
     1
 62
     5
420
      255
176
     1
290
     0
176
     1
 90
       50
176
     1
 90
       50
176
     1
 90
       50
176
     1
290
     0
176
     1
 90
       50
176
     1
 62
   256
176
     0
 40
1.0
176
     0
 90
        2
176
     1
  1
strokes_ogs.tif
176
     1
290
     0
176
     1
 40
1.0
176
     1
 40
1.0
176
     1
  0
VISUALSTYLE
  5
3D
102
{ACAD_REACTORS
330
2A
102
}
330
2A
100
AcDbVisualStyle
  2
EdgeColorOff
 70
    22
177
     3
291
     1
 70
    58
 90
        2
176
     0
 90
        2
176
     0
 90
        0
176
     0
 90
        0
176
     0
 40
0.6
176
     0
 40
30.0
176
     0
 62
     7
420
 16777215
176
     0
 90
        1
176
     0
 90
        4
176
     0
 62
     7
176
     0
 62
   257
176
     0
 90
        1
176
     0
 90
        1
176
     0
 40
1.0
176
     0
 90
        8
176
     2
 62
     7
176
     0
 40
1.0
176
     0
 90
        1
176
     0
 90
        6
176
     0
 90
        2
176
     0
 62
     7
176
     0
 90
        5
176
     0
 90
        0
176
     0
 90
        0
176
     0
290
     0
176
     0
 90
        1
176
     0
 40
0.0
176
     0
 90
        0
176
     0
290
     0
176
     0
290
     1
176
     0
290
     1
176
     0
290
     0
176
     0
290
     0
176
     0
290
     0
176
     0
290
     0
176
     0
290
     0
176
     0
290
     0
176
     0
 90
       50
176
     0
 40
0.0
176
     0
 40
1.0
176
     0
 90
        0
176
     0
 62
    18
420
        0
176
     0
 90
       50
176
     0
 90
        3
176
     0
 62
     5
420
      255
176
     0
290
     0
176
     0
 90
       50
176
     0
 90
       50
176
     0
 90
       50
176
     0
290
     0
176
     0
 90
       50
176
     0
 62
   256
176
     0
 40
1.0
176
     0
 90
        2
176
     0
  1
strokes_ogs.tif
176
     0
290
     0
176
     0
 40
1.0
176
     0
 40
1.0
176
     0
  0
VISUALSTYLE
  5
39
102
{ACAD_REACTORS
330
2A
102
}
330
2A
100
AcDbVisualStyle
  2
Facepattern
 70
    15
177
     3
291
     1
 70
    58
 90
        2
176
     1
 90
        2
176
     1
 90
        0
176
     1
 90
        0
176
     1
 40
0.6
176
     1
 40
30.0
176
     1
 62
     7
420
 16777215
176
     1
 90
        1
176
     1
 90
        4
176
     1
 62
     7
176
     1
 62
   257
176
     1
 90
        1
176
     1
 90
        1
176
     1
 40
1.0
176
     1
 90
        8
176
     1
 62
     7
176
     1
 40
1.0
176
     1
 90
        1
176
     1
 90
        6
176
     1
 90
        2
176
     1
 62
     7
176
     1
 90
        5
176
     1
 90
        0
176
     1
 90
        0
176
     1
290
     0
176
     1
 90
        1
176
     1
 40
0.0
176
     1
 90
        0
176
     1
290
     0
176
     1
290
     1
176
     1
290
     1
176
     1
290
     0
176
     1
290
     0
176
     1
290
     0
176
     1
290
     0
176
     1
290
     0
176
     1
290
     0
176
     1
 90
       50
176
     1
 40
0.0
176
     1
 40
1.0
176
     1
 90
        0
176
     1
 62
    18
420
        0
176
     1
 90
       50
176
     1
 90
        3
176
     1
 62
     5
420
      255
176
     1
290
     0
176
     1
 90
       50
176
     1
 90
       50
176
     1
 90
       50
176
     1
290
     0
176
     1
 90
       50
176
     1
 62
   256
176
     0
 40
1.0
176
     0
 90
        2
176
     1
  1
strokes_ogs.tif
176
     1
290
     0
176
     1
 40
1.0
176
     1
 40
1.0
176
     1
  0
VISUALSTYLE
  5
2B
102
{ACAD_REACTORS
330
2A
102
}
330
2A
100
AcDbVisualStyle
  2
Flat
 70
     0
177
     3
291
     1
 70
    58
 90
        2
176
     1
 90
        1
176
     1
 90
        1
176
     1
 90
        2
176
     1
 40
0.6
176
     1
 40
30.0
176
     1
 62
     7
420
 16777215
176
     1
 90
        0
176
     1
 90
        0
176
     1
 62
     7
176
     1
 62
   257
176
     1
 90
        1
176
     1
 90
        1
176
     1
 40
1.0
176
     1
 90
        8
176
     1
 62
     7
176
     1
 40
1.0
176
     1
 90
        1
176
     1
 90
        6
176
     1
 90
        2
176
     1
 62
     7
176
     1
 90
        5
176
     1
 90
        0
176
     1
 90
        0
176
     1
290
     0
176
     1
 90
       13
176
     1
 40
0.0
176
     1
 90
        0
176
     1
290
     0
176
     1
290
     1
176
     1
290
     1
176
     1
290
     0
176
     1
290
     0
176
     1
290
     0
176
     1
290
     0
176
     1
290
     0
176
     1
290
     0
176
     1
 90
       50
176
     1
 40
0.0
176
     1
 40
1.0
176
     1
 90
        0
176
     1
 62
    18
420
        0
176
     1
 90
       50
176
     1
 90
        3
176
     1
 62
     5
420
      255
176
     1
290
     0
176
     1
 90
       50
176
     1
 90
       50
176
     1
 90
       50
176
     1
290
     0
176
     1
 90
       50
176
     1
 62
   256
176
     0
 40
1.0
176
     0
 90
        2
176
     1
  1
strokes_ogs.tif
176
     1
290
     0
176
     1
 40
1.0
176
     1
 40
1.0
176
     1
  0
VISUALSTYLE
  5
2C
102
{ACAD_REACTORS
330
2A
102
}
330
2A
100
AcDbVisualStyle
  2
FlatWithEdges
 70
     1
177
     3
291
     1
 70
    58
 90
        2
176
     1
 90
        1
176
     1
 90
        1
176
     1
 90
        2
176
     1
 40
0.6
176
     1
 40
30.0
176
     1
 62
     7
420
 16777215
176
     1
 90
        1
176
     1
 90
        0
176
     1
 62
     7
176
     1
 62
   257
176
     1
 90
        1
176
     1
 90
        1
176
     1
 40
1.0
176
     1
 90
        0
176
     1
 62
   257
176
     1
 40
1.0
176
     1
 90
        1
176
     1
 90
        6
176
     1
 90
        2
176
     1
 62
     7
176
     1
 90
        5
176
     1
 90
        0
176
     1
 90
        0
176
     1
290
     0
176
     1
 90
       13
176
     1
 40
0.0
176
     1
 90
        0
176
     1
290
     0
176
     1
290
     1
176
     1
290
     1
176
     1
290
     0
176
     1
290
     0
176
     1
290
     0
176
     1
290
     0
176
     1
290
     0
176
     1
290
     0
176
     1
 90
       50
176
     1
 40
0.0
176
     1
 40
1.0
176
     1
 90
        0
176
     1
 62
    18
420
        0
176
     1
 90
       50
176
     1
 90
        3
176
     1
 62
     5
420
      255
176
     1
290
     0
176
     1
 90
       50
176
     1
 90
       50
176
     1
 90
       50
176
     1
290
     0
176
     1
 90
       50
176
     1
 62
   256
176
     0
 40
1.0
176
     0
 90
        2
176
     1
  1
strokes_ogs.tif
176
     1
290
     0
176
     1
 40
1.0
176
     1
 40
1.0
176
     1
  0
VISUALSTYLE
  5
2D
102
{ACAD_REACTORS
330
2A
102
}
330
2A
100
AcDbVisualStyle
  2
Gouraud
 70
     2
177
     3
291
     1
 70
    58
 90
        2
176
     1
 90
        2
176
     1
 90
        1
176
     1
 90
        2
176
     1
 40
0.6
176
     1
 40
30.0
176
     1
 62
     7
420
 16777215
176
     1
 90
        0
176
     1
 90
        0
176
     1
 62
     7
176
     1
 62
   257
176
     1
 90
        1
176
     1
 90
        1
176
     1
 40
1.0
176
     1
 90
        0
176
     1
 62
     7
176
     1
 40
1.0
176
     1
 90
        1
176
     1
 90
        6
176
     1
 90
        2
176
     1
 62
     7
176
     1
 90
        5
176
     1
 90
        0
176
     1
 90
        0
176
     1
290
     0
176
     1
 90
       13
176
     1
 40
0.0
176
     1
 90
        0
176
     1
290
     0
176
     1
290
     1
176
     1
290
     1
176
     1
290
     0
176
     1
290
     0
176
     1
290
     0
176
     1
290
     0
176
     1
290
     0
176
     1
290
     0
176
     1
 90
       50
176
     1
 40
0.0
176
     1
 40
1.0
176
     1
 90
        0
176
     1
 62
    18
420
        0
176
     1
 90
       50
176
     1
 90
        3
176
     1
 62
     5
420
      255
176
     1
290
     0
176
     1
 90
       50
176
     1
 90
       50
176
     1
 90
       50
176
     1
290
     0
176
     1
 90
       50
176
     1
 62
   256
176
     0
 40
1.0
176
     0
 90
        2
176
     1
  1
strokes_ogs.tif
176
     1
290
     0
176
     1
 40
1.0
176
     1
 40
1.0
176
     1
  0
VISUALSTYLE
  5
2E
102
{ACAD_REACTORS
330
2A
102
}
330
2A
100
AcDbVisualStyle
  2
GouraudWithEdges
 70
     3
177
     3
291
     1
 70
    58
 90
        2
176
     1
 90
        2
176
     1
 90
        1
176
     1
 90
        2
176
     1
 40
0.6
176
     1
 40
30.0
176
     1
 62
     7
420
 16777215
176
     1
 90
        1
176
     1
 90
        0
176
     1
 62
     7
176
     1
 62
   257
176
     1
 90
        1
176
     1
 90
        1
176
     1
 40
1.0
176
     1
 90
        0
176
     1
 62
   257
176
     1
 40
1.0
176
     1
 90
        1
176
     1
 90
        6
176
     1
 90
        2
176
     1
 62
     7
176
     1
 90
        5
176
     1
 90
        0
176
     1
 90
        0
176
     1
290
     0
176
     1
 90
       13
176
     1
 40
0.0
176
     1
 90
        0
176
     1
290
     0
176
     1
290
     1
176
     1
290
     1
176
     1
290
     0
176
     1
290
     0
176
     1
290
     0
176
     1
290
     0
176
     1
290
     0
176
     1
290
     0
176
     1
 90
       50
176
     1
 40
0.0
176
     1
 40
1.0
176
     1
 90
        0
176
     1
 62
    18
420
        0
176
     1
 90
       50
176
     1
 90
        3
176
     1
 62
     5
420
      255
176
     1
290
     0
176
     1
 90
       50
176
     1
 90
       50
176
     1
 90
       50
176
     1
290
     0
176
     1
 90
       50
176
     1
 62
   256
176
     0
 40
1.0
176
     0
 90
        2
176
     1
  1
strokes_ogs.tif
176
     1
290
     0
176
     1
 40
1.0
176
     1
 40
1.0
176
     1
  0
VISUALSTYLE
  5
31
102
{ACAD_REACTORS
330
2A
102
}
330
2A
100
AcDbVisualStyle
  2
Hidden
 70
     6
177
     3
291
     0
 70
    58
 90
        1
176
     1
 90
        2
176
     1
 90
        2
176
     1
 90
        0
176
     1
 40
0.6
176
     1
 40
30.0
176
     1
 62
     7
420
 16777215
176
     1
 90
        2
176
     1
 90
        2
176
     1
 62
     7
176
     1
 62
   257
176
     1
 90
        2
176
     1
 90
        1
176
     1
 40
40.0
176
     1
 90
        0
176
     1
 62
   257
176
     1
 40
1.0
176
     1
 90
        1
176
     1
 90
        6
176
     1
 90
        2
176
     1
 62
     7
176
     1
 90
        3
176
     1
 90
        0
176
     1
 90
        0
176
     1
290
     0
176
     1
 90
        1
176
     1
 40
0.0
176
     1
 90
        0
176
     1
290
     0
176
     1
290
     1
176
     1
290
     1
176
     1
290
     0
176
     1
290
     0
176
     1
290
     0
176
     1
290
     0
176
     1
290
     0
176
     1
290
     0
176
     1
 90
       50
176
     1
 40
0.0
176
     1
 40
1.0
176
     1
 90
        0
176
     1
 62
    18
420
        0
176
     1
 90
       50
176
     1
 90
        3
176
     1
 62
     5
420
      255
176
     1
290
     0
176
     1
 90
       50
176
     1
 90
       50
176
     1
 90
       50
176
     1
290
     0
176
     1
 90
       50
176
     1
 62
   256
176
     0
 40
1.0
176
     0
 90
        2
176
     1
  1
strokes_ogs.tif
176
     1
290
     0
176
     1
 40
1.0
176
     1
 40
1.0
176
     1
  0
VISUALSTYLE
  5
3B
102
{ACAD_REACTORS
330
2A
102
}
330
2A
100
AcDbVisualStyle
  2
JitterOff
 70
    20
177
     3
291
     1
 70
    58
 90
        2
176
     0
 90
        2
176
     0
 90
        0
176
     0
 90
        0
176
     0
 40
0.6
176
     0
 40
30.0
176
     0
 62
     7
420
 16777215
176
     0
 90
        1
176
     0
 90
        4
176
     0
 62
     7
176
     0
 62
   257
176
     0
 90
        1
176
     0
 90
        1
176
     0
 40
1.0
176
     0
 90
       10
176
     2
 62
     7
176
     0
 40
1.0
176
     0
 90
        1
176
     0
 90
        6
176
     0
 90
        2
176
     0
 62
     7
176
     0
 90
        5
176
     0
 90
        0
176
     0
 90
        0
176
     0
290
     0
176
     0
 90
        1
176
     0
 40
0.0
176
     0
 90
        0
176
     0
290
     0
176
     0
290
     1
176
     0
290
     1
176
     0
290
     0
176
     0
290
     0
176
     0
290
     0
176
     0
290
     0
176
     0
290
     0
176
     0
290
     0
176
     0
 90
       50
176
     0
 40
0.0
176
     0
 40
1.0
176
     0
 90
        0
176
     0
 62
    18
420
        0
176
     0
 90
       50
176
     0
 90
        3
176
     0
 62
     5
420
      255
176
     0
290
     0
176
     0
 90
       50
176
     0
 90
       50
176
     0
 90
       50
176
     0
290
     0
176
     0
 90
       50
176
     0
 62
   256
176
     0
 40
1.0
176
     0
 90
        2
176
     0
  1
strokes_ogs.tif
176
     0
290
     0
176
     0
 40
1.0
176
     0
 40
1.0
176
     0
  0
VISUALSTYLE
  5
38
102
{ACAD_REACTORS
330
2A
102
}
330
2A
100
AcDbVisualStyle
  2
Linepattern
 70
    14
177
     3
291
     1
 70
    58
 90
        2
176
     1
 90
        2
176
     1
 90
        0
176
     1
 90
        0
176
     1
 40
0.6
176
     1
 40
30.0
176
     1
 62
     7
420
 16777215
176
     1
 90
        1
176
     1
 90
        4
176
     1
 62
     7
176
     1
 62
   257
176
     1
 90
        7
176
     1
 90
        7
176
     1
 40
1.0
176
     1
 90
        8
176
     1
 62
     7
176
     1
 40
1.0
176
     1
 90
        1
176
     1
 90
        6
176
     1
 90
        2
176
     1
 62
     7
176
     1
 90
        5
176
     1
 90
        0
176
     1
 90
        0
176
     1
290
     0
176
     1
 90
        1
176
     1
 40
0.0
176
     1
 90
        0
176
     1
290
     0
176
     1
290
     1
176
     1
290
     1
176
     1
290
     0
176
     1
290
     0
176
     1
290
     0
176
     1
290
     0
176
     1
290
     0
176
     1
290
     0
176
     1
 90
       50
176
     1
 40
0.0
176
     1
 40
1.0
176
     1
 90
        0
176
     1
 62
    18
420
        0
176
     1
 90
       50
176
     1
 90
        3
176
     1
 62
     5
420
      255
176
     1
290
     0
176
     1
 90
       50
176
     1
 90
       50
176
     1
 90
       50
176
     1
290
     0
176
     1
 90
       50
176
     1
 62
   256
176
     0
 40
1.0
176
     0
 90
        2
176
     1
  1
strokes_ogs.tif
176
     1
290
     0
176
     1
 40
1.0
176
     1
 40
1.0
176
     1
  0
VISUALSTYLE
  5
3C
102
{ACAD_REACTORS
330
2A
102
}
330
2A
100
AcDbVisualStyle
  2
OverhangOff
 70
    21
177
     3
291
     1
 70
    58
 90
        2
176
     0
 90
        2
176
     0
 90
        0
176
     0
 90
        0
176
     0
 40
0.6
176
     0
 40
30.0
176
     0
 62
     7
420
 16777215
176
     0
 90
        1
176
     0
 90
        4
176
     0
 62
     7
176
     0
 62
   257
176
     0
 90
        1
176
     0
 90
        1
176
     0
 40
1.0
176
     0
 90
        9
176
     2
 62
     7
176
     0
 40
1.0
176
     0
 90
        1
176
     0
 90
        6
176
     0
 90
        2
176
     0
 62
     7
176
     0
 90
        5
176
     0
 90
        0
176
     0
 90
        0
176
     0
290
     0
176
     0
 90
        1
176
     0
 40
0.0
176
     0
 90
        0
176
     0
290
     0
176
     0
290
     1
176
     0
290
     1
176
     0
290
     0
176
     0
290
     0
176
     0
290
     0
176
     0
290
     0
176
     0
290
     0
176
     0
290
     0
176
     0
 90
       50
176
     0
 40
0.0
176
     0
 40
1.0
176
     0
 90
        0
176
     0
 62
    18
420
        0
176
     0
 90
       50
176
     0
 90
        3
176
     0
 62
     5
420
      255
176
     0
290
     0
176
     0
 90
       50
176
     0
 90
       50
176
     0
 90
       50
176
     0
290
     0
176
     0
 90
       50
176
     0
 62
   256
176
     0
 40
1.0
176
     0
 90
        2
176
     0
  1
strokes_ogs.tif
176
     0
290
     0
176
     0
 40
1.0
176
     0
 40
1.0
176
     0
  0
VISUALSTYLE
  5
33
102
{ACAD_REACTORS
330
2A
102
}
330
2A
100
AcDbVisualStyle
  2
Realistic
 70
     8
177
     3
291
     0
 70
    58
 90
        2
176
     1
 90
        3
176
     1
 90
        0
176
     1
 90
        2
176
     1
 40
0.6
176
     1
 40
30.0
176
     1
 62
     7
420
 16777215
176
     1
 90
        0
176
     1
 90
        0
176
     1
 62
     7
176
     1
 62
   257
176
     1
 90
        1
176
     1
 90
        1
176
     1
 40
1.0
176
     1
 90
        8
176
     1
 62
   257
176
     1
 40
1.0
176
     1
 90
        1
176
     1
 90
        6
176
     1
 90
        2
176
     1
 62
     7
176
     1
 90
        3
176
     1
 90
        0
176
     1
 90
        0
176
     1
290
     0
176
     1
 90
       13
176
     1
 40
0.0
176
     1
 90
        0
176
     1
290
     0
176
     1
290
     1
176
     1
290
     1
176
     1
290
     0
176
     1
290
     0
176
     1
290
     0
176
     1
290
     0
176
     1
290
     0
176
     1
290
     0
176
     1
 90
       50
176
     1
 40
0.0
176
     1
 40
1.0
176
     1
 90
        0
176
     1
 62
    18
420
        0
176
     1
 90
       50
176
     1
 90
        3
176
     1
 62
     5
420
      255
176
     1
290
     0
176
     1
 90
       50
176
     1
 90
       50
176
     1
 90
       50
176
     1
290
     0
176
     1
 90
       50
176
     1
 62
   256
176
     0
 40
1.0
176
     0
 90
        2
176
     1
  1
strokes_ogs.tif
176
     1
290
     0
176
     1
 40
1.0
176
     1
 40
1.0
176
     1
  0
VISUALSTYLE
  5
42
102
{ACAD_REACTORS
330
2A
102
}
330
2A
100
AcDbVisualStyle
  2
Shaded
 70
    27
177
     3
291
     0
 70
    58
 90
        2
176
     1
 90
        2
176
     1
 90
        1
176
     1
 90
        2
176
     1
 40
0.6
176
     1
 40
30.0
176
     1
 62
     7
420
 16777215
176
     1
 90
        0
176
     1
 90
        4
176
     1
 62
     7
176
     1
 62
   257
176
     1
 90
        1
176
     1
 90
        1
176
     1
 40
1.0
176
     1
 90
        8
176
     1
 62
   257
176
     1
 40
1.0
176
     1
 90
        1
176
     1
 90
        6
176
     1
 90
        2
176
     1
 62
     8
420
  7895160
176
     1
 90
        3
176
     1
 90
        0
176
     1
 90
        0
176
     1
290
     0
176
     1
 90
        5
176
     1
 40
0.0
176
     1
 90
        0
176
     1
290
     0
176
     1
290
     1
176
     1
290
     1
176
     1
290
     0
176
     1
290
     0
176
     1
290
     0
176
     1
290
     0
176
     1
290
     0
176
     1
290
     0
176
     1
 90
       50
176
     1
 40
0.0
176
     1
 40
1.0
176
     1
 90
        0
176
     1
 62
    18
420
        0
176
     1
 90
       50
176
     1
 90
        3
176
     1
 62
     5
420
      255
176
     1
290
     0
176
     1
 90
       50
176
     1
 90
       50
176
     1
 90
       50
176
     1
290
     0
176
     1
 90
       50
176
     1
 62
   256
176
     0
 40
1.0
176
     0
 90
        2
176
     1
  1
strokes_ogs.tif
176
     1
290
     0
176
     1
 40
1.0
176
     1
 40
1.0
176
     1
  0
VISUALSTYLE
  5
41
102
{ACAD_REACTORS
330
2A
102
}
330
2A
100
AcDbVisualStyle
  2
Shaded with edges
 70
    26
177
     3
291
     0
 70
    58
 90
        2
176
     1
 90
        2
176
     1
 90
        1
176
     1
 90
        2
176
     1
 40
0.6
176
     1
 40
30.0
176
     1
 62
     7
420
 16777215
176
     1
 90
        1
176
     1
 90
       10
176
     1
 62
     7
176
     1
 62
   257
176
     1
 90
        2
176
     1
 90
        1
176
     1
 40
1.0
176
     1
 90
        8
176
     1
 62
   257
176
     1
 40
1.0
176
     1
 90
        1
176
     1
 90
        6
176
     1
 90
        2
176
     1
 62
     7
176
     1
 90
        3
176
     1
 90
        0
176
     1
 90
        0
176
     1
290
     0
176
     1
 90
        5
176
     1
 40
0.0
176
     1
 90
        0
176
     1
290
     0
176
     1
290
     1
176
     1
290
     1
176
     1
290
     0
176
     1
290
     0
176
     1
290
     0
176
     1
290
     0
176
     1
290
     0
176
     1
290
     0
176
     1
 90
       50
176
     1
 40
0.0
176
     1
 40
1.0
176
     1
 90
        0
176
     1
 62
    18
420
        0
176
     1
 90
       50
176
     1
 90
        3
176
     1
 62
     5
420
      255
176
     1
290
     0
176
     1
 90
       50
176
     1
 90
       50
176
     1
 90
       50
176
     1
290
     0
176
     1
 90
       50
176
     1
 62
   256
176
     0
 40
1.0
176
     0
 90
        2
176
     1
  1
strokes_ogs.tif
176
     1
290
     0
176
     1
 40
1.0
176
     1
 40
1.0
176
     1
  0
VISUALSTYLE
  5
3E
102
{ACAD_REACTORS
330
2A
102
}
330
2A
100
AcDbVisualStyle
  2
Shades of Gray
 70
    23
177
     3
291
     0
 70
    58
 90
        2
176
     1
 90
        2
176
     1
 90
        3
176
     1
 90
        0
176
     1
 40
0.6
176
     1
 40
30.0
176
     1
 62
     7
420
 16777215
176
     1
 90
        2
176
     1
 90
        2
176
     1
 62
     7
176
     1
 62
     7
176
     1
 90
        1
176
     1
 90
        1
176
     1
 40
40.0
176
     1
 90
        8
176
     1
 62
     7
176
     1
 40
1.0
176
     1
 90
        1
176
     1
 90
        6
176
     1
 90
        2
176
     1
 62
     7
176
     1
 90
        3
176
     1
 90
        0
176
     1
 90
        0
176
     1
290
     0
176
     1
 90
        1
176
     1
 40
0.0
176
     1
 90
        0
176
     1
290
     0
176
     1
290
     1
176
     1
290
     1
176
     1
290
     0
176
     1
290
     0
176
     1
290
     0
176
     1
290
     0
176
     1
290
     0
176
     1
290
     0
176
     1
 90
       50
176
     1
 40
0.0
176
     1
 40
1.0
176
     1
 90
        0
176
     1
 62
    18
420
        0
176
     1
 90
       50
176
     1
 90
        3
176
     1
 62
     5
420
      255
176
     1
290
     0
176
     1
 90
       50
176
     1
 90
       50
176
     1
 90
       50
176
     1
290
     0
176
     1
 90
       50
176
     1
 62
   256
176
     0
 40
1.0
176
     0
 90
        2
176
     1
  1
strokes_ogs.tif
176
     1
290
     0
176
     1
 40
1.0
176
     1
 40
1.0
176
     1
  0
VISUALSTYLE
  5
3F
102
{ACAD_REACTORS
330
2A
102
}
330
2A
100
AcDbVisualStyle
  2
Sketchy
 70
    24
177
     3
291
     0
 70
    58
 90
        1
176
     1
 90
        2
176
     1
 90
        2
176
     1
 90
        0
176
     1
 40
0.6
176
     1
 40
30.0
176
     1
 62
     7
420
 16777215
176
     1
 90
        2
176
     1
 90
        2
176
     1
 62
     7
176
     1
 62
     7
176
     1
 90
        1
176
     1
 90
        1
176
     1
 40
40.0
176
     1
 90
       11
176
     1
 62
     7
176
     1
 40
1.0
176
     1
 90
        1
176
     1
 90
        6
176
     1
 90
        2
176
     1
 62
     7
176
     1
 90
        6
176
     1
 90
        0
176
     1
 90
        0
176
     1
290
     0
176
     1
 90
        1
176
     1
 40
0.0
176
     1
 90
        0
176
     1
290
     0
176
     1
290
     1
176
     1
290
     1
176
     1
290
     0
176
     1
290
     0
176
     1
290
     0
176
     1
290
     0
176
     1
290
     0
176
     1
290
     0
176
     1
 90
       50
176
     1
 40
0.0
176
     1
 40
1.0
176
     1
 90
        0
176
     1
 62
    18
420
        0
176
     1
 90
       50
176
     1
 90
        3
176
     1
 62
     5
420
      255
176
     1
290
     0
176
     1
 90
       50
176
     1
 90
       50
176
     1
 90
       50
176
     1
290
     0
176
     1
 90
       50
176
     1
 62
   256
176
     0
 40
1.0
176
     0
 90
        2
176
     1
  1
strokes_ogs.tif
176
     1
290
     0
176
     1
 40
1.0
176
     1
 40
1.0
176
     1
  0
VISUALSTYLE
  5
37
102
{ACAD_REACTORS
330
2A
102
}
330
2A
100
AcDbVisualStyle
  2
Thicken
 70
    13
177
     3
291
     1
 70
    58
 90
        2
176
     1
 90
        2
176
     1
 90
        0
176
     1
 90
        0
176
     1
 40
0.6
176
     1
 40
30.0
176
     1
 62
     7
420
 16777215
176
     1
 90
        1
176
     1
 90
        4
176
     1
 62
     7
176
     1
 62
   257
176
     1
 90
        1
176
     1
 90
        1
176
     1
 40
1.0
176
     1
 90
       12
176
     1
 62
     7
176
     1
 40
1.0
176
     1
 90
        1
176
     1
 90
        6
176
     1
 90
        2
176
     1
 62
     7
176
     1
 90
        5
176
     1
 90
        0
176
     1
 90
        0
176
     1
290
     0
176
     1
 90
        1
176
     1
 40
0.0
176
     1
 90
        0
176
     1
290
     0
176
     1
290
     1
176
     1
290
     1
176
     1
290
     0
176
     1
290
     0
176
     1
290
     0
176
     1
290
     0
176
     1
290
     0
176
     1
290
     0
176
     1
 90
       50
176
     1
 40
0.0
176
     1
 40
1.0
176
     1
 90
        0
176
     1
 62
    18
420
        0
176
     1
 90
       50
176
     1
 90
        3
176
     1
 62
     5
420
      255
176
     1
290
     0
176
     1
 90
       50
176
     1
 90
       50
176
     1
 90
       50
176
     1
290
     0
176
     1
 90
       50
176
     1
 62
   256
176
     0
 40
1.0
176
     0
 90
        2
176
     1
  1
strokes_ogs.tif
176
     1
290
     0
176
     1
 40
1.0
176
     1
 40
1.0
176
     1
  0
VISUALSTYLE
  5
30
102
{ACAD_REACTORS
330
2A
102
}
330
2A
100
AcDbVisualStyle
  2
Wireframe
 70
     5
177
     3
291
     0
 70
    58
 90
        0
176
     1
 90
        2
176
     1
 90
        0
176
     1
 90
        0
176
     1
 40
0.6
176
     1
 40
30.0
176
     1
 62
     7
420
 16777215
176
     1
 90
        1
176
     1
 90
        4
176
     1
 62
     7
176
     1
 62
   257
176
     1
 90
        1
176
     1
 90
        1
176
     1
 40
1.0
176
     1
 90
        0
176
     1
 62
   257
176
     1
 40
1.0
176
     1
 90
        1
176
     1
 90
        6
176
     1
 90
        2
176
     1
 62
     7
176
     1
 90
        3
176
     1
 90
        0
176
     1
 90
        0
176
     1
290
     0
176
     1
 90
        1
176
     1
 40
0.0
176
     1
 90
        0
176
     1
290
     0
176
     1
290
     1
176
     1
290
     1
176
     1
290
     0
176
     1
290
     0
176
     1
290
     0
176
     1
290
     0
176
     1
290
     0
176
     1
290
     0
176
     1
 90
       50
176
     1
 40
0.0
176
     1
 40
1.0
176
     1
 90
        0
176
     1
 62
    18
420
        0
176
     1
 90
       50
176
     1
 90
        3
176
     1
 62
     5
420
      255
176
     1
290
     0
176
     1
 90
       50
176
     1
 90
       50
176
     1
 90
       50
176
     1
290
     0
176
     1
 90
       50
176
     1
 62
   256
176
     0
 40
1.0
176
     0
 90
        2
176
     1
  1
strokes_ogs.tif
176
     1
290
     0
176
     1
 40
1.0
176
     1
 40
1.0
176
     1
  0
VISUALSTYLE
  5
40
102
{ACAD_REACTORS
330
2A
102
}
330
2A
100
AcDbVisualStyle
  2
X-Ray
 70
    25
177
     3
291
     0
 70
    58
 90
        2
176
     1
 90
        2
176
     1
 90
        1
176
     1
 90
        1
176
     1
 40
0.5
176
     1
 40
30.0
176
     1
 62
     7
420
 16777215
176
     1
 90
        1
176
     1
 90
        0
176
     1
 62
     7
176
     1
 62
   257
176
     1
 90
        1
176
     1
 90
        1
176
     1
 40
1.0
176
     1
 90
        8
176
     1
 62
     7
176
     1
 40
1.0
176
     1
 90
        1
176
     1
 90
        6
176
     1
 90
        2
176
     1
 62
     7
176
     1
 90
        3
176
     1
 90
        0
176
     1
 90
        0
176
     1
290
     0
176
     1
 90
       13
176
     1
 40
0.0
176
     1
 90
        0
176
     1
290
     0
176
     1
290
     1
176
     1
290
     1
176
     1
290
     0
176
     1
290
     0
176
     1
290
     0
176
     1
290
     0
176
     1
290
     0
176
     1
290
     0
176
     1
 90
       50
176
     1
 40
0.0
176
     1
 40
1.0
176
     1
 90
        0
176
     1
 62
    18
420
        0
176
     1
 90
       50
176
     1
 90
        3
176
     1
 62
     5
420
      255
176
     1
290
     0
176
     1
 90
       50
176
     1
 90
       50
176
     1
 90
       50
176
     1
290
     0
176
     1
 90
       50
176
     1
 62
   256
176
     0
 40
1.0
176
     0
 90
        2
176
     1
  1
strokes_ogs.tif
176
     1
290
     0
176
     1
 40
1.0
176
     1
 40
1.0
176
     1
  0
DICTIONARYVAR
  5
4E5
102
{ACAD_REACTORS
330
4E4
102
}
330
4E4
100
DictionaryVariables
280
     0
  1
1:1
  0
DICTIONARYVAR
  5
4EA
102
{ACAD_REACTORS
330
4E4
102
}
330
4E4
100
DictionaryVariables
280
     0
  1
Standard
  0
DICTIONARYVAR
  5
4E9
102
{ACAD_REACTORS
330
4E4
102
}
330
4E4
100
DictionaryVariables
280
     0
  1
Standard
  0
DICTIONARY
  5
4E6
330
6A
100
AcDbDictionary
280
     1
281
     1
  3
ACAD_ROUNDTRIP_2008_TABLESTYLE_CELLSTYLEMAP
360
4E7
  0
CELLSTYLEMAP
  5
4E7
102
{ACAD_REACTORS
330
4E6
102
}
330
4E6
100
AcDbCellStyleMap
 90
        3
300
CELLSTYLE
  1
TABLEFORMAT_BEGIN
 90
        5
170
     1
 91
        0
 92
    32768
 62
   257
 93
        1
300
CONTENTFORMAT
  1
CONTENTFORMAT_BEGIN
 90
        0
 91
        0
 92
        4
 93
        0
300

 40
0.0
140
1.0
 94
        5
 62
     0
340
11
144
0.25
309
CONTENTFORMAT_END
171
     1
301
MARGIN
  1
CELLMARGIN_BEGIN
 40
0.06
 40
0.06
 40
0.06
 40
0.06
 40
0.06
 40
0.06
309
CELLMARGIN_END
 94
        6
 95
        1
302
GRIDFORMAT
  1
GRIDFORMAT_BEGIN
 90
        0
 91
        1
 62
     0
 92
       -2
340
14
 93
        0
 40
0.045
309
GRIDFORMAT_END
 95
        2
302
GRIDFORMAT
  1
GRIDFORMAT_BEGIN
 90
        0
 91
        1
 62
     0
 92
       -2
340
14
 93
        0
 40
0.045
309
GRIDFORMAT_END
 95
        4
302
GRIDFORMAT
  1
GRIDFORMAT_BEGIN
 90
        0
 91
        1
 62
     0
 92
       -2
340
14
 93
        0
 40
0.045
309
GRIDFORMAT_END
 95
        8
302
GRIDFORMAT
  1
GRIDFORMAT_BEGIN
 90
        0
 91
        1
 62
     0
 92
       -2
340
14
 93
        0
 40
0.045
309
GRIDFORMAT_END
 95
       16
302
GRIDFORMAT
  1
GRIDFORMAT_BEGIN
 90
        0
 91
        1
 62
     0
 92
       -2
340
14
 93
        0
 40
0.045
309
GRIDFORMAT_END
 95
       32
302
GRIDFORMAT
  1
GRIDFORMAT_BEGIN
 90
        0
 91
        1
 62
     0
 92
       -2
340
14
 93
        0
 40
0.045
309
GRIDFORMAT_END
309
TABLEFORMAT_END
  1
CELLSTYLE_BEGIN
 90
        1
 91
        1
300
_TITLE
309
CELLSTYLE_END
300
CELLSTYLE
  1
TABLEFORMAT_BEGIN
 90
        5
170
     1
 91
        0
 92
        0
 62
   257
 93
        1
300
CONTENTFORMAT
  1
CONTENTFORMAT_BEGIN
 90
        0
 91
        0
 92
        4
 93
        0
300

 40
0.0
140
1.0
 94
        5
 62
     0
340
11
144
0.18
309
CONTENTFORMAT_END
171
     1
301
MARGIN
  1
CELLMARGIN_BEGIN
 40
0.06
 40
0.06
 40
0.06
 40
0.06
 40
0.06
 40
0.06
309
CELLMARGIN_END
 94
        6
 95
        1
302
GRIDFORMAT
  1
GRIDFORMAT_BEGIN
 90
        0
 91
        1
 62
     0
 92
       -2
340
14
 93
        0
 40
0.045
309
GRIDFORMAT_END
 95
        2
302
GRIDFORMAT
  1
GRIDFORMAT_BEGIN
 90
        0
 91
        1
 62
     0
 92
       -2
340
14
 93
        0
 40
0.045
309
GRIDFORMAT_END
 95
        4
302
GRIDFORMAT
  1
GRIDFORMAT_BEGIN
 90
        0
 91
        1
 62
     0
 92
       -2
340
14
 93
        0
 40
0.045
309
GRIDFORMAT_END
 95
        8
302
GRIDFORMAT
  1
GRIDFORMAT_BEGIN
 90
        0
 91
        1
 62
     0
 92
       -2
340
14
 93
        0
 40
0.045
309
GRIDFORMAT_END
 95
       16
302
GRIDFORMAT
  1
GRIDFORMAT_BEGIN
 90
        0
 91
        1
 62
     0
 92
       -2
340
14
 93
        0
 40
0.045
309
GRIDFORMAT_END
 95
       32
302
GRIDFORMAT
  1
GRIDFORMAT_BEGIN
 90
        0
 91
        1
 62
     0
 92
       -2
340
14
 93
        0
 40
0.045
309
GRIDFORMAT_END
309
TABLEFORMAT_END
  1
CELLSTYLE_BEGIN
 90
        2
 91
        1
300
_HEADER
309
CELLSTYLE_END
300
CELLSTYLE
  1
TABLEFORMAT_BEGIN
 90
        5
170
     1
 91
        0
 92
        0
 62
   257
 93
        1
300
CONTENTFORMAT
  1
CONTENTFORMAT_BEGIN
 90
        0
 91
        0
 92
        4
 93
        0
300

 40
0.0
140
1.0
 94
        2
 62
     0
340
11
144
0.18
309
CONTENTFORMAT_END
171
     1
301
MARGIN
  1
CELLMARGIN_BEGIN
 40
0.06
 40
0.06
 40
0.06
 40
0.06
 40
0.06
 40
0.06
309
CELLMARGIN_END
 94
        6
 95
        1
302
GRIDFORMAT
  1
GRIDFORMAT_BEGIN
 90
        0
 91
        1
 62
     0
 92
       -2
340
14
 93
        0
 40
0.045
309
GRIDFORMAT_END
 95
        2
302
GRIDFORMAT
  1
GRIDFORMAT_BEGIN
 90
        0
 91
        1
 62
     0
 92
       -2
340
14
 93
        0
 40
0.045
309
GRIDFORMAT_END
 95
        4
302
GRIDFORMAT
  1
GRIDFORMAT_BEGIN
 90
        0
 91
        1
 62
     0
 92
       -2
340
14
 93
        0
 40
0.045
309
GRIDFORMAT_END
 95
        8
302
GRIDFORMAT
  1
GRIDFORMAT_BEGIN
 90
        0
 91
        1
 62
     0
 92
       -2
340
14
 93
        0
 40
0.045
309
GRIDFORMAT_END
 95
       16
302
GRIDFORMAT
  1
GRIDFORMAT_BEGIN
 90
        0
 91
        1
 62
     0
 92
       -2
340
14
 93
        0
 40
0.045
309
GRIDFORMAT_END
 95
       32
302
GRIDFORMAT
  1
GRIDFORMAT_BEGIN
 90
        0
 91
        1
 62
     0
 92
       -2
340
14
 93
        0
 40
0.045
309
GRIDFORMAT_END
309
TABLEFORMAT_END
  1
CELLSTYLE_BEGIN
 90
        3
 91
        2
300
_DATA
309
CELLSTYLE_END
  0
ENDSEC
  0
EOF
