ISO-10303-21;
HEADER;
FILE_DESCRIPTION (( 'STEP AP214' ),
    '1' );
FILE_NAME ('ShaftRailAssembly_E4904CD22F.step',
    '2021-09-16T18:21:19',
    ( '' ),
    ( '' ),
    'SwSTEP 2.0',
    'SolidWorks 2019',
    '' );
FILE_SCHEMA (( 'AUTOMOTIVE_DESIGN' ));
ENDSEC;

DATA;
#1 = FILL_AREA_STYLE ('',( #38 ) ) ;
#2 = PRODUCT_CONTEXT ( 'NONE', #137, 'mechanical' ) ;
#3 = PRODUCT_DEFINITION_CONTEXT ( 'detailed design', #211, 'design' ) ;
#4 = FACE_OUTER_BOUND ( 'NONE', #36, .T. ) ;
#5 = DIRECTION ( 'NONE',  ( 0.000000000000000000, 0.000000000000000000, 1.000000000000000000 ) ) ;
#6 =( LENGTH_UNIT ( ) NAMED_UNIT ( * ) SI_UNIT ( $, .METRE. ) );
#7 = CARTESIAN_POINT ( 'NONE',  ( 0.09375000000000005551, 0.1000000000000000194, -5.999999999999999112 ) ) ;
#8 = CIRCLE ( 'NONE', #42, 0.09375000000000005551 ) ;
#9 = PRESENTATION_LAYER_ASSIGNMENT (  '', '', ( #97 ) ) ;
#10 = SURFACE_STYLE_FILL_AREA ( #160 ) ;
#11 = FILL_AREA_STYLE_COLOUR ( '', #18 ) ;
#12 =( CONVERSION_BASED_UNIT ( 'INCH', #60 ) LENGTH_UNIT ( ) NAMED_UNIT ( #143 ) );
#13 = DIMENSIONAL_EXPONENTS ( 1.000000000000000000, 0.000000000000000000, 0.000000000000000000, 0.000000000000000000, 0.000000000000000000, 0.000000000000000000, 0.000000000000000000 ) ;
#14 = EDGE_CURVE ( 'NONE', #224, #177, #63, .T. ) ;
#15 = STYLED_ITEM ( 'NONE', ( #24 ), #263 ) ;
#16 =( NAMED_UNIT ( * ) SI_UNIT ( $, .STERADIAN. ) SOLID_ANGLE_UNIT ( ) );
#17 = AXIS2_PLACEMENT_3D ( 'NONE', #115, #156, #118 ) ;
#18 = COLOUR_RGB ( '',0.8980392156862745390, 0.9176470588235293713, 0.9294117647058823817 ) ;
#19 = LENGTH_MEASURE_WITH_UNIT ( LENGTH_MEASURE( 0.02539999999999999897 ), #145 );
#20 = APPLICATION_CONTEXT ( 'automotive_design' ) ;
#21 = AXIS2_PLACEMENT_3D ( 'NONE', #271, #53, #221 ) ;
#22 = DIRECTION ( 'NONE',  ( 0.000000000000000000, 0.000000000000000000, 1.000000000000000000 ) ) ;
#23 = SHAPE_DEFINITION_REPRESENTATION ( #217, #168 ) ;
#24 = PRESENTATION_STYLE_ASSIGNMENT (( #240 ) ) ;
#25 = PRODUCT_DEFINITION_CONTEXT ( 'detailed design', #206, 'design' ) ;
#26 = CARTESIAN_POINT ( 'NONE',  ( 0.000000000000000000, 0.1000000000000000194, 0.000000000000000000 ) ) ;
#27 = DIRECTION ( 'NONE',  ( 0.000000000000000000, 0.000000000000000000, 1.000000000000000000 ) ) ;
#28 = AXIS2_PLACEMENT_3D ( 'NONE', #253, #41, #121 ) ;
#29 = VERTEX_POINT ( 'NONE', #179 ) ;
#30 = ORIENTED_EDGE ( 'NONE', *, *, #71, .T. ) ;
#31 = EDGE_CURVE ( 'NONE', #177, #29, #70, .T. ) ;
#32 = CARTESIAN_POINT ( 'NONE',  ( -0.09375000000000005551, 0.1000000000000000472, -5.999999999999999112 ) ) ;
#33 = DIMENSIONAL_EXPONENTS ( 1.000000000000000000, 0.000000000000000000, 0.000000000000000000, 0.000000000000000000, 0.000000000000000000, 0.000000000000000000, 0.000000000000000000 ) ;
#34 =( REPRESENTATION_RELATIONSHIP ('NONE','NONE', #168, #159 ) REPRESENTATION_RELATIONSHIP_WITH_TRANSFORMATION ( #195 )SHAPE_REPRESENTATION_RELATIONSHIP( ) );
#35 = CARTESIAN_POINT ( 'NONE',  ( -0.09375000000000005551, 0.1000000000000000472, -5.999999999999999112 ) ) ;
#36 = EDGE_LOOP ( 'NONE', ( #247, #136, #225, #91 ) ) ;
#37 = DIMENSIONAL_EXPONENTS ( 1.000000000000000000, 0.000000000000000000, 0.000000000000000000, 0.000000000000000000, 0.000000000000000000, 0.000000000000000000, 0.000000000000000000 ) ;
#38 = FILL_AREA_STYLE_COLOUR ( '', #248 ) ;
#39 =( NAMED_UNIT ( * ) PLANE_ANGLE_UNIT ( ) SI_UNIT ( $, .RADIAN. ) );
#40 =( CONVERSION_BASED_UNIT ( 'INCH', #218 ) LENGTH_UNIT ( ) NAMED_UNIT ( #205 ) );
#41 = DIRECTION ( 'NONE',  ( 0.000000000000000000, 0.000000000000000000, 1.000000000000000000 ) ) ;
#42 = AXIS2_PLACEMENT_3D ( 'NONE', #223, #5, #88 ) ;
#43 = AXIS2_PLACEMENT_3D ( 'NONE', #273, #22, #106 ) ;
#44 = SURFACE_STYLE_USAGE ( .BOTH. , #220 ) ;
#45 = FILL_AREA_STYLE ('',( #154 ) ) ;
#46 = CARTESIAN_POINT ( 'NONE',  ( 0.000000000000000000, 0.000000000000000000, 0.000000000000000000 ) ) ;
#47 = VECTOR ( 'NONE', #116, 39.37007874015748143 ) ;
#48 = PRESENTATION_STYLE_ASSIGNMENT (( #243 ) ) ;
#49 = DIRECTION ( 'NONE',  ( 0.000000000000000000, 0.000000000000000000, 1.000000000000000000 ) ) ;
#50 =( NAMED_UNIT ( * ) PLANE_ANGLE_UNIT ( ) SI_UNIT ( $, .RADIAN. ) );
#51 = MECHANICAL_DESIGN_GEOMETRIC_PRESENTATION_REPRESENTATION (  '', ( #229 ), #170 ) ;
#52 =( GEOMETRIC_REPRESENTATION_CONTEXT ( 3 ) GLOBAL_UNCERTAINTY_ASSIGNED_CONTEXT ( ( #258 ) ) GLOBAL_UNIT_ASSIGNED_CONTEXT ( ( #103, #80, #125 ) ) REPRESENTATION_CONTEXT ( 'NONE', 'WORKASPACE' ) );
#53 = DIRECTION ( 'NONE',  ( 0.000000000000000000, 0.000000000000000000, 1.000000000000000000 ) ) ;
#54 = PRODUCT_DEFINITION ( 'UNKNOWN', '', #93, #25 ) ;
#55 = SURFACE_STYLE_USAGE ( .BOTH. , #198 ) ;
#56 = AXIS2_PLACEMENT_3D ( 'NONE', #26, #111, #175 ) ;
#57 = MANIFOLD_SOLID_BREP ( 'S0_a_shaft-1/S0_a_shaft-1-solid1', #178 ) ;
#58 = SURFACE_STYLE_USAGE ( .BOTH. , #146 ) ;
#59 = EDGE_CURVE ( 'NONE', #177, #224, #274, .T. ) ;
#60 = LENGTH_MEASURE_WITH_UNIT ( LENGTH_MEASURE( 0.02539999999999999897 ), #167 );
#61 =( CONVERSION_BASED_UNIT ( 'INCH', #169 ) LENGTH_UNIT ( ) NAMED_UNIT ( #37 ) );
#62 =( GEOMETRIC_REPRESENTATION_CONTEXT ( 3 ) GLOBAL_UNCERTAINTY_ASSIGNED_CONTEXT ( ( #128 ) ) GLOBAL_UNIT_ASSIGNED_CONTEXT ( ( #90, #204, #261 ) ) REPRESENTATION_CONTEXT ( 'NONE', 'WORKASPACE' ) );
#63 = CIRCLE ( 'NONE', #17, 0.09375000000000005551 ) ;
#64 = APPLICATION_PROTOCOL_DEFINITION ( 'draft international standard', 'automotive_design', 1998, #137 ) ;
#65 = MECHANICAL_DESIGN_GEOMETRIC_PRESENTATION_REPRESENTATION (  '', ( #79 ), #62 ) ;
#66 = CARTESIAN_POINT ( 'NONE',  ( 0.000000000000000000, 0.000000000000000000, 0.000000000000000000 ) ) ;
#67 = PLANE ( 'NONE',  #245 ) ;
#68 = SURFACE_STYLE_FILL_AREA ( #200 ) ;
#69 = DIRECTION ( 'NONE',  ( 1.000000000000000000, 0.000000000000000000, 0.000000000000000000 ) ) ;
#70 = LINE ( 'NONE', #32, #255 ) ;
#71 = EDGE_CURVE ( 'NONE', #29, #94, #187, .T. ) ;
#72 = AXIS2_PLACEMENT_3D ( 'NONE', #109, #172, #131 ) ;
#73 = CARTESIAN_POINT ( 'NONE',  ( 0.000000000000000000, 0.1000000000000000194, -5.999999999999999112 ) ) ;
#74 =( CONVERSION_BASED_UNIT ( 'INCH', #268 ) LENGTH_UNIT ( ) NAMED_UNIT ( #251 ) );
#75 = SURFACE_STYLE_USAGE ( .BOTH. , #228 ) ;
#76 = ORIENTED_EDGE ( 'NONE', *, *, #238, .F. ) ;
#77 = SHAPE_REPRESENTATION_RELATIONSHIP ( 'NONE' , 'NONE' ,  #159, #215 ) ;
#78 = STYLED_ITEM ( 'NONE', ( #185 ), #119 ) ;
#79 = STYLED_ITEM ( 'NONE', ( #130 ), #231 ) ;
#80 =( NAMED_UNIT ( * ) PLANE_ANGLE_UNIT ( ) SI_UNIT ( $, .RADIAN. ) );
#81 =( NAMED_UNIT ( * ) PLANE_ANGLE_UNIT ( ) SI_UNIT ( $, .RADIAN. ) );
#82 = UNCERTAINTY_MEASURE_WITH_UNIT (LENGTH_MEASURE( 1.000000000000000082E-05 ), #96, 'distance_accuracy_value', 'NONE');
#83 =( LENGTH_UNIT ( ) NAMED_UNIT ( * ) SI_UNIT ( $, .METRE. ) );
#84 = PRODUCT_DEFINITION_SHAPE ( 'NONE', 'NONE',  #54 ) ;
#85 = MECHANICAL_DESIGN_GEOMETRIC_PRESENTATION_REPRESENTATION (  '', ( #78 ), #234 ) ;
#86 = PRODUCT_CONTEXT ( 'NONE', #252, 'mechanical' ) ;
#87 = CYLINDRICAL_SURFACE ( 'NONE', #148, 0.09375000000000005551 ) ;
#88 = DIRECTION ( 'NONE',  ( 1.000000000000000000, 0.000000000000000000, 0.000000000000000000 ) ) ;
#89 = ORIENTED_EDGE ( 'NONE', *, *, #192, .T. ) ;
#90 =( CONVERSION_BASED_UNIT ( 'INCH', #269 ) LENGTH_UNIT ( ) NAMED_UNIT ( #163 ) );
#91 = ORIENTED_EDGE ( 'NONE', *, *, #71, .F. ) ;
#92 =( GEOMETRIC_REPRESENTATION_CONTEXT ( 3 ) GLOBAL_UNCERTAINTY_ASSIGNED_CONTEXT ( ( #236 ) ) GLOBAL_UNIT_ASSIGNED_CONTEXT ( ( #40, #81, #193 ) ) REPRESENTATION_CONTEXT ( 'NONE', 'WORKASPACE' ) );
#93 = PRODUCT_DEFINITION_FORMATION_WITH_SPECIFIED_SOURCE ( 'ANY', '', #260, .NOT_KNOWN. ) ;
#94 = VERTEX_POINT ( 'NONE', #197 ) ;
#95 =( LENGTH_UNIT ( ) NAMED_UNIT ( * ) SI_UNIT ( $, .METRE. ) );
#96 =( CONVERSION_BASED_UNIT ( 'INCH', #275 ) LENGTH_UNIT ( ) NAMED_UNIT ( #33 ) );
#97 = STYLED_ITEM ( 'NONE', ( #124 ), #215 ) ;
#98 = COLOUR_RGB ( '',0.8980392156862745390, 0.9176470588235293713, 0.9294117647058823817 ) ;
#99 = UNCERTAINTY_MEASURE_WITH_UNIT (LENGTH_MEASURE( 1.000000000000000082E-05 ), #12, 'distance_accuracy_value', 'NONE');
#100 = FACE_OUTER_BOUND ( 'NONE', #158, .T. ) ;
#101 = PRODUCT_RELATED_PRODUCT_CATEGORY ( 'part', '', ( #233 ) ) ;
#102 = DIRECTION ( 'NONE',  ( 1.000000000000000000, 0.000000000000000000, -0.000000000000000000 ) ) ;
#103 =( CONVERSION_BASED_UNIT ( 'INCH', #19 ) LENGTH_UNIT ( ) NAMED_UNIT ( #210 ) );
#104 = PRODUCT_DEFINITION_SHAPE ( 'NONE', 'NONE',  #207 ) ;
#105 = AXIS2_PLACEMENT_3D ( 'NONE', #66, #194, #222 ) ;
#106 = DIRECTION ( 'NONE',  ( 1.000000000000000000, 0.000000000000000000, 0.000000000000000000 ) ) ;
#107 = PRODUCT_CONTEXT ( 'NONE', #20, 'mechanical' ) ;
#108 = PRODUCT_DEFINITION_CONTEXT ( 'detailed design', #110, 'design' ) ;
#109 = CARTESIAN_POINT ( 'NONE',  ( 0.000000000000000000, 0.000000000000000000, 0.000000000000000000 ) ) ;
#110 = APPLICATION_CONTEXT ( 'automotive_design' ) ;
#111 = DIRECTION ( 'NONE',  ( 0.000000000000000000, 0.000000000000000000, 1.000000000000000000 ) ) ;
#112 = PRESENTATION_LAYER_ASSIGNMENT (  '', '', ( #229 ) ) ;
#113 = SURFACE_STYLE_FILL_AREA ( #45 ) ;
#114 = SURFACE_STYLE_FILL_AREA ( #265 ) ;
#115 = CARTESIAN_POINT ( 'NONE',  ( 0.000000000000000000, 0.1000000000000000194, -5.999999999999999112 ) ) ;
#116 = DIRECTION ( 'NONE',  ( 0.000000000000000000, 0.000000000000000000, 1.000000000000000000 ) ) ;
#117 =( GEOMETRIC_REPRESENTATION_CONTEXT ( 3 ) GLOBAL_UNCERTAINTY_ASSIGNED_CONTEXT ( ( #241 ) ) GLOBAL_UNIT_ASSIGNED_CONTEXT ( ( #129, #244, #134 ) ) REPRESENTATION_CONTEXT ( 'NONE', 'WORKASPACE' ) );
#118 = DIRECTION ( 'NONE',  ( 1.000000000000000000, 0.000000000000000000, 0.000000000000000000 ) ) ;
#119 = ADVANCED_FACE ( 'NONE', ( #4 ), #87, .T. ) ;
#120 = UNCERTAINTY_MEASURE_WITH_UNIT (LENGTH_MEASURE( 1.000000000000000082E-05 ), #74, 'distance_accuracy_value', 'NONE');
#121 = DIRECTION ( 'NONE',  ( 1.000000000000000000, 0.000000000000000000, 0.000000000000000000 ) ) ;
#122 = CARTESIAN_POINT ( 'NONE',  ( 0.000000000000000000, 0.1000000000000000194, -5.999999999999999112 ) ) ;
#123 = MECHANICAL_DESIGN_GEOMETRIC_PRESENTATION_REPRESENTATION (  '', ( #151 ), #92 ) ;
#124 = PRESENTATION_STYLE_ASSIGNMENT (( #58 ) ) ;
#125 =( NAMED_UNIT ( * ) SI_UNIT ( $, .STERADIAN. ) SOLID_ANGLE_UNIT ( ) );
#126 = SURFACE_STYLE_FILL_AREA ( #1 ) ;
#127 = PRESENTATION_LAYER_ASSIGNMENT (  '', '', ( #15 ) ) ;
#128 = UNCERTAINTY_MEASURE_WITH_UNIT (LENGTH_MEASURE( 1.000000000000000082E-05 ), #90, 'distance_accuracy_value', 'NONE');
#129 =( CONVERSION_BASED_UNIT ( 'INCH', #196 ) LENGTH_UNIT ( ) NAMED_UNIT ( #13 ) );
#130 = PRESENTATION_STYLE_ASSIGNMENT (( #75 ) ) ;
#131 = DIRECTION ( 'NONE',  ( 1.000000000000000000, 0.000000000000000000, 0.000000000000000000 ) ) ;
#132 = DIRECTION ( 'NONE',  ( 1.000000000000000000, 0.000000000000000000, 0.000000000000000000 ) ) ;
#133 = ORIENTED_EDGE ( 'NONE', *, *, #31, .T. ) ;
#134 =( NAMED_UNIT ( * ) SI_UNIT ( $, .STERADIAN. ) SOLID_ANGLE_UNIT ( ) );
#135 = DIRECTION ( 'NONE',  ( 0.000000000000000000, 0.000000000000000000, 1.000000000000000000 ) ) ;
#136 = ORIENTED_EDGE ( 'NONE', *, *, #59, .T. ) ;
#137 = APPLICATION_CONTEXT ( 'automotive_design' ) ;
#138 = DIRECTION ( 'NONE',  ( 1.000000000000000000, 0.000000000000000000, -0.000000000000000000 ) ) ;
#139 =( NAMED_UNIT ( * ) SI_UNIT ( $, .STERADIAN. ) SOLID_ANGLE_UNIT ( ) );
#140 = SURFACE_SIDE_STYLE ('',( #10 ) ) ;
#141 =( NAMED_UNIT ( * ) PLANE_ANGLE_UNIT ( ) SI_UNIT ( $, .RADIAN. ) );
#142 = DIRECTION ( 'NONE',  ( 1.000000000000000000, 0.000000000000000000, 0.000000000000000000 ) ) ;
#143 = DIMENSIONAL_EXPONENTS ( 1.000000000000000000, 0.000000000000000000, 0.000000000000000000, 0.000000000000000000, 0.000000000000000000, 0.000000000000000000, 0.000000000000000000 ) ;
#144 = PRESENTATION_LAYER_ASSIGNMENT (  '', '', ( #78 ) ) ;
#145 =( LENGTH_UNIT ( ) NAMED_UNIT ( * ) SI_UNIT ( $, .METRE. ) );
#146 = SURFACE_SIDE_STYLE ('',( #191 ) ) ;
#147 =( NAMED_UNIT ( * ) SI_UNIT ( $, .STERADIAN. ) SOLID_ANGLE_UNIT ( ) );
#148 = AXIS2_PLACEMENT_3D ( 'NONE', #122, #209, #142 ) ;
#149 = PRODUCT_DEFINITION ( 'UNKNOWN', '', #152, #3 ) ;
#150 = APPLICATION_PROTOCOL_DEFINITION ( 'draft international standard', 'automotive_design', 1998, #206 ) ;
#151 = STYLED_ITEM ( 'NONE', ( #256 ), #162 ) ;
#152 = PRODUCT_DEFINITION_FORMATION_WITH_SPECIFIED_SOURCE ( 'ANY', '', #233, .NOT_KNOWN. ) ;
#153 = CONTEXT_DEPENDENT_SHAPE_REPRESENTATION ( #34, #186 ) ;
#154 = FILL_AREA_STYLE_COLOUR ( '', #267 ) ;
#155 = EDGE_LOOP ( 'NONE', ( #266, #227 ) ) ;
#156 = DIRECTION ( 'NONE',  ( 0.000000000000000000, 0.000000000000000000, 1.000000000000000000 ) ) ;
#157 = FILL_AREA_STYLE_COLOUR ( '', #202 ) ;
#158 = EDGE_LOOP ( 'NONE', ( #264, #133, #199, #76 ) ) ;
#159 = SHAPE_REPRESENTATION ( 'BcbruN8UD0_CADModel_0', ( #28 ), #208 ) ;
#160 = FILL_AREA_STYLE ('',( #201 ) ) ;
#161 = FILL_AREA_STYLE_COLOUR ( '', #98 ) ;
#162 = ADVANCED_FACE ( 'NONE', ( #100 ), #212, .T. ) ;
#163 = DIMENSIONAL_EXPONENTS ( 1.000000000000000000, 0.000000000000000000, 0.000000000000000000, 0.000000000000000000, 0.000000000000000000, 0.000000000000000000, 0.000000000000000000 ) ;
#164 = AXIS2_PLACEMENT_3D ( 'NONE', #242, #135, #132 ) ;
#165 = AXIS2_PLACEMENT_3D ( 'NONE', #235, #166, #102 ) ;
#166 = DIRECTION ( 'NONE',  ( 0.000000000000000000, 0.000000000000000000, 1.000000000000000000 ) ) ;
#167 =( LENGTH_UNIT ( ) NAMED_UNIT ( * ) SI_UNIT ( $, .METRE. ) );
#168 = SHAPE_REPRESENTATION ( 'ShaftRailAssembly_E4904CD22F', ( #72, #214 ), #117 ) ;
#169 = LENGTH_MEASURE_WITH_UNIT ( LENGTH_MEASURE( 0.02539999999999999897 ), #190 );
#170 =( GEOMETRIC_REPRESENTATION_CONTEXT ( 3 ) GLOBAL_UNCERTAINTY_ASSIGNED_CONTEXT ( ( #120 ) ) GLOBAL_UNIT_ASSIGNED_CONTEXT ( ( #74, #50, #139 ) ) REPRESENTATION_CONTEXT ( 'NONE', 'WORKASPACE' ) );
#171 = APPLICATION_PROTOCOL_DEFINITION ( 'draft international standard', 'automotive_design', 1998, #20 ) ;
#172 = DIRECTION ( 'NONE',  ( 0.000000000000000000, 0.000000000000000000, 1.000000000000000000 ) ) ;
#173 = MECHANICAL_DESIGN_GEOMETRIC_PRESENTATION_REPRESENTATION (  '', ( #15 ), #230 ) ;
#174 = LINE ( 'NONE', #226, #47 ) ;
#175 = DIRECTION ( 'NONE',  ( 1.000000000000000000, 0.000000000000000000, 0.000000000000000000 ) ) ;
#176 = FACE_OUTER_BOUND ( 'NONE', #155, .T. ) ;
#177 = VERTEX_POINT ( 'NONE', #35 ) ;
#178 = CLOSED_SHELL ( 'NONE', ( #162, #119, #231, #263 ) ) ;
#179 = CARTESIAN_POINT ( 'NONE',  ( -0.09375000000000005551, 0.1000000000000000472, 0.000000000000000000 ) ) ;
#180 = PRODUCT_RELATED_PRODUCT_CATEGORY ( 'part', '', ( #260 ) ) ;
#181 = PLANE ( 'NONE',  #165 ) ;
#182 = EDGE_LOOP ( 'NONE', ( #89, #30 ) ) ;
#183 =( NAMED_UNIT ( * ) PLANE_ANGLE_UNIT ( ) SI_UNIT ( $, .RADIAN. ) );
#184 = PRODUCT_DEFINITION_FORMATION_WITH_SPECIFIED_SOURCE ( 'ANY', '', #254, .NOT_KNOWN. ) ;
#185 = PRESENTATION_STYLE_ASSIGNMENT (( #55 ) ) ;
#186 = PRODUCT_DEFINITION_SHAPE ( 'NONE', 'NONE',  #276 ) ;
#187 = CIRCLE ( 'NONE', #56, 0.09375000000000005551 ) ;
#188 = COLOUR_RGB ( '',0.7764705882352941346, 0.7764705882352941346, 0.8156862745098039102 ) ;
#189 =( NAMED_UNIT ( * ) SI_UNIT ( $, .STERADIAN. ) SOLID_ANGLE_UNIT ( ) );
#190 =( LENGTH_UNIT ( ) NAMED_UNIT ( * ) SI_UNIT ( $, .METRE. ) );
#191 = SURFACE_STYLE_FILL_AREA ( #232 ) ;
#192 = EDGE_CURVE ( 'NONE', #94, #29, #8, .T. ) ;
#193 =( NAMED_UNIT ( * ) SI_UNIT ( $, .STERADIAN. ) SOLID_ANGLE_UNIT ( ) );
#194 = DIRECTION ( 'NONE',  ( 0.000000000000000000, 0.000000000000000000, 1.000000000000000000 ) ) ;
#195 = ITEM_DEFINED_TRANSFORMATION ( 'NONE', 'NONE', #214,  #28 ) ;
#196 = LENGTH_MEASURE_WITH_UNIT ( LENGTH_MEASURE( 0.02539999999999999897 ), #216 );
#197 = CARTESIAN_POINT ( 'NONE',  ( 0.09375000000000005551, 0.1000000000000000194, 0.000000000000000000 ) ) ;
#198 = SURFACE_SIDE_STYLE ('',( #113 ) ) ;
#199 = ORIENTED_EDGE ( 'NONE', *, *, #192, .F. ) ;
#200 = FILL_AREA_STYLE ('',( #161 ) ) ;
#201 = FILL_AREA_STYLE_COLOUR ( '', #188 ) ;
#202 = COLOUR_RGB ( '',0.7764705882352941346, 0.7764705882352941346, 0.8156862745098039102 ) ;
#203 = DIRECTION ( 'NONE',  ( 0.000000000000000000, 0.000000000000000000, 1.000000000000000000 ) ) ;
#204 =( NAMED_UNIT ( * ) PLANE_ANGLE_UNIT ( ) SI_UNIT ( $, .RADIAN. ) );
#205 = DIMENSIONAL_EXPONENTS ( 1.000000000000000000, 0.000000000000000000, 0.000000000000000000, 0.000000000000000000, 0.000000000000000000, 0.000000000000000000, 0.000000000000000000 ) ;
#206 = APPLICATION_CONTEXT ( 'automotive_design' ) ;
#207 = PRODUCT_DEFINITION ( 'UNKNOWN', '', #184, #108 ) ;
#208 =( GEOMETRIC_REPRESENTATION_CONTEXT ( 3 ) GLOBAL_UNCERTAINTY_ASSIGNED_CONTEXT ( ( #272 ) ) GLOBAL_UNIT_ASSIGNED_CONTEXT ( ( #61, #141, #147 ) ) REPRESENTATION_CONTEXT ( 'NONE', 'WORKASPACE' ) );
#209 = DIRECTION ( 'NONE',  ( 0.000000000000000000, 0.000000000000000000, 1.000000000000000000 ) ) ;
#210 = DIMENSIONAL_EXPONENTS ( 1.000000000000000000, 0.000000000000000000, 0.000000000000000000, 0.000000000000000000, 0.000000000000000000, 0.000000000000000000, 0.000000000000000000 ) ;
#211 = APPLICATION_CONTEXT ( 'automotive_design' ) ;
#212 = CYLINDRICAL_SURFACE ( 'NONE', #164, 0.09375000000000005551 ) ;
#213 = PRESENTATION_LAYER_ASSIGNMENT (  '', '', ( #151 ) ) ;
#214 = AXIS2_PLACEMENT_3D ( 'NONE', #46, #27, #69 ) ;
#215 = ADVANCED_BREP_SHAPE_REPRESENTATION ( '', ( #57, #28 ), #208 ) ;
#216 =( LENGTH_UNIT ( ) NAMED_UNIT ( * ) SI_UNIT ( $, .METRE. ) );
#217 = PRODUCT_DEFINITION_SHAPE ( 'NONE', 'NONE',  #149 ) ;
#218 = LENGTH_MEASURE_WITH_UNIT ( LENGTH_MEASURE( 0.02539999999999999897 ), #83 );
#219 = SHAPE_DEFINITION_REPRESENTATION ( #84, #159 ) ;
#220 = SURFACE_SIDE_STYLE ('',( #126 ) ) ;
#221 = DIRECTION ( 'NONE',  ( 1.000000000000000000, 0.000000000000000000, 0.000000000000000000 ) ) ;
#222 = DIRECTION ( 'NONE',  ( 1.000000000000000000, 0.000000000000000000, 0.000000000000000000 ) ) ;
#223 = CARTESIAN_POINT ( 'NONE',  ( 0.000000000000000000, 0.1000000000000000194, 0.000000000000000000 ) ) ;
#224 = VERTEX_POINT ( 'NONE', #7 ) ;
#225 = ORIENTED_EDGE ( 'NONE', *, *, #238, .T. ) ;
#226 = CARTESIAN_POINT ( 'NONE',  ( 0.09375000000000005551, 0.1000000000000000194, -5.999999999999999112 ) ) ;
#227 = ORIENTED_EDGE ( 'NONE', *, *, #59, .F. ) ;
#228 = SURFACE_SIDE_STYLE ('',( #114 ) ) ;
#229 = STYLED_ITEM ( 'NONE', ( #48 ), #57 ) ;
#230 =( GEOMETRIC_REPRESENTATION_CONTEXT ( 3 ) GLOBAL_UNCERTAINTY_ASSIGNED_CONTEXT ( ( #82 ) ) GLOBAL_UNIT_ASSIGNED_CONTEXT ( ( #96, #39, #189 ) ) REPRESENTATION_CONTEXT ( 'NONE', 'WORKASPACE' ) );
#231 = ADVANCED_FACE ( 'NONE', ( #176 ), #67, .F. ) ;
#232 = FILL_AREA_STYLE ('',( #11 ) ) ;
#233 = PRODUCT ( 'ShaftRailAssembly_E4904CD22F', 'ShaftRailAssembly_E4904CD22F', '', ( #107 ) ) ;
#234 =( GEOMETRIC_REPRESENTATION_CONTEXT ( 3 ) GLOBAL_UNCERTAINTY_ASSIGNED_CONTEXT ( ( #99 ) ) GLOBAL_UNIT_ASSIGNED_CONTEXT ( ( #12, #183, #16 ) ) REPRESENTATION_CONTEXT ( 'NONE', 'WORKASPACE' ) );
#235 = CARTESIAN_POINT ( 'NONE',  ( 0.000000000000000000, 0.1000000000000000194, 0.000000000000000000 ) ) ;
#236 = UNCERTAINTY_MEASURE_WITH_UNIT (LENGTH_MEASURE( 1.000000000000000082E-05 ), #40, 'distance_accuracy_value', 'NONE');
#237 = PRESENTATION_LAYER_ASSIGNMENT (  '', '', ( #79 ) ) ;
#238 = EDGE_CURVE ( 'NONE', #224, #94, #174, .T. ) ;
#239 = APPLICATION_PROTOCOL_DEFINITION ( 'draft international standard', 'automotive_design', 1998, #110 ) ;
#240 = SURFACE_STYLE_USAGE ( .BOTH. , #140 ) ;
#241 = UNCERTAINTY_MEASURE_WITH_UNIT (LENGTH_MEASURE( 1.000000000000000082E-05 ), #129, 'distance_accuracy_value', 'NONE');
#242 = CARTESIAN_POINT ( 'NONE',  ( 0.000000000000000000, 0.1000000000000000194, -5.999999999999999112 ) ) ;
#243 = SURFACE_STYLE_USAGE ( .BOTH. , #270 ) ;
#244 =( NAMED_UNIT ( * ) PLANE_ANGLE_UNIT ( ) SI_UNIT ( $, .RADIAN. ) );
#245 = AXIS2_PLACEMENT_3D ( 'NONE', #73, #49, #138 ) ;
#246 = FACE_OUTER_BOUND ( 'NONE', #182, .T. ) ;
#247 = ORIENTED_EDGE ( 'NONE', *, *, #31, .F. ) ;
#248 = COLOUR_RGB ( '',0.7764705882352941346, 0.7764705882352941346, 0.8156862745098039102 ) ;
#249 = PRODUCT_RELATED_PRODUCT_CATEGORY ( 'part', '', ( #254 ) ) ;
#250 = MECHANICAL_DESIGN_GEOMETRIC_PRESENTATION_REPRESENTATION (  '', ( #97 ), #52 ) ;
#251 = DIMENSIONAL_EXPONENTS ( 1.000000000000000000, 0.000000000000000000, 0.000000000000000000, 0.000000000000000000, 0.000000000000000000, 0.000000000000000000, 0.000000000000000000 ) ;
#252 = APPLICATION_CONTEXT ( 'automotive_design' ) ;
#253 = CARTESIAN_POINT ( 'NONE',  ( 0.000000000000000000, 0.000000000000000000, 0.000000000000000000 ) ) ;
#254 = PRODUCT ( 'BcbruN8UD0_CADModel_0', 'BcbruN8UD0_CADModel_0', '', ( #2 ) ) ;
#255 = VECTOR ( 'NONE', #203, 39.37007874015748143 ) ;
#256 = PRESENTATION_STYLE_ASSIGNMENT (( #44 ) ) ;
#257 = APPLICATION_PROTOCOL_DEFINITION ( 'draft international standard', 'automotive_design', 1998, #252 ) ;
#258 = UNCERTAINTY_MEASURE_WITH_UNIT (LENGTH_MEASURE( 1.000000000000000082E-05 ), #103, 'distance_accuracy_value', 'NONE');
#259 = APPLICATION_PROTOCOL_DEFINITION ( 'draft international standard', 'automotive_design', 1998, #211 ) ;
#260 = PRODUCT ( 'BcbruN8UD0_CADModel_0', 'BcbruN8UD0_CADModel_0', '', ( #86 ) ) ;
#261 =( NAMED_UNIT ( * ) SI_UNIT ( $, .STERADIAN. ) SOLID_ANGLE_UNIT ( ) );
#262 =( LENGTH_UNIT ( ) NAMED_UNIT ( * ) SI_UNIT ( $, .METRE. ) );
#263 = ADVANCED_FACE ( 'NONE', ( #246 ), #181, .T. ) ;
#264 = ORIENTED_EDGE ( 'NONE', *, *, #14, .T. ) ;
#265 = FILL_AREA_STYLE ('',( #157 ) ) ;
#266 = ORIENTED_EDGE ( 'NONE', *, *, #14, .F. ) ;
#267 = COLOUR_RGB ( '',0.7764705882352941346, 0.7764705882352941346, 0.8156862745098039102 ) ;
#268 = LENGTH_MEASURE_WITH_UNIT ( LENGTH_MEASURE( 0.02539999999999999897 ), #6 );
#269 = LENGTH_MEASURE_WITH_UNIT ( LENGTH_MEASURE( 0.02539999999999999897 ), #95 );
#270 = SURFACE_SIDE_STYLE ('',( #68 ) ) ;
#271 = CARTESIAN_POINT ( 'NONE',  ( 0.000000000000000000, 0.1000000000000000194, -5.999999999999999112 ) ) ;
#272 = UNCERTAINTY_MEASURE_WITH_UNIT (LENGTH_MEASURE( 1.000000000000000082E-05 ), #61, 'distance_accuracy_value', 'NONE');
#273 = CARTESIAN_POINT ( 'NONE',  ( 0.000000000000000000, 0.000000000000000000, 0.000000000000000000 ) ) ;
#274 = CIRCLE ( 'NONE', #21, 0.09375000000000005551 ) ;
#275 = LENGTH_MEASURE_WITH_UNIT ( LENGTH_MEASURE( 0.02539999999999999897 ), #262 );
#276 = NEXT_ASSEMBLY_USAGE_OCCURRENCE ( 'NAUO1', ' ', ' ', #149, #54, $ ) ;
ENDSEC;
END-ISO-10303-21;
