ISO-10303-21;
HEADER;
FILE_DESCRIPTION (( 'STEP AP214' ),
    '1' );
FILE_NAME ('ShaftRailAssembly_6BF1EF48C1.step',
    '2022-08-17T13:57:16',
    ( '' ),
    ( '' ),
    'SwSTEP 2.0',
    'SolidWorks 2019',
    '' );
FILE_SCHEMA (( 'AUTOMOTIVE_DESIGN' ));
ENDSEC;

DATA;
#1 = ORIENTED_EDGE ( 'NONE', *, *, #267, .T. ) ;
#2 = DIMENSIONAL_EXPONENTS ( 1.000000000000000000, 0.000000000000000000, 0.000000000000000000, 0.000000000000000000, 0.000000000000000000, 0.000000000000000000, 0.000000000000000000 ) ;
#3 = ORIENTED_EDGE ( 'NONE', *, *, #267, .F. ) ;
#4 = EDGE_LOOP ( 'NONE', ( #43, #135 ) ) ;
#5 = PRODUCT_DEFINITION_SHAPE ( 'NONE', 'NONE',  #58 ) ;
#6 =( NAMED_UNIT ( * ) PLANE_ANGLE_UNIT ( ) SI_UNIT ( $, .RADIAN. ) );
#7 = DIMENSIONAL_EXPONENTS ( 1.000000000000000000, 0.000000000000000000, 0.000000000000000000, 0.000000000000000000, 0.000000000000000000, 0.000000000000000000, 0.000000000000000000 ) ;
#8 = PRODUCT_DEFINITION_FORMATION_WITH_SPECIFIED_SOURCE ( 'ANY', '', #76, .NOT_KNOWN. ) ;
#9 = PRESENTATION_STYLE_ASSIGNMENT (( #102 ) ) ;
#10 = CARTESIAN_POINT ( 'NONE',  ( 0.000000000000000000, 2.500000000000000000, 0.000000000000000000 ) ) ;
#11 = COLOUR_RGB ( '',0.7764705882352941346, 0.7764705882352941346, 0.8156862745098039102 ) ;
#12 =( CONVERSION_BASED_UNIT ( 'INCH', #218 ) LENGTH_UNIT ( ) NAMED_UNIT ( #238 ) );
#13 = COLOUR_RGB ( '',0.7764705882352941346, 0.7764705882352941346, 0.8156862745098039102 ) ;
#14 = SHAPE_REPRESENTATION_RELATIONSHIP ( 'NONE' , 'NONE' ,  #122, #77 ) ;
#15 = FILL_AREA_STYLE ('',( #17 ) ) ;
#16 =( NAMED_UNIT ( * ) SI_UNIT ( $, .STERADIAN. ) SOLID_ANGLE_UNIT ( ) );
#17 = FILL_AREA_STYLE_COLOUR ( '', #209 ) ;
#18 = PRODUCT_DEFINITION_CONTEXT ( 'detailed design', #50, 'design' ) ;
#19 = APPLICATION_CONTEXT ( 'automotive_design' ) ;
#20 =( LENGTH_UNIT ( ) NAMED_UNIT ( * ) SI_UNIT ( $, .METRE. ) );
#21 = CARTESIAN_POINT ( 'NONE',  ( 0.000000000000000000, 0.000000000000000000, 0.000000000000000000 ) ) ;
#22 = AXIS2_PLACEMENT_3D ( 'NONE', #188, #136, #94 ) ;
#23 = APPLICATION_CONTEXT ( 'automotive_design' ) ;
#24 = MECHANICAL_DESIGN_GEOMETRIC_PRESENTATION_REPRESENTATION (  '', ( #158 ), #250 ) ;
#25 = DIRECTION ( 'NONE',  ( 1.000000000000000000, 0.000000000000000000, 0.000000000000000000 ) ) ;
#26 = CARTESIAN_POINT ( 'NONE',  ( 0.000000000000000000, 0.000000000000000000, 0.000000000000000000 ) ) ;
#27 = APPLICATION_PROTOCOL_DEFINITION ( 'draft international standard', 'automotive_design', 1998, #86 ) ;
#28 = FILL_AREA_STYLE_COLOUR ( '', #67 ) ;
#29 = DIRECTION ( 'NONE',  ( 1.000000000000000000, 0.000000000000000000, 0.000000000000000000 ) ) ;
#30 = SURFACE_STYLE_FILL_AREA ( #75 ) ;
#31 = PRODUCT_DEFINITION ( 'UNKNOWN', '', #222, #18 ) ;
#32 = SURFACE_STYLE_FILL_AREA ( #177 ) ;
#33 = ADVANCED_FACE ( 'NONE', ( #195 ), #175, .T. ) ;
#34 = PRODUCT_DEFINITION_SHAPE ( 'NONE', 'NONE',  #31 ) ;
#35 = CARTESIAN_POINT ( 'NONE',  ( 0.000000000000000000, 2.500000000000000000, -23.99999999999999645 ) ) ;
#36 =( CONVERSION_BASED_UNIT ( 'INCH', #219 ) LENGTH_UNIT ( ) NAMED_UNIT ( #7 ) );
#37 = PRESENTATION_LAYER_ASSIGNMENT (  '', '', ( #113 ) ) ;
#38 = CARTESIAN_POINT ( 'NONE',  ( 0.000000000000000000, 2.500000000000000000, 0.000000000000000000 ) ) ;
#39 = CARTESIAN_POINT ( 'NONE',  ( 0.000000000000000000, 2.500000000000000000, -23.99999999999999645 ) ) ;
#40 = UNCERTAINTY_MEASURE_WITH_UNIT (LENGTH_MEASURE( 1.000000000000000082E-05 ), #61, 'distance_accuracy_value', 'NONE');
#41 = PRESENTATION_LAYER_ASSIGNMENT (  '', '', ( #161 ) ) ;
#42 = MECHANICAL_DESIGN_GEOMETRIC_PRESENTATION_REPRESENTATION (  '', ( #104 ), #125 ) ;
#43 = ORIENTED_EDGE ( 'NONE', *, *, #200, .F. ) ;
#44 = EDGE_CURVE ( 'NONE', #239, #97, #181, .T. ) ;
#45 = DIRECTION ( 'NONE',  ( 0.000000000000000000, 0.000000000000000000, 1.000000000000000000 ) ) ;
#46 = EDGE_LOOP ( 'NONE', ( #1, #210 ) ) ;
#47 = VERTEX_POINT ( 'NONE', #168 ) ;
#48 = AXIS2_PLACEMENT_3D ( 'NONE', #10, #83, #248 ) ;
#49 = PRESENTATION_LAYER_ASSIGNMENT (  '', '', ( #158 ) ) ;
#50 = APPLICATION_CONTEXT ( 'automotive_design' ) ;
#51 =( CONVERSION_BASED_UNIT ( 'INCH', #121 ) LENGTH_UNIT ( ) NAMED_UNIT ( #211 ) );
#52 = SURFACE_SIDE_STYLE ('',( #249 ) ) ;
#53 = FACE_OUTER_BOUND ( 'NONE', #46, .T. ) ;
#54 =( GEOMETRIC_REPRESENTATION_CONTEXT ( 3 ) GLOBAL_UNCERTAINTY_ASSIGNED_CONTEXT ( ( #40 ) ) GLOBAL_UNIT_ASSIGNED_CONTEXT ( ( #61, #203, #16 ) ) REPRESENTATION_CONTEXT ( 'NONE', 'WORKASPACE' ) );
#55 = MANIFOLD_SOLID_BREP ( 'S0_a_shaft-1/S0_a_shaft-1-solid1', #251 ) ;
#56 = FACE_OUTER_BOUND ( 'NONE', #4, .T. ) ;
#57 =( LENGTH_UNIT ( ) NAMED_UNIT ( * ) SI_UNIT ( $, .METRE. ) );
#58 = PRODUCT_DEFINITION ( 'UNKNOWN', '', #8, #221 ) ;
#59 = COLOUR_RGB ( '',0.7764705882352941346, 0.7764705882352941346, 0.8156862745098039102 ) ;
#60 = CIRCLE ( 'NONE', #214, 0.7499999999999998890 ) ;
#61 =( CONVERSION_BASED_UNIT ( 'INCH', #252 ) LENGTH_UNIT ( ) NAMED_UNIT ( #259 ) );
#62 =( NAMED_UNIT ( * ) PLANE_ANGLE_UNIT ( ) SI_UNIT ( $, .RADIAN. ) );
#63 = UNCERTAINTY_MEASURE_WITH_UNIT (LENGTH_MEASURE( 1.000000000000000082E-05 ), #185, 'distance_accuracy_value', 'NONE');
#64 = CARTESIAN_POINT ( 'NONE',  ( 0.7499999999999998890, 2.500000000000000000, -23.99999999999999645 ) ) ;
#65 = DIRECTION ( 'NONE',  ( 1.000000000000000000, 0.000000000000000000, 0.000000000000000000 ) ) ;
#66 = FACE_OUTER_BOUND ( 'NONE', #173, .T. ) ;
#67 = COLOUR_RGB ( '',0.7764705882352941346, 0.7764705882352941346, 0.8156862745098039102 ) ;
#68 = UNCERTAINTY_MEASURE_WITH_UNIT (LENGTH_MEASURE( 1.000000000000000082E-05 ), #12, 'distance_accuracy_value', 'NONE');
#69 = DIRECTION ( 'NONE',  ( 1.000000000000000000, 0.000000000000000000, 0.000000000000000000 ) ) ;
#70 = FILL_AREA_STYLE_COLOUR ( '', #11 ) ;
#71 = CONTEXT_DEPENDENT_SHAPE_REPRESENTATION ( #262, #117 ) ;
#72 = CYLINDRICAL_SURFACE ( 'NONE', #22, 0.7499999999999998890 ) ;
#73 = ORIENTED_EDGE ( 'NONE', *, *, #200, .T. ) ;
#74 = FILL_AREA_STYLE_COLOUR ( '', #13 ) ;
#75 = FILL_AREA_STYLE ('',( #263 ) ) ;
#76 = PRODUCT ( 'ShaftRailAssembly_6BF1EF48C1', 'ShaftRailAssembly_6BF1EF48C1', '', ( #118 ) ) ;
#77 = ADVANCED_BREP_SHAPE_REPRESENTATION ( '', ( #55, #92 ), #172 ) ;
#78 = ORIENTED_EDGE ( 'NONE', *, *, #151, .F. ) ;
#79 = MECHANICAL_DESIGN_GEOMETRIC_PRESENTATION_REPRESENTATION (  '', ( #161 ), #227 ) ;
#80 = STYLED_ITEM ( 'NONE', ( #233 ), #131 ) ;
#81 = CIRCLE ( 'NONE', #179, 0.7499999999999998890 ) ;
#82 =( LENGTH_UNIT ( ) NAMED_UNIT ( * ) SI_UNIT ( $, .METRE. ) );
#83 = DIRECTION ( 'NONE',  ( 0.000000000000000000, 0.000000000000000000, 1.000000000000000000 ) ) ;
#84 = FILL_AREA_STYLE_COLOUR ( '', #269 ) ;
#85 = CARTESIAN_POINT ( 'NONE',  ( 0.000000000000000000, 2.500000000000000000, -23.99999999999999645 ) ) ;
#86 = APPLICATION_CONTEXT ( 'automotive_design' ) ;
#87 = SURFACE_SIDE_STYLE ('',( #127 ) ) ;
#88 = PRESENTATION_STYLE_ASSIGNMENT (( #182 ) ) ;
#89 = CARTESIAN_POINT ( 'NONE',  ( 0.000000000000000000, 2.500000000000000000, -23.99999999999999645 ) ) ;
#90 =( NAMED_UNIT ( * ) PLANE_ANGLE_UNIT ( ) SI_UNIT ( $, .RADIAN. ) );
#91 = PRESENTATION_LAYER_ASSIGNMENT (  '', '', ( #170 ) ) ;
#92 = AXIS2_PLACEMENT_3D ( 'NONE', #130, #150, #224 ) ;
#93 = UNCERTAINTY_MEASURE_WITH_UNIT (LENGTH_MEASURE( 1.000000000000000082E-05 ), #159, 'distance_accuracy_value', 'NONE');
#94 = DIRECTION ( 'NONE',  ( 1.000000000000000000, 0.000000000000000000, 0.000000000000000000 ) ) ;
#95 =( NAMED_UNIT ( * ) SI_UNIT ( $, .STERADIAN. ) SOLID_ANGLE_UNIT ( ) );
#96 = SURFACE_STYLE_USAGE ( .BOTH. , #275 ) ;
#97 = VERTEX_POINT ( 'NONE', #256 ) ;
#98 = PRODUCT_CONTEXT ( 'NONE', #86, 'mechanical' ) ;
#99 = ORIENTED_EDGE ( 'NONE', *, *, #247, .F. ) ;
#100 =( LENGTH_UNIT ( ) NAMED_UNIT ( * ) SI_UNIT ( $, .METRE. ) );
#101 = DIRECTION ( 'NONE',  ( 1.000000000000000000, 0.000000000000000000, 0.000000000000000000 ) ) ;
#102 = SURFACE_STYLE_USAGE ( .BOTH. , #215 ) ;
#103 = PRESENTATION_STYLE_ASSIGNMENT (( #154 ) ) ;
#104 = STYLED_ITEM ( 'NONE', ( #9 ), #33 ) ;
#105 = DIMENSIONAL_EXPONENTS ( 1.000000000000000000, 0.000000000000000000, 0.000000000000000000, 0.000000000000000000, 0.000000000000000000, 0.000000000000000000, 0.000000000000000000 ) ;
#106 = AXIS2_PLACEMENT_3D ( 'NONE', #38, #132, #225 ) ;
#107 =( NAMED_UNIT ( * ) SI_UNIT ( $, .STERADIAN. ) SOLID_ANGLE_UNIT ( ) );
#108 = LENGTH_MEASURE_WITH_UNIT ( LENGTH_MEASURE( 0.02539999999999999897 ), #148 );
#109 = PRODUCT_DEFINITION_CONTEXT ( 'detailed design', #186, 'design' ) ;
#110 = UNCERTAINTY_MEASURE_WITH_UNIT (LENGTH_MEASURE( 1.000000000000000082E-05 ), #226, 'distance_accuracy_value', 'NONE');
#111 = PRODUCT ( '1Gi8dRRjbt_CADModel_0', '1Gi8dRRjbt_CADModel_0', '', ( #115 ) ) ;
#112 = SURFACE_STYLE_USAGE ( .BOTH. , #87 ) ;
#113 = STYLED_ITEM ( 'NONE', ( #88 ), #77 ) ;
#114 = FILL_AREA_STYLE ('',( #70 ) ) ;
#115 = PRODUCT_CONTEXT ( 'NONE', #23, 'mechanical' ) ;
#116 = ORIENTED_EDGE ( 'NONE', *, *, #160, .T. ) ;
#117 = PRODUCT_DEFINITION_SHAPE ( 'NONE', 'NONE',  #276 ) ;
#118 = PRODUCT_CONTEXT ( 'NONE', #164, 'mechanical' ) ;
#119 =( NAMED_UNIT ( * ) PLANE_ANGLE_UNIT ( ) SI_UNIT ( $, .RADIAN. ) );
#120 = CARTESIAN_POINT ( 'NONE',  ( 0.7499999999999998890, 2.500000000000000000, 0.000000000000000000 ) ) ;
#121 = LENGTH_MEASURE_WITH_UNIT ( LENGTH_MEASURE( 0.02539999999999999897 ), #82 );
#122 = SHAPE_REPRESENTATION ( '1Gi8dRRjbt_CADModel_0', ( #92 ), #172 ) ;
#123 = PRODUCT_DEFINITION_SHAPE ( 'NONE', 'NONE',  #176 ) ;
#124 = AXIS2_PLACEMENT_3D ( 'NONE', #167, #228, #65 ) ;
#125 =( GEOMETRIC_REPRESENTATION_CONTEXT ( 3 ) GLOBAL_UNCERTAINTY_ASSIGNED_CONTEXT ( ( #110 ) ) GLOBAL_UNIT_ASSIGNED_CONTEXT ( ( #226, #6, #107 ) ) REPRESENTATION_CONTEXT ( 'NONE', 'WORKASPACE' ) );
#126 = FILL_AREA_STYLE ('',( #84 ) ) ;
#127 = SURFACE_STYLE_FILL_AREA ( #114 ) ;
#128 = UNCERTAINTY_MEASURE_WITH_UNIT (LENGTH_MEASURE( 1.000000000000000082E-05 ), #36, 'distance_accuracy_value', 'NONE');
#129 = CARTESIAN_POINT ( 'NONE',  ( -0.7499999999999998890, 2.500000000000000000, -23.99999999999999645 ) ) ;
#130 = CARTESIAN_POINT ( 'NONE',  ( 0.000000000000000000, 0.000000000000000000, 0.000000000000000000 ) ) ;
#131 = ADVANCED_FACE ( 'NONE', ( #56 ), #190, .F. ) ;
#132 = DIRECTION ( 'NONE',  ( 0.000000000000000000, 0.000000000000000000, 1.000000000000000000 ) ) ;
#133 = PRESENTATION_LAYER_ASSIGNMENT (  '', '', ( #104 ) ) ;
#134 = DIMENSIONAL_EXPONENTS ( 1.000000000000000000, 0.000000000000000000, 0.000000000000000000, 0.000000000000000000, 0.000000000000000000, 0.000000000000000000, 0.000000000000000000 ) ;
#135 = ORIENTED_EDGE ( 'NONE', *, *, #160, .F. ) ;
#136 = DIRECTION ( 'NONE',  ( 0.000000000000000000, 0.000000000000000000, 1.000000000000000000 ) ) ;
#137 = ORIENTED_EDGE ( 'NONE', *, *, #247, .T. ) ;
#138 = VECTOR ( 'NONE', #237, 39.37007874015748143 ) ;
#139 = AXIS2_PLACEMENT_3D ( 'NONE', #213, #199, #29 ) ;
#140 = VERTEX_POINT ( 'NONE', #120 ) ;
#141 = AXIS2_PLACEMENT_3D ( 'NONE', #85, #223, #245 ) ;
#142 = DIRECTION ( 'NONE',  ( 0.000000000000000000, 0.000000000000000000, 1.000000000000000000 ) ) ;
#143 = SURFACE_STYLE_USAGE ( .BOTH. , #52 ) ;
#144 = CIRCLE ( 'NONE', #139, 0.7499999999999998890 ) ;
#145 = PRODUCT ( '1Gi8dRRjbt_CADModel_0', '1Gi8dRRjbt_CADModel_0', '', ( #98 ) ) ;
#146 = SURFACE_SIDE_STYLE ('',( #208 ) ) ;
#147 = CIRCLE ( 'NONE', #106, 0.7499999999999998890 ) ;
#148 =( LENGTH_UNIT ( ) NAMED_UNIT ( * ) SI_UNIT ( $, .METRE. ) );
#149 =( NAMED_UNIT ( * ) PLANE_ANGLE_UNIT ( ) SI_UNIT ( $, .RADIAN. ) );
#150 = DIRECTION ( 'NONE',  ( 0.000000000000000000, 0.000000000000000000, 1.000000000000000000 ) ) ;
#151 = EDGE_CURVE ( 'NONE', #97, #140, #147, .T. ) ;
#152 = UNCERTAINTY_MEASURE_WITH_UNIT (LENGTH_MEASURE( 1.000000000000000082E-05 ), #51, 'distance_accuracy_value', 'NONE');
#153 = ORIENTED_EDGE ( 'NONE', *, *, #44, .T. ) ;
#154 = SURFACE_STYLE_USAGE ( .BOTH. , #196 ) ;
#155 = MECHANICAL_DESIGN_GEOMETRIC_PRESENTATION_REPRESENTATION (  '', ( #170 ), #220 ) ;
#156 =( GEOMETRIC_REPRESENTATION_CONTEXT ( 3 ) GLOBAL_UNCERTAINTY_ASSIGNED_CONTEXT ( ( #63 ) ) GLOBAL_UNIT_ASSIGNED_CONTEXT ( ( #185, #90, #272 ) ) REPRESENTATION_CONTEXT ( 'NONE', 'WORKASPACE' ) );
#157 = ORIENTED_EDGE ( 'NONE', *, *, #44, .F. ) ;
#158 = STYLED_ITEM ( 'NONE', ( #253 ), #55 ) ;
#159 =( CONVERSION_BASED_UNIT ( 'INCH', #241 ) LENGTH_UNIT ( ) NAMED_UNIT ( #134 ) );
#160 = EDGE_CURVE ( 'NONE', #239, #47, #81, .T. ) ;
#161 = STYLED_ITEM ( 'NONE', ( #103 ), #270 ) ;
#162 =( LENGTH_UNIT ( ) NAMED_UNIT ( * ) SI_UNIT ( $, .METRE. ) );
#163 = DIRECTION ( 'NONE',  ( 0.000000000000000000, 0.000000000000000000, 1.000000000000000000 ) ) ;
#164 = APPLICATION_CONTEXT ( 'automotive_design' ) ;
#165 = LENGTH_MEASURE_WITH_UNIT ( LENGTH_MEASURE( 0.02539999999999999897 ), #202 );
#166 =( CONVERSION_BASED_UNIT ( 'INCH', #257 ) LENGTH_UNIT ( ) NAMED_UNIT ( #105 ) );
#167 = CARTESIAN_POINT ( 'NONE',  ( 0.000000000000000000, 0.000000000000000000, 0.000000000000000000 ) ) ;
#168 = CARTESIAN_POINT ( 'NONE',  ( 0.7499999999999998890, 2.500000000000000000, -23.99999999999999645 ) ) ;
#169 = DIRECTION ( 'NONE',  ( 1.000000000000000000, 0.000000000000000000, 0.000000000000000000 ) ) ;
#170 = STYLED_ITEM ( 'NONE', ( #271 ), #261 ) ;
#171 = CARTESIAN_POINT ( 'NONE',  ( 0.000000000000000000, 0.000000000000000000, 0.000000000000000000 ) ) ;
#172 =( GEOMETRIC_REPRESENTATION_CONTEXT ( 3 ) GLOBAL_UNCERTAINTY_ASSIGNED_CONTEXT ( ( #152 ) ) GLOBAL_UNIT_ASSIGNED_CONTEXT ( ( #51, #119, #95 ) ) REPRESENTATION_CONTEXT ( 'NONE', 'WORKASPACE' ) );
#173 = EDGE_LOOP ( 'NONE', ( #73, #153, #3, #99 ) ) ;
#174 = APPLICATION_PROTOCOL_DEFINITION ( 'draft international standard', 'automotive_design', 1998, #23 ) ;
#175 = CYLINDRICAL_SURFACE ( 'NONE', #141, 0.7499999999999998890 ) ;
#176 = PRODUCT_DEFINITION ( 'UNKNOWN', '', #266, #109 ) ;
#177 = FILL_AREA_STYLE ('',( #74 ) ) ;
#178 = PRESENTATION_LAYER_ASSIGNMENT (  '', '', ( #80 ) ) ;
#179 = AXIS2_PLACEMENT_3D ( 'NONE', #89, #184, #169 ) ;
#180 = PLANE ( 'NONE',  #48 ) ;
#181 = LINE ( 'NONE', #265, #274 ) ;
#182 = SURFACE_STYLE_USAGE ( .BOTH. , #146 ) ;
#183 =( NAMED_UNIT ( * ) SI_UNIT ( $, .STERADIAN. ) SOLID_ANGLE_UNIT ( ) );
#184 = DIRECTION ( 'NONE',  ( 0.000000000000000000, 0.000000000000000000, 1.000000000000000000 ) ) ;
#185 =( CONVERSION_BASED_UNIT ( 'INCH', #108 ) LENGTH_UNIT ( ) NAMED_UNIT ( #2 ) );
#186 = APPLICATION_CONTEXT ( 'automotive_design' ) ;
#187 = DIRECTION ( 'NONE',  ( 0.000000000000000000, 0.000000000000000000, 1.000000000000000000 ) ) ;
#188 = CARTESIAN_POINT ( 'NONE',  ( 0.000000000000000000, 2.500000000000000000, -23.99999999999999645 ) ) ;
#189 = AXIS2_PLACEMENT_3D ( 'NONE', #26, #45, #101 ) ;
#190 = PLANE ( 'NONE',  #264 ) ;
#191 = APPLICATION_PROTOCOL_DEFINITION ( 'draft international standard', 'automotive_design', 1998, #19 ) ;
#192 = FILL_AREA_STYLE ('',( #28 ) ) ;
#193 = SHAPE_DEFINITION_REPRESENTATION ( #5, #235 ) ;
#194 =( GEOMETRIC_REPRESENTATION_CONTEXT ( 3 ) GLOBAL_UNCERTAINTY_ASSIGNED_CONTEXT ( ( #68 ) ) GLOBAL_UNIT_ASSIGNED_CONTEXT ( ( #12, #149, #216 ) ) REPRESENTATION_CONTEXT ( 'NONE', 'WORKASPACE' ) );
#195 = FACE_OUTER_BOUND ( 'NONE', #260, .T. ) ;
#196 = SURFACE_SIDE_STYLE ('',( #32 ) ) ;
#197 = ITEM_DEFINED_TRANSFORMATION ( 'NONE', 'NONE', #236,  #92 ) ;
#198 = DIMENSIONAL_EXPONENTS ( 1.000000000000000000, 0.000000000000000000, 0.000000000000000000, 0.000000000000000000, 0.000000000000000000, 0.000000000000000000, 0.000000000000000000 ) ;
#199 = DIRECTION ( 'NONE',  ( 0.000000000000000000, 0.000000000000000000, 1.000000000000000000 ) ) ;
#200 = EDGE_CURVE ( 'NONE', #47, #239, #60, .T. ) ;
#201 = MECHANICAL_DESIGN_GEOMETRIC_PRESENTATION_REPRESENTATION (  '', ( #80 ), #194 ) ;
#202 =( LENGTH_UNIT ( ) NAMED_UNIT ( * ) SI_UNIT ( $, .METRE. ) );
#203 =( NAMED_UNIT ( * ) PLANE_ANGLE_UNIT ( ) SI_UNIT ( $, .RADIAN. ) );
#204 = AXIS2_PLACEMENT_3D ( 'NONE', #171, #258, #69 ) ;
#205 = DIRECTION ( 'NONE',  ( 0.000000000000000000, 0.000000000000000000, 1.000000000000000000 ) ) ;
#206 = PRODUCT_RELATED_PRODUCT_CATEGORY ( 'part', '', ( #111 ) ) ;
#207 =( NAMED_UNIT ( * ) SI_UNIT ( $, .STERADIAN. ) SOLID_ANGLE_UNIT ( ) );
#208 = SURFACE_STYLE_FILL_AREA ( #126 ) ;
#209 = COLOUR_RGB ( '',0.8980392156862745390, 0.9176470588235293713, 0.9294117647058823817 ) ;
#210 = ORIENTED_EDGE ( 'NONE', *, *, #151, .T. ) ;
#211 = DIMENSIONAL_EXPONENTS ( 1.000000000000000000, 0.000000000000000000, 0.000000000000000000, 0.000000000000000000, 0.000000000000000000, 0.000000000000000000, 0.000000000000000000 ) ;
#212 = APPLICATION_PROTOCOL_DEFINITION ( 'draft international standard', 'automotive_design', 1998, #164 ) ;
#213 = CARTESIAN_POINT ( 'NONE',  ( 0.000000000000000000, 2.500000000000000000, 0.000000000000000000 ) ) ;
#214 = AXIS2_PLACEMENT_3D ( 'NONE', #39, #187, #25 ) ;
#215 = SURFACE_SIDE_STYLE ('',( #30 ) ) ;
#216 =( NAMED_UNIT ( * ) SI_UNIT ( $, .STERADIAN. ) SOLID_ANGLE_UNIT ( ) );
#217 = DIRECTION ( 'NONE',  ( 1.000000000000000000, 0.000000000000000000, -0.000000000000000000 ) ) ;
#218 = LENGTH_MEASURE_WITH_UNIT ( LENGTH_MEASURE( 0.02539999999999999897 ), #162 );
#219 = LENGTH_MEASURE_WITH_UNIT ( LENGTH_MEASURE( 0.02539999999999999897 ), #57 );
#220 =( GEOMETRIC_REPRESENTATION_CONTEXT ( 3 ) GLOBAL_UNCERTAINTY_ASSIGNED_CONTEXT ( ( #230 ) ) GLOBAL_UNIT_ASSIGNED_CONTEXT ( ( #166, #231, #207 ) ) REPRESENTATION_CONTEXT ( 'NONE', 'WORKASPACE' ) );
#221 = PRODUCT_DEFINITION_CONTEXT ( 'detailed design', #19, 'design' ) ;
#222 = PRODUCT_DEFINITION_FORMATION_WITH_SPECIFIED_SOURCE ( 'ANY', '', #111, .NOT_KNOWN. ) ;
#223 = DIRECTION ( 'NONE',  ( 0.000000000000000000, 0.000000000000000000, 1.000000000000000000 ) ) ;
#224 = DIRECTION ( 'NONE',  ( 1.000000000000000000, 0.000000000000000000, 0.000000000000000000 ) ) ;
#225 = DIRECTION ( 'NONE',  ( 1.000000000000000000, 0.000000000000000000, 0.000000000000000000 ) ) ;
#226 =( CONVERSION_BASED_UNIT ( 'INCH', #165 ) LENGTH_UNIT ( ) NAMED_UNIT ( #198 ) );
#227 =( GEOMETRIC_REPRESENTATION_CONTEXT ( 3 ) GLOBAL_UNCERTAINTY_ASSIGNED_CONTEXT ( ( #93 ) ) GLOBAL_UNIT_ASSIGNED_CONTEXT ( ( #159, #244, #268 ) ) REPRESENTATION_CONTEXT ( 'NONE', 'WORKASPACE' ) );
#228 = DIRECTION ( 'NONE',  ( 0.000000000000000000, 0.000000000000000000, 1.000000000000000000 ) ) ;
#229 = SURFACE_STYLE_FILL_AREA ( #192 ) ;
#230 = UNCERTAINTY_MEASURE_WITH_UNIT (LENGTH_MEASURE( 1.000000000000000082E-05 ), #166, 'distance_accuracy_value', 'NONE');
#231 =( NAMED_UNIT ( * ) PLANE_ANGLE_UNIT ( ) SI_UNIT ( $, .RADIAN. ) );
#232 =( LENGTH_UNIT ( ) NAMED_UNIT ( * ) SI_UNIT ( $, .METRE. ) );
#233 = PRESENTATION_STYLE_ASSIGNMENT (( #96 ) ) ;
#234 = PRODUCT_RELATED_PRODUCT_CATEGORY ( 'part', '', ( #145 ) ) ;
#235 = SHAPE_REPRESENTATION ( 'ShaftRailAssembly_6BF1EF48C1', ( #204, #236 ), #156 ) ;
#236 = AXIS2_PLACEMENT_3D ( 'NONE', #21, #205, #255 ) ;
#237 = DIRECTION ( 'NONE',  ( 0.000000000000000000, 0.000000000000000000, 1.000000000000000000 ) ) ;
#238 = DIMENSIONAL_EXPONENTS ( 1.000000000000000000, 0.000000000000000000, 0.000000000000000000, 0.000000000000000000, 0.000000000000000000, 0.000000000000000000, 0.000000000000000000 ) ;
#239 = VERTEX_POINT ( 'NONE', #129 ) ;
#240 = SHAPE_DEFINITION_REPRESENTATION ( #123, #122 ) ;
#241 = LENGTH_MEASURE_WITH_UNIT ( LENGTH_MEASURE( 0.02539999999999999897 ), #100 );
#242 = APPLICATION_PROTOCOL_DEFINITION ( 'draft international standard', 'automotive_design', 1998, #186 ) ;
#243 = MECHANICAL_DESIGN_GEOMETRIC_PRESENTATION_REPRESENTATION (  '', ( #113 ), #54 ) ;
#244 =( NAMED_UNIT ( * ) PLANE_ANGLE_UNIT ( ) SI_UNIT ( $, .RADIAN. ) );
#245 = DIRECTION ( 'NONE',  ( 1.000000000000000000, 0.000000000000000000, 0.000000000000000000 ) ) ;
#246 = APPLICATION_PROTOCOL_DEFINITION ( 'draft international standard', 'automotive_design', 1998, #50 ) ;
#247 = EDGE_CURVE ( 'NONE', #47, #140, #254, .T. ) ;
#248 = DIRECTION ( 'NONE',  ( 1.000000000000000000, 0.000000000000000000, -0.000000000000000000 ) ) ;
#249 = SURFACE_STYLE_FILL_AREA ( #15 ) ;
#250 =( GEOMETRIC_REPRESENTATION_CONTEXT ( 3 ) GLOBAL_UNCERTAINTY_ASSIGNED_CONTEXT ( ( #128 ) ) GLOBAL_UNIT_ASSIGNED_CONTEXT ( ( #36, #62, #183 ) ) REPRESENTATION_CONTEXT ( 'NONE', 'WORKASPACE' ) );
#251 = CLOSED_SHELL ( 'NONE', ( #261, #33, #131, #270 ) ) ;
#252 = LENGTH_MEASURE_WITH_UNIT ( LENGTH_MEASURE( 0.02539999999999999897 ), #232 );
#253 = PRESENTATION_STYLE_ASSIGNMENT (( #143 ) ) ;
#254 = LINE ( 'NONE', #64, #138 ) ;
#255 = DIRECTION ( 'NONE',  ( 1.000000000000000000, 0.000000000000000000, 0.000000000000000000 ) ) ;
#256 = CARTESIAN_POINT ( 'NONE',  ( -0.7499999999999998890, 2.500000000000000000, 0.000000000000000000 ) ) ;
#257 = LENGTH_MEASURE_WITH_UNIT ( LENGTH_MEASURE( 0.02539999999999999897 ), #20 );
#258 = DIRECTION ( 'NONE',  ( 0.000000000000000000, 0.000000000000000000, 1.000000000000000000 ) ) ;
#259 = DIMENSIONAL_EXPONENTS ( 1.000000000000000000, 0.000000000000000000, 0.000000000000000000, 0.000000000000000000, 0.000000000000000000, 0.000000000000000000, 0.000000000000000000 ) ;
#260 = EDGE_LOOP ( 'NONE', ( #157, #116, #137, #78 ) ) ;
#261 = ADVANCED_FACE ( 'NONE', ( #66 ), #72, .T. ) ;
#262 =( REPRESENTATION_RELATIONSHIP ('NONE','NONE', #235, #122 ) REPRESENTATION_RELATIONSHIP_WITH_TRANSFORMATION ( #197 )SHAPE_REPRESENTATION_RELATIONSHIP( ) );
#263 = FILL_AREA_STYLE_COLOUR ( '', #59 ) ;
#264 = AXIS2_PLACEMENT_3D ( 'NONE', #35, #142, #217 ) ;
#265 = CARTESIAN_POINT ( 'NONE',  ( -0.7499999999999998890, 2.500000000000000000, -23.99999999999999645 ) ) ;
#266 = PRODUCT_DEFINITION_FORMATION_WITH_SPECIFIED_SOURCE ( 'ANY', '', #145, .NOT_KNOWN. ) ;
#267 = EDGE_CURVE ( 'NONE', #140, #97, #144, .T. ) ;
#268 =( NAMED_UNIT ( * ) SI_UNIT ( $, .STERADIAN. ) SOLID_ANGLE_UNIT ( ) );
#269 = COLOUR_RGB ( '',0.8980392156862745390, 0.9176470588235293713, 0.9294117647058823817 ) ;
#270 = ADVANCED_FACE ( 'NONE', ( #53 ), #180, .T. ) ;
#271 = PRESENTATION_STYLE_ASSIGNMENT (( #112 ) ) ;
#272 =( NAMED_UNIT ( * ) SI_UNIT ( $, .STERADIAN. ) SOLID_ANGLE_UNIT ( ) );
#273 = PRODUCT_RELATED_PRODUCT_CATEGORY ( 'part', '', ( #76 ) ) ;
#274 = VECTOR ( 'NONE', #163, 39.37007874015748143 ) ;
#275 = SURFACE_SIDE_STYLE ('',( #229 ) ) ;
#276 = NEXT_ASSEMBLY_USAGE_OCCURRENCE ( 'NAUO1', ' ', ' ', #58, #176, $ ) ;
ENDSEC;
END-ISO-10303-21;
