ISO-10303-21;
HEADER;
FILE_DESCRIPTION (( 'STEP AP214' ),
    '1' );
FILE_NAME ('ShaftRailAssembly_AD3CEFB87C.step',
    '2022-08-26T21:03:01',
    ( '' ),
    ( '' ),
    'SwSTEP 2.0',
    'SolidWorks 2019',
    '' );
FILE_SCHEMA (( 'AUTOMOTIVE_DESIGN' ));
ENDSEC;

DATA;
#1 = DIRECTION ( 'NONE',  ( 1.000000000000000000, 0.000000000000000000, 0.000000000000000000 ) ) ;
#2 = CIRCLE ( 'NONE', #80, 0.7499999999999998890 ) ;
#3 = DIRECTION ( 'NONE',  ( 0.000000000000000000, 0.000000000000000000, 1.000000000000000000 ) ) ;
#4 = SURFACE_SIDE_STYLE ('',( #233 ) ) ;
#5 = APPLICATION_PROTOCOL_DEFINITION ( 'draft international standard', 'automotive_design', 1998, #257 ) ;
#6 = DIMENSIONAL_EXPONENTS ( 1.000000000000000000, 0.000000000000000000, 0.000000000000000000, 0.000000000000000000, 0.000000000000000000, 0.000000000000000000, 0.000000000000000000 ) ;
#7 = AXIS2_PLACEMENT_3D ( 'NONE', #99, #118, #215 ) ;
#8 = FACE_OUTER_BOUND ( 'NONE', #128, .T. ) ;
#9 = UNCERTAINTY_MEASURE_WITH_UNIT (LENGTH_MEASURE( 1.000000000000000082E-05 ), #201, 'distance_accuracy_value', 'NONE');
#10 = CARTESIAN_POINT ( 'NONE',  ( 0.000000000000000000, 0.000000000000000000, 0.000000000000000000 ) ) ;
#11 = STYLED_ITEM ( 'NONE', ( #94 ), #45 ) ;
#12 = PRODUCT_DEFINITION_SHAPE ( 'NONE', 'NONE',  #274 ) ;
#13 =( GEOMETRIC_REPRESENTATION_CONTEXT ( 3 ) GLOBAL_UNCERTAINTY_ASSIGNED_CONTEXT ( ( #261 ) ) GLOBAL_UNIT_ASSIGNED_CONTEXT ( ( #142, #235, #115 ) ) REPRESENTATION_CONTEXT ( 'NONE', 'WORKASPACE' ) );
#14 =( GEOMETRIC_REPRESENTATION_CONTEXT ( 3 ) GLOBAL_UNCERTAINTY_ASSIGNED_CONTEXT ( ( #9 ) ) GLOBAL_UNIT_ASSIGNED_CONTEXT ( ( #201, #226, #247 ) ) REPRESENTATION_CONTEXT ( 'NONE', 'WORKASPACE' ) );
#15 = PRODUCT_DEFINITION_CONTEXT ( 'detailed design', #177, 'design' ) ;
#16 = FILL_AREA_STYLE_COLOUR ( '', #52 ) ;
#17 =( NAMED_UNIT ( * ) PLANE_ANGLE_UNIT ( ) SI_UNIT ( $, .RADIAN. ) );
#18 = ORIENTED_EDGE ( 'NONE', *, *, #237, .F. ) ;
#19 = SURFACE_STYLE_FILL_AREA ( #102 ) ;
#20 =( NAMED_UNIT ( * ) SI_UNIT ( $, .STERADIAN. ) SOLID_ANGLE_UNIT ( ) );
#21 =( CONVERSION_BASED_UNIT ( 'INCH', #41 ) LENGTH_UNIT ( ) NAMED_UNIT ( #146 ) );
#22 = ORIENTED_EDGE ( 'NONE', *, *, #180, .T. ) ;
#23 = VECTOR ( 'NONE', #82, 39.37007874015748143 ) ;
#24 = PRESENTATION_LAYER_ASSIGNMENT (  '', '', ( #275 ) ) ;
#25 = FILL_AREA_STYLE_COLOUR ( '', #228 ) ;
#26 = STYLED_ITEM ( 'NONE', ( #267 ), #239 ) ;
#27 = PRODUCT ( 'ShaftRailAssembly_AD3CEFB87C', 'ShaftRailAssembly_AD3CEFB87C', '', ( #273 ) ) ;
#28 = CARTESIAN_POINT ( 'NONE',  ( -0.7499999999999998890, 2.500000000000000000, -36.00000000000000000 ) ) ;
#29 = PRODUCT_DEFINITION_CONTEXT ( 'detailed design', #194, 'design' ) ;
#30 = CARTESIAN_POINT ( 'NONE',  ( 0.000000000000000000, 2.500000000000000000, -36.00000000000000000 ) ) ;
#31 =( NAMED_UNIT ( * ) SI_UNIT ( $, .STERADIAN. ) SOLID_ANGLE_UNIT ( ) );
#32 = ADVANCED_BREP_SHAPE_REPRESENTATION ( '', ( #38, #166 ), #265 ) ;
#33 =( CONVERSION_BASED_UNIT ( 'INCH', #224 ) LENGTH_UNIT ( ) NAMED_UNIT ( #6 ) );
#34 = CARTESIAN_POINT ( 'NONE',  ( 0.7499999999999998890, 2.500000000000000000, 0.000000000000000000 ) ) ;
#35 = AXIS2_PLACEMENT_3D ( 'NONE', #164, #77, #207 ) ;
#36 = PRODUCT_CONTEXT ( 'NONE', #71, 'mechanical' ) ;
#37 = CARTESIAN_POINT ( 'NONE',  ( 0.000000000000000000, 2.500000000000000000, 0.000000000000000000 ) ) ;
#38 = MANIFOLD_SOLID_BREP ( 'S0_a_shaft-1/S0_a_shaft-1-solid1', #147 ) ;
#39 =( NAMED_UNIT ( * ) SI_UNIT ( $, .STERADIAN. ) SOLID_ANGLE_UNIT ( ) );
#40 = SHAPE_DEFINITION_REPRESENTATION ( #238, #204 ) ;
#41 = LENGTH_MEASURE_WITH_UNIT ( LENGTH_MEASURE( 0.02539999999999999897 ), #188 );
#42 = APPLICATION_PROTOCOL_DEFINITION ( 'draft international standard', 'automotive_design', 1998, #138 ) ;
#43 = LENGTH_MEASURE_WITH_UNIT ( LENGTH_MEASURE( 0.02539999999999999897 ), #111 );
#44 = PRESENTATION_LAYER_ASSIGNMENT (  '', '', ( #11 ) ) ;
#45 = ADVANCED_FACE ( 'NONE', ( #197 ), #68, .T. ) ;
#46 = DIMENSIONAL_EXPONENTS ( 1.000000000000000000, 0.000000000000000000, 0.000000000000000000, 0.000000000000000000, 0.000000000000000000, 0.000000000000000000, 0.000000000000000000 ) ;
#47 = FILL_AREA_STYLE_COLOUR ( '', #160 ) ;
#48 = ORIENTED_EDGE ( 'NONE', *, *, #91, .F. ) ;
#49 = CYLINDRICAL_SURFACE ( 'NONE', #185, 0.7499999999999998890 ) ;
#50 = DIRECTION ( 'NONE',  ( 0.000000000000000000, 0.000000000000000000, 1.000000000000000000 ) ) ;
#51 =( GEOMETRIC_REPRESENTATION_CONTEXT ( 3 ) GLOBAL_UNCERTAINTY_ASSIGNED_CONTEXT ( ( #268 ) ) GLOBAL_UNIT_ASSIGNED_CONTEXT ( ( #171, #88, #172 ) ) REPRESENTATION_CONTEXT ( 'NONE', 'WORKASPACE' ) );
#52 = COLOUR_RGB ( '',0.8980392156862745390, 0.9176470588235293713, 0.9294117647058823817 ) ;
#53 =( LENGTH_UNIT ( ) NAMED_UNIT ( * ) SI_UNIT ( $, .METRE. ) );
#54 = LENGTH_MEASURE_WITH_UNIT ( LENGTH_MEASURE( 0.02539999999999999897 ), #272 );
#55 =( LENGTH_UNIT ( ) NAMED_UNIT ( * ) SI_UNIT ( $, .METRE. ) );
#56 = DIRECTION ( 'NONE',  ( 1.000000000000000000, 0.000000000000000000, 0.000000000000000000 ) ) ;
#57 = FILL_AREA_STYLE ('',( #25 ) ) ;
#58 = PRESENTATION_STYLE_ASSIGNMENT (( #61 ) ) ;
#59 = PRESENTATION_LAYER_ASSIGNMENT (  '', '', ( #178 ) ) ;
#60 =( GEOMETRIC_REPRESENTATION_CONTEXT ( 3 ) GLOBAL_UNCERTAINTY_ASSIGNED_CONTEXT ( ( #149 ) ) GLOBAL_UNIT_ASSIGNED_CONTEXT ( ( #105, #89, #124 ) ) REPRESENTATION_CONTEXT ( 'NONE', 'WORKASPACE' ) );
#61 = SURFACE_STYLE_USAGE ( .BOTH. , #4 ) ;
#62 = DIRECTION ( 'NONE',  ( 0.000000000000000000, 0.000000000000000000, 1.000000000000000000 ) ) ;
#63 = SURFACE_STYLE_FILL_AREA ( #66 ) ;
#64 = SURFACE_STYLE_USAGE ( .BOTH. , #123 ) ;
#65 = DIRECTION ( 'NONE',  ( 1.000000000000000000, 0.000000000000000000, -0.000000000000000000 ) ) ;
#66 = FILL_AREA_STYLE ('',( #47 ) ) ;
#67 =( GEOMETRIC_REPRESENTATION_CONTEXT ( 3 ) GLOBAL_UNCERTAINTY_ASSIGNED_CONTEXT ( ( #106 ) ) GLOBAL_UNIT_ASSIGNED_CONTEXT ( ( #33, #93, #39 ) ) REPRESENTATION_CONTEXT ( 'NONE', 'WORKASPACE' ) );
#68 = PLANE ( 'NONE',  #85 ) ;
#69 = LENGTH_MEASURE_WITH_UNIT ( LENGTH_MEASURE( 0.02539999999999999897 ), #53 );
#70 = PRESENTATION_STYLE_ASSIGNMENT (( #200 ) ) ;
#71 = APPLICATION_CONTEXT ( 'automotive_design' ) ;
#72 = LENGTH_MEASURE_WITH_UNIT ( LENGTH_MEASURE( 0.02539999999999999897 ), #55 );
#73 = ORIENTED_EDGE ( 'NONE', *, *, #237, .T. ) ;
#74 = CARTESIAN_POINT ( 'NONE',  ( 0.000000000000000000, 0.000000000000000000, 0.000000000000000000 ) ) ;
#75 = PRODUCT_RELATED_PRODUCT_CATEGORY ( 'part', '', ( #244 ) ) ;
#76 = CARTESIAN_POINT ( 'NONE',  ( 0.7499999999999998890, 2.500000000000000000, -36.00000000000000000 ) ) ;
#77 = DIRECTION ( 'NONE',  ( 0.000000000000000000, 0.000000000000000000, 1.000000000000000000 ) ) ;
#78 =( GEOMETRIC_REPRESENTATION_CONTEXT ( 3 ) GLOBAL_UNCERTAINTY_ASSIGNED_CONTEXT ( ( #221 ) ) GLOBAL_UNIT_ASSIGNED_CONTEXT ( ( #230, #109, #20 ) ) REPRESENTATION_CONTEXT ( 'NONE', 'WORKASPACE' ) );
#79 = APPLICATION_PROTOCOL_DEFINITION ( 'draft international standard', 'automotive_design', 1998, #71 ) ;
#80 = AXIS2_PLACEMENT_3D ( 'NONE', #195, #217, #263 ) ;
#81 = EDGE_CURVE ( 'NONE', #222, #174, #136, .T. ) ;
#82 = DIRECTION ( 'NONE',  ( 0.000000000000000000, 0.000000000000000000, 1.000000000000000000 ) ) ;
#83 = PRODUCT ( 'i0pGmkgLlt_CADModel_0', 'i0pGmkgLlt_CADModel_0', '', ( #183 ) ) ;
#84 = VERTEX_POINT ( 'NONE', #253 ) ;
#85 = AXIS2_PLACEMENT_3D ( 'NONE', #37, #62, #161 ) ;
#86 = PRODUCT_DEFINITION_FORMATION_WITH_SPECIFIED_SOURCE ( 'ANY', '', #83, .NOT_KNOWN. ) ;
#87 =( REPRESENTATION_RELATIONSHIP ('NONE','NONE', #204, #96 ) REPRESENTATION_RELATIONSHIP_WITH_TRANSFORMATION ( #186 )SHAPE_REPRESENTATION_RELATIONSHIP( ) );
#88 =( NAMED_UNIT ( * ) PLANE_ANGLE_UNIT ( ) SI_UNIT ( $, .RADIAN. ) );
#89 =( NAMED_UNIT ( * ) PLANE_ANGLE_UNIT ( ) SI_UNIT ( $, .RADIAN. ) );
#90 =( LENGTH_UNIT ( ) NAMED_UNIT ( * ) SI_UNIT ( $, .METRE. ) );
#91 = EDGE_CURVE ( 'NONE', #222, #84, #139, .T. ) ;
#92 = FILL_AREA_STYLE ('',( #16 ) ) ;
#93 =( NAMED_UNIT ( * ) PLANE_ANGLE_UNIT ( ) SI_UNIT ( $, .RADIAN. ) );
#94 = PRESENTATION_STYLE_ASSIGNMENT (( #242 ) ) ;
#95 = AXIS2_PLACEMENT_3D ( 'NONE', #30, #108, #157 ) ;
#96 = SHAPE_REPRESENTATION ( 'i0pGmkgLlt_CADModel_0', ( #166 ), #265 ) ;
#97 = SHAPE_DEFINITION_REPRESENTATION ( #131, #96 ) ;
#98 = LINE ( 'NONE', #187, #144 ) ;
#99 = CARTESIAN_POINT ( 'NONE',  ( 0.000000000000000000, 2.500000000000000000, -36.00000000000000000 ) ) ;
#100 = PRODUCT_RELATED_PRODUCT_CATEGORY ( 'part', '', ( #27 ) ) ;
#101 = DIRECTION ( 'NONE',  ( 1.000000000000000000, 0.000000000000000000, 0.000000000000000000 ) ) ;
#102 = FILL_AREA_STYLE ('',( #130 ) ) ;
#103 = PRESENTATION_STYLE_ASSIGNMENT (( #64 ) ) ;
#104 = FILL_AREA_STYLE_COLOUR ( '', #182 ) ;
#105 =( CONVERSION_BASED_UNIT ( 'INCH', #192 ) LENGTH_UNIT ( ) NAMED_UNIT ( #168 ) );
#106 = UNCERTAINTY_MEASURE_WITH_UNIT (LENGTH_MEASURE( 1.000000000000000082E-05 ), #33, 'distance_accuracy_value', 'NONE');
#107 = FILL_AREA_STYLE_COLOUR ( '', #165 ) ;
#108 = DIRECTION ( 'NONE',  ( 0.000000000000000000, 0.000000000000000000, 1.000000000000000000 ) ) ;
#109 =( NAMED_UNIT ( * ) PLANE_ANGLE_UNIT ( ) SI_UNIT ( $, .RADIAN. ) );
#110 = CARTESIAN_POINT ( 'NONE',  ( 0.000000000000000000, 0.000000000000000000, 0.000000000000000000 ) ) ;
#111 =( LENGTH_UNIT ( ) NAMED_UNIT ( * ) SI_UNIT ( $, .METRE. ) );
#112 = DIRECTION ( 'NONE',  ( 0.000000000000000000, 0.000000000000000000, 1.000000000000000000 ) ) ;
#113 = AXIS2_PLACEMENT_3D ( 'NONE', #110, #114, #141 ) ;
#114 = DIRECTION ( 'NONE',  ( 0.000000000000000000, 0.000000000000000000, 1.000000000000000000 ) ) ;
#115 =( NAMED_UNIT ( * ) SI_UNIT ( $, .STERADIAN. ) SOLID_ANGLE_UNIT ( ) );
#116 = SHAPE_REPRESENTATION_RELATIONSHIP ( 'NONE' , 'NONE' ,  #96, #32 ) ;
#117 = DIMENSIONAL_EXPONENTS ( 1.000000000000000000, 0.000000000000000000, 0.000000000000000000, 0.000000000000000000, 0.000000000000000000, 0.000000000000000000, 0.000000000000000000 ) ;
#118 = DIRECTION ( 'NONE',  ( 0.000000000000000000, 0.000000000000000000, 1.000000000000000000 ) ) ;
#119 = APPLICATION_CONTEXT ( 'automotive_design' ) ;
#120 = MECHANICAL_DESIGN_GEOMETRIC_PRESENTATION_REPRESENTATION (  '', ( #184 ), #13 ) ;
#121 = DIRECTION ( 'NONE',  ( 0.000000000000000000, 0.000000000000000000, 1.000000000000000000 ) ) ;
#122 = DIMENSIONAL_EXPONENTS ( 1.000000000000000000, 0.000000000000000000, 0.000000000000000000, 0.000000000000000000, 0.000000000000000000, 0.000000000000000000, 0.000000000000000000 ) ;
#123 = SURFACE_SIDE_STYLE ('',( #63 ) ) ;
#124 =( NAMED_UNIT ( * ) SI_UNIT ( $, .STERADIAN. ) SOLID_ANGLE_UNIT ( ) );
#125 = EDGE_LOOP ( 'NONE', ( #170, #241 ) ) ;
#126 = AXIS2_PLACEMENT_3D ( 'NONE', #74, #256, #56 ) ;
#127 = EDGE_CURVE ( 'NONE', #262, #84, #143, .T. ) ;
#128 = EDGE_LOOP ( 'NONE', ( #48, #205, #22, #18 ) ) ;
#129 = UNCERTAINTY_MEASURE_WITH_UNIT (LENGTH_MEASURE( 1.000000000000000082E-05 ), #21, 'distance_accuracy_value', 'NONE');
#130 = FILL_AREA_STYLE_COLOUR ( '', #216 ) ;
#131 = PRODUCT_DEFINITION_SHAPE ( 'NONE', 'NONE',  #208 ) ;
#132 = LENGTH_MEASURE_WITH_UNIT ( LENGTH_MEASURE( 0.02539999999999999897 ), #90 );
#133 = SURFACE_SIDE_STYLE ('',( #19 ) ) ;
#134 = EDGE_LOOP ( 'NONE', ( #260, #258, #152, #227 ) ) ;
#135 =( NAMED_UNIT ( * ) PLANE_ANGLE_UNIT ( ) SI_UNIT ( $, .RADIAN. ) );
#136 = CIRCLE ( 'NONE', #7, 0.7499999999999998890 ) ;
#137 = PRODUCT_DEFINITION_FORMATION_WITH_SPECIFIED_SOURCE ( 'ANY', '', #27, .NOT_KNOWN. ) ;
#138 = APPLICATION_CONTEXT ( 'automotive_design' ) ;
#139 = LINE ( 'NONE', #140, #23 ) ;
#140 = CARTESIAN_POINT ( 'NONE',  ( -0.7499999999999998890, 2.500000000000000000, -36.00000000000000000 ) ) ;
#141 = DIRECTION ( 'NONE',  ( 1.000000000000000000, 0.000000000000000000, 0.000000000000000000 ) ) ;
#142 =( CONVERSION_BASED_UNIT ( 'INCH', #43 ) LENGTH_UNIT ( ) NAMED_UNIT ( #189 ) );
#143 = CIRCLE ( 'NONE', #190, 0.7499999999999998890 ) ;
#144 = VECTOR ( 'NONE', #3, 39.37007874015748143 ) ;
#145 = PRESENTATION_LAYER_ASSIGNMENT (  '', '', ( #236 ) ) ;
#146 = DIMENSIONAL_EXPONENTS ( 1.000000000000000000, 0.000000000000000000, 0.000000000000000000, 0.000000000000000000, 0.000000000000000000, 0.000000000000000000, 0.000000000000000000 ) ;
#147 = CLOSED_SHELL ( 'NONE', ( #151, #239, #214, #45 ) ) ;
#148 = DIMENSIONAL_EXPONENTS ( 1.000000000000000000, 0.000000000000000000, 0.000000000000000000, 0.000000000000000000, 0.000000000000000000, 0.000000000000000000, 0.000000000000000000 ) ;
#149 = UNCERTAINTY_MEASURE_WITH_UNIT (LENGTH_MEASURE( 1.000000000000000082E-05 ), #105, 'distance_accuracy_value', 'NONE');
#150 = ORIENTED_EDGE ( 'NONE', *, *, #127, .T. ) ;
#151 = ADVANCED_FACE ( 'NONE', ( #213 ), #167, .T. ) ;
#152 = ORIENTED_EDGE ( 'NONE', *, *, #127, .F. ) ;
#153 = PRODUCT_DEFINITION_FORMATION_WITH_SPECIFIED_SOURCE ( 'ANY', '', #244, .NOT_KNOWN. ) ;
#154 = FILL_AREA_STYLE ('',( #107 ) ) ;
#155 = UNCERTAINTY_MEASURE_WITH_UNIT (LENGTH_MEASURE( 1.000000000000000082E-05 ), #245, 'distance_accuracy_value', 'NONE');
#156 =( LENGTH_UNIT ( ) NAMED_UNIT ( * ) SI_UNIT ( $, .METRE. ) );
#157 = DIRECTION ( 'NONE',  ( 1.000000000000000000, 0.000000000000000000, 0.000000000000000000 ) ) ;
#158 = PRODUCT_RELATED_PRODUCT_CATEGORY ( 'part', '', ( #83 ) ) ;
#159 = CONTEXT_DEPENDENT_SHAPE_REPRESENTATION ( #87, #223 ) ;
#160 = COLOUR_RGB ( '',0.7764705882352941346, 0.7764705882352941346, 0.8156862745098039102 ) ;
#161 = DIRECTION ( 'NONE',  ( 1.000000000000000000, 0.000000000000000000, -0.000000000000000000 ) ) ;
#162 = CARTESIAN_POINT ( 'NONE',  ( 0.000000000000000000, 0.000000000000000000, 0.000000000000000000 ) ) ;
#163 = CARTESIAN_POINT ( 'NONE',  ( 0.000000000000000000, 0.000000000000000000, 0.000000000000000000 ) ) ;
#164 = CARTESIAN_POINT ( 'NONE',  ( 0.000000000000000000, 2.500000000000000000, -36.00000000000000000 ) ) ;
#165 = COLOUR_RGB ( '',0.7764705882352941346, 0.7764705882352941346, 0.8156862745098039102 ) ;
#166 = AXIS2_PLACEMENT_3D ( 'NONE', #10, #246, #176 ) ;
#167 = CYLINDRICAL_SURFACE ( 'NONE', #35, 0.7499999999999998890 ) ;
#168 = DIMENSIONAL_EXPONENTS ( 1.000000000000000000, 0.000000000000000000, 0.000000000000000000, 0.000000000000000000, 0.000000000000000000, 0.000000000000000000, 0.000000000000000000 ) ;
#169 = PRODUCT_DEFINITION ( 'UNKNOWN', '', #137, #15 ) ;
#170 = ORIENTED_EDGE ( 'NONE', *, *, #259, .F. ) ;
#171 =( CONVERSION_BASED_UNIT ( 'INCH', #132 ) LENGTH_UNIT ( ) NAMED_UNIT ( #117 ) );
#172 =( NAMED_UNIT ( * ) SI_UNIT ( $, .STERADIAN. ) SOLID_ANGLE_UNIT ( ) );
#173 = PLANE ( 'NONE',  #252 ) ;
#174 = VERTEX_POINT ( 'NONE', #76 ) ;
#175 = PRESENTATION_LAYER_ASSIGNMENT (  '', '', ( #26 ) ) ;
#176 = DIRECTION ( 'NONE',  ( 1.000000000000000000, 0.000000000000000000, 0.000000000000000000 ) ) ;
#177 = APPLICATION_CONTEXT ( 'automotive_design' ) ;
#178 = STYLED_ITEM ( 'NONE', ( #251 ), #38 ) ;
#179 = CARTESIAN_POINT ( 'NONE',  ( 0.000000000000000000, 2.500000000000000000, -36.00000000000000000 ) ) ;
#180 = EDGE_CURVE ( 'NONE', #174, #262, #98, .T. ) ;
#181 = SURFACE_SIDE_STYLE ('',( #199 ) ) ;
#182 = COLOUR_RGB ( '',0.8980392156862745390, 0.9176470588235293713, 0.9294117647058823817 ) ;
#183 = PRODUCT_CONTEXT ( 'NONE', #119, 'mechanical' ) ;
#184 = STYLED_ITEM ( 'NONE', ( #58 ), #151 ) ;
#185 = AXIS2_PLACEMENT_3D ( 'NONE', #179, #50, #250 ) ;
#186 = ITEM_DEFINED_TRANSFORMATION ( 'NONE', 'NONE', #229,  #166 ) ;
#187 = CARTESIAN_POINT ( 'NONE',  ( 0.7499999999999998890, 2.500000000000000000, -36.00000000000000000 ) ) ;
#188 =( LENGTH_UNIT ( ) NAMED_UNIT ( * ) SI_UNIT ( $, .METRE. ) );
#189 = DIMENSIONAL_EXPONENTS ( 1.000000000000000000, 0.000000000000000000, 0.000000000000000000, 0.000000000000000000, 0.000000000000000000, 0.000000000000000000, 0.000000000000000000 ) ;
#190 = AXIS2_PLACEMENT_3D ( 'NONE', #211, #231, #101 ) ;
#191 = CIRCLE ( 'NONE', #95, 0.7499999999999998890 ) ;
#192 = LENGTH_MEASURE_WITH_UNIT ( LENGTH_MEASURE( 0.02539999999999999897 ), #240 );
#193 = MECHANICAL_DESIGN_GEOMETRIC_PRESENTATION_REPRESENTATION (  '', ( #26 ), #14 ) ;
#194 = APPLICATION_CONTEXT ( 'automotive_design' ) ;
#195 = CARTESIAN_POINT ( 'NONE',  ( 0.000000000000000000, 2.500000000000000000, 0.000000000000000000 ) ) ;
#196 = SURFACE_STYLE_FILL_AREA ( #202 ) ;
#197 = FACE_OUTER_BOUND ( 'NONE', #243, .T. ) ;
#198 = AXIS2_PLACEMENT_3D ( 'NONE', #162, #210, #212 ) ;
#199 = SURFACE_STYLE_FILL_AREA ( #92 ) ;
#200 = SURFACE_STYLE_USAGE ( .BOTH. , #181 ) ;
#201 =( CONVERSION_BASED_UNIT ( 'INCH', #69 ) LENGTH_UNIT ( ) NAMED_UNIT ( #148 ) );
#202 = FILL_AREA_STYLE ('',( #104 ) ) ;
#203 = MECHANICAL_DESIGN_GEOMETRIC_PRESENTATION_REPRESENTATION (  '', ( #11 ), #78 ) ;
#204 = SHAPE_REPRESENTATION ( 'ShaftRailAssembly_AD3CEFB87C', ( #198, #229 ), #209 ) ;
#205 = ORIENTED_EDGE ( 'NONE', *, *, #81, .T. ) ;
#206 = APPLICATION_PROTOCOL_DEFINITION ( 'draft international standard', 'automotive_design', 1998, #194 ) ;
#207 = DIRECTION ( 'NONE',  ( 1.000000000000000000, 0.000000000000000000, 0.000000000000000000 ) ) ;
#208 = PRODUCT_DEFINITION ( 'UNKNOWN', '', #153, #29 ) ;
#209 =( GEOMETRIC_REPRESENTATION_CONTEXT ( 3 ) GLOBAL_UNCERTAINTY_ASSIGNED_CONTEXT ( ( #129 ) ) GLOBAL_UNIT_ASSIGNED_CONTEXT ( ( #21, #135, #254 ) ) REPRESENTATION_CONTEXT ( 'NONE', 'WORKASPACE' ) );
#210 = DIRECTION ( 'NONE',  ( 0.000000000000000000, 0.000000000000000000, 1.000000000000000000 ) ) ;
#211 = CARTESIAN_POINT ( 'NONE',  ( 0.000000000000000000, 2.500000000000000000, 0.000000000000000000 ) ) ;
#212 = DIRECTION ( 'NONE',  ( 1.000000000000000000, 0.000000000000000000, 0.000000000000000000 ) ) ;
#213 = FACE_OUTER_BOUND ( 'NONE', #134, .T. ) ;
#214 = ADVANCED_FACE ( 'NONE', ( #255 ), #173, .F. ) ;
#215 = DIRECTION ( 'NONE',  ( 1.000000000000000000, 0.000000000000000000, 0.000000000000000000 ) ) ;
#216 = COLOUR_RGB ( '',0.7764705882352941346, 0.7764705882352941346, 0.8156862745098039102 ) ;
#217 = DIRECTION ( 'NONE',  ( 0.000000000000000000, 0.000000000000000000, 1.000000000000000000 ) ) ;
#218 = CARTESIAN_POINT ( 'NONE',  ( 0.000000000000000000, 2.500000000000000000, -36.00000000000000000 ) ) ;
#219 = MECHANICAL_DESIGN_GEOMETRIC_PRESENTATION_REPRESENTATION (  '', ( #178 ), #51 ) ;
#220 = SURFACE_SIDE_STYLE ('',( #225 ) ) ;
#221 = UNCERTAINTY_MEASURE_WITH_UNIT (LENGTH_MEASURE( 1.000000000000000082E-05 ), #230, 'distance_accuracy_value', 'NONE');
#222 = VERTEX_POINT ( 'NONE', #28 ) ;
#223 = PRODUCT_DEFINITION_SHAPE ( 'NONE', 'NONE',  #276 ) ;
#224 = LENGTH_MEASURE_WITH_UNIT ( LENGTH_MEASURE( 0.02539999999999999897 ), #156 );
#225 = SURFACE_STYLE_FILL_AREA ( #154 ) ;
#226 =( NAMED_UNIT ( * ) PLANE_ANGLE_UNIT ( ) SI_UNIT ( $, .RADIAN. ) );
#227 = ORIENTED_EDGE ( 'NONE', *, *, #180, .F. ) ;
#228 = COLOUR_RGB ( '',0.7764705882352941346, 0.7764705882352941346, 0.8156862745098039102 ) ;
#229 = AXIS2_PLACEMENT_3D ( 'NONE', #163, #112, #1 ) ;
#230 =( CONVERSION_BASED_UNIT ( 'INCH', #72 ) LENGTH_UNIT ( ) NAMED_UNIT ( #122 ) );
#231 = DIRECTION ( 'NONE',  ( 0.000000000000000000, 0.000000000000000000, 1.000000000000000000 ) ) ;
#232 = APPLICATION_PROTOCOL_DEFINITION ( 'draft international standard', 'automotive_design', 1998, #177 ) ;
#233 = SURFACE_STYLE_FILL_AREA ( #57 ) ;
#234 = APPLICATION_PROTOCOL_DEFINITION ( 'draft international standard', 'automotive_design', 1998, #119 ) ;
#235 =( NAMED_UNIT ( * ) PLANE_ANGLE_UNIT ( ) SI_UNIT ( $, .RADIAN. ) );
#236 = STYLED_ITEM ( 'NONE', ( #70 ), #32 ) ;
#237 = EDGE_CURVE ( 'NONE', #84, #262, #2, .T. ) ;
#238 = PRODUCT_DEFINITION_SHAPE ( 'NONE', 'NONE',  #169 ) ;
#239 = ADVANCED_FACE ( 'NONE', ( #8 ), #49, .T. ) ;
#240 =( LENGTH_UNIT ( ) NAMED_UNIT ( * ) SI_UNIT ( $, .METRE. ) );
#241 = ORIENTED_EDGE ( 'NONE', *, *, #81, .F. ) ;
#242 = SURFACE_STYLE_USAGE ( .BOTH. , #220 ) ;
#243 = EDGE_LOOP ( 'NONE', ( #150, #73 ) ) ;
#244 = PRODUCT ( 'i0pGmkgLlt_CADModel_0', 'i0pGmkgLlt_CADModel_0', '', ( #36 ) ) ;
#245 =( CONVERSION_BASED_UNIT ( 'INCH', #54 ) LENGTH_UNIT ( ) NAMED_UNIT ( #46 ) );
#246 = DIRECTION ( 'NONE',  ( 0.000000000000000000, 0.000000000000000000, 1.000000000000000000 ) ) ;
#247 =( NAMED_UNIT ( * ) SI_UNIT ( $, .STERADIAN. ) SOLID_ANGLE_UNIT ( ) );
#248 = SURFACE_STYLE_USAGE ( .BOTH. , #133 ) ;
#249 = SURFACE_SIDE_STYLE ('',( #196 ) ) ;
#250 = DIRECTION ( 'NONE',  ( 1.000000000000000000, 0.000000000000000000, 0.000000000000000000 ) ) ;
#251 = PRESENTATION_STYLE_ASSIGNMENT (( #271 ) ) ;
#252 = AXIS2_PLACEMENT_3D ( 'NONE', #218, #121, #65 ) ;
#253 = CARTESIAN_POINT ( 'NONE',  ( -0.7499999999999998890, 2.500000000000000000, 0.000000000000000000 ) ) ;
#254 =( NAMED_UNIT ( * ) SI_UNIT ( $, .STERADIAN. ) SOLID_ANGLE_UNIT ( ) );
#255 = FACE_OUTER_BOUND ( 'NONE', #125, .T. ) ;
#256 = DIRECTION ( 'NONE',  ( 0.000000000000000000, 0.000000000000000000, 1.000000000000000000 ) ) ;
#257 = APPLICATION_CONTEXT ( 'automotive_design' ) ;
#258 = ORIENTED_EDGE ( 'NONE', *, *, #91, .T. ) ;
#259 = EDGE_CURVE ( 'NONE', #174, #222, #191, .T. ) ;
#260 = ORIENTED_EDGE ( 'NONE', *, *, #259, .T. ) ;
#261 = UNCERTAINTY_MEASURE_WITH_UNIT (LENGTH_MEASURE( 1.000000000000000082E-05 ), #142, 'distance_accuracy_value', 'NONE');
#262 = VERTEX_POINT ( 'NONE', #34 ) ;
#263 = DIRECTION ( 'NONE',  ( 1.000000000000000000, 0.000000000000000000, 0.000000000000000000 ) ) ;
#264 = PRESENTATION_LAYER_ASSIGNMENT (  '', '', ( #184 ) ) ;
#265 =( GEOMETRIC_REPRESENTATION_CONTEXT ( 3 ) GLOBAL_UNCERTAINTY_ASSIGNED_CONTEXT ( ( #155 ) ) GLOBAL_UNIT_ASSIGNED_CONTEXT ( ( #245, #17, #31 ) ) REPRESENTATION_CONTEXT ( 'NONE', 'WORKASPACE' ) );
#266 = PRODUCT_DEFINITION_CONTEXT ( 'detailed design', #257, 'design' ) ;
#267 = PRESENTATION_STYLE_ASSIGNMENT (( #248 ) ) ;
#268 = UNCERTAINTY_MEASURE_WITH_UNIT (LENGTH_MEASURE( 1.000000000000000082E-05 ), #171, 'distance_accuracy_value', 'NONE');
#269 = MECHANICAL_DESIGN_GEOMETRIC_PRESENTATION_REPRESENTATION (  '', ( #275 ), #60 ) ;
#270 = MECHANICAL_DESIGN_GEOMETRIC_PRESENTATION_REPRESENTATION (  '', ( #236 ), #67 ) ;
#271 = SURFACE_STYLE_USAGE ( .BOTH. , #249 ) ;
#272 =( LENGTH_UNIT ( ) NAMED_UNIT ( * ) SI_UNIT ( $, .METRE. ) );
#273 = PRODUCT_CONTEXT ( 'NONE', #138, 'mechanical' ) ;
#274 = PRODUCT_DEFINITION ( 'UNKNOWN', '', #86, #266 ) ;
#275 = STYLED_ITEM ( 'NONE', ( #103 ), #214 ) ;
#276 = NEXT_ASSEMBLY_USAGE_OCCURRENCE ( 'NAUO1', ' ', ' ', #169, #208, $ ) ;
ENDSEC;
END-ISO-10303-21;
