ISO-10303-21;
HEADER;
FILE_DESCRIPTION (( 'STEP AP214' ),
    '1' );
FILE_NAME ('ShaftRailAssembly_4BC03CDDAA.step',
    '2022-08-26T21:03:36',
    ( '' ),
    ( '' ),
    'SwSTEP 2.0',
    'SolidWorks 2019',
    '' );
FILE_SCHEMA (( 'AUTOMOTIVE_DESIGN' ));
ENDSEC;

DATA;
#1 = STYLED_ITEM ( 'NONE', ( #131 ), #188 ) ;
#2 = SURFACE_STYLE_USAGE ( .BOTH. , #240 ) ;
#3 = LINE ( 'NONE', #238, #144 ) ;
#4 =( CONVERSION_BASED_UNIT ( 'INCH', #254 ) LENGTH_UNIT ( ) NAMED_UNIT ( #178 ) );
#5 = PRESENTATION_STYLE_ASSIGNMENT (( #74 ) ) ;
#6 = APPLICATION_PROTOCOL_DEFINITION ( 'draft international standard', 'automotive_design', 1998, #273 ) ;
#7 = DIRECTION ( 'NONE',  ( 0.000000000000000000, 0.000000000000000000, 1.000000000000000000 ) ) ;
#8 = AXIS2_PLACEMENT_3D ( 'NONE', #164, #126, #196 ) ;
#9 = CARTESIAN_POINT ( 'NONE',  ( 0.000000000000000000, 0.000000000000000000, 0.000000000000000000 ) ) ;
#10 = VERTEX_POINT ( 'NONE', #161 ) ;
#11 = LENGTH_MEASURE_WITH_UNIT ( LENGTH_MEASURE( 0.02539999999999999897 ), #104 );
#12 = DIMENSIONAL_EXPONENTS ( 1.000000000000000000, 0.000000000000000000, 0.000000000000000000, 0.000000000000000000, 0.000000000000000000, 0.000000000000000000, 0.000000000000000000 ) ;
#13 = APPLICATION_CONTEXT ( 'automotive_design' ) ;
#14 = ORIENTED_EDGE ( 'NONE', *, *, #215, .F. ) ;
#15 = ADVANCED_FACE ( 'NONE', ( #121 ), #25, .T. ) ;
#16 =( CONVERSION_BASED_UNIT ( 'INCH', #187 ) LENGTH_UNIT ( ) NAMED_UNIT ( #90 ) );
#17 = DIRECTION ( 'NONE',  ( 1.000000000000000000, 0.000000000000000000, -0.000000000000000000 ) ) ;
#18 = PRODUCT_DEFINITION_FORMATION_WITH_SPECIFIED_SOURCE ( 'ANY', '', #227, .NOT_KNOWN. ) ;
#19 = PRODUCT_DEFINITION_CONTEXT ( 'detailed design', #94, 'design' ) ;
#20 = PRODUCT_RELATED_PRODUCT_CATEGORY ( 'part', '', ( #36 ) ) ;
#21 = STYLED_ITEM ( 'NONE', ( #186 ), #230 ) ;
#22 =( GEOMETRIC_REPRESENTATION_CONTEXT ( 3 ) GLOBAL_UNCERTAINTY_ASSIGNED_CONTEXT ( ( #23 ) ) GLOBAL_UNIT_ASSIGNED_CONTEXT ( ( #16, #147, #223 ) ) REPRESENTATION_CONTEXT ( 'NONE', 'WORKASPACE' ) );
#23 = UNCERTAINTY_MEASURE_WITH_UNIT (LENGTH_MEASURE( 1.000000000000000082E-05 ), #16, 'distance_accuracy_value', 'NONE');
#24 = DIRECTION ( 'NONE',  ( 1.000000000000000000, 0.000000000000000000, 0.000000000000000000 ) ) ;
#25 = CYLINDRICAL_SURFACE ( 'NONE', #169, 1.000000000000000000 ) ;
#26 = LINE ( 'NONE', #241, #65 ) ;
#27 = FILL_AREA_STYLE_COLOUR ( '', #148 ) ;
#28 = ORIENTED_EDGE ( 'NONE', *, *, #69, .F. ) ;
#29 = APPLICATION_PROTOCOL_DEFINITION ( 'draft international standard', 'automotive_design', 1998, #72 ) ;
#30 = DIRECTION ( 'NONE',  ( 0.000000000000000000, 0.000000000000000000, 1.000000000000000000 ) ) ;
#31 =( GEOMETRIC_REPRESENTATION_CONTEXT ( 3 ) GLOBAL_UNCERTAINTY_ASSIGNED_CONTEXT ( ( #110 ) ) GLOBAL_UNIT_ASSIGNED_CONTEXT ( ( #4, #124, #73 ) ) REPRESENTATION_CONTEXT ( 'NONE', 'WORKASPACE' ) );
#32 =( NAMED_UNIT ( * ) SI_UNIT ( $, .STERADIAN. ) SOLID_ANGLE_UNIT ( ) );
#33 =( CONVERSION_BASED_UNIT ( 'INCH', #208 ) LENGTH_UNIT ( ) NAMED_UNIT ( #51 ) );
#34 = CIRCLE ( 'NONE', #184, 1.000000000000000000 ) ;
#35 = CARTESIAN_POINT ( 'NONE',  ( 1.000000000000000000, 3.250000000000000000, 0.000000000000000000 ) ) ;
#36 = PRODUCT ( 'TX4eh1J2WQ_CADModel_0', 'TX4eh1J2WQ_CADModel_0', '', ( #201 ) ) ;
#37 = CONTEXT_DEPENDENT_SHAPE_REPRESENTATION ( #78, #152 ) ;
#38 = SURFACE_STYLE_USAGE ( .BOTH. , #59 ) ;
#39 = CLOSED_SHELL ( 'NONE', ( #263, #15, #230, #188 ) ) ;
#40 = MECHANICAL_DESIGN_GEOMETRIC_PRESENTATION_REPRESENTATION (  '', ( #21 ), #191 ) ;
#41 = PRODUCT ( 'ShaftRailAssembly_4BC03CDDAA', 'ShaftRailAssembly_4BC03CDDAA', '', ( #179 ) ) ;
#42 = STYLED_ITEM ( 'NONE', ( #253 ), #15 ) ;
#43 = DIMENSIONAL_EXPONENTS ( 1.000000000000000000, 0.000000000000000000, 0.000000000000000000, 0.000000000000000000, 0.000000000000000000, 0.000000000000000000, 0.000000000000000000 ) ;
#44 = DIRECTION ( 'NONE',  ( 0.000000000000000000, 0.000000000000000000, 1.000000000000000000 ) ) ;
#45 = CARTESIAN_POINT ( 'NONE',  ( 0.000000000000000000, 3.250000000000000000, -36.00000000000000000 ) ) ;
#46 =( GEOMETRIC_REPRESENTATION_CONTEXT ( 3 ) GLOBAL_UNCERTAINTY_ASSIGNED_CONTEXT ( ( #194 ) ) GLOBAL_UNIT_ASSIGNED_CONTEXT ( ( #50, #205, #92 ) ) REPRESENTATION_CONTEXT ( 'NONE', 'WORKASPACE' ) );
#47 = PRODUCT_DEFINITION ( 'UNKNOWN', '', #18, #19 ) ;
#48 = FILL_AREA_STYLE_COLOUR ( '', #98 ) ;
#49 = UNCERTAINTY_MEASURE_WITH_UNIT (LENGTH_MEASURE( 1.000000000000000082E-05 ), #33, 'distance_accuracy_value', 'NONE');
#50 =( CONVERSION_BASED_UNIT ( 'INCH', #11 ) LENGTH_UNIT ( ) NAMED_UNIT ( #12 ) );
#51 = DIMENSIONAL_EXPONENTS ( 1.000000000000000000, 0.000000000000000000, 0.000000000000000000, 0.000000000000000000, 0.000000000000000000, 0.000000000000000000, 0.000000000000000000 ) ;
#52 = APPLICATION_PROTOCOL_DEFINITION ( 'draft international standard', 'automotive_design', 1998, #237 ) ;
#53 = DIRECTION ( 'NONE',  ( 0.000000000000000000, 0.000000000000000000, 1.000000000000000000 ) ) ;
#54 = FACE_OUTER_BOUND ( 'NONE', #123, .T. ) ;
#55 =( CONVERSION_BASED_UNIT ( 'INCH', #79 ) LENGTH_UNIT ( ) NAMED_UNIT ( #212 ) );
#56 = ORIENTED_EDGE ( 'NONE', *, *, #270, .T. ) ;
#57 =( LENGTH_UNIT ( ) NAMED_UNIT ( * ) SI_UNIT ( $, .METRE. ) );
#58 = PRESENTATION_LAYER_ASSIGNMENT (  '', '', ( #42 ) ) ;
#59 = SURFACE_SIDE_STYLE ('',( #229 ) ) ;
#60 = CIRCLE ( 'NONE', #256, 1.000000000000000000 ) ;
#61 = UNCERTAINTY_MEASURE_WITH_UNIT (LENGTH_MEASURE( 1.000000000000000082E-05 ), #55, 'distance_accuracy_value', 'NONE');
#62 =( NAMED_UNIT ( * ) PLANE_ANGLE_UNIT ( ) SI_UNIT ( $, .RADIAN. ) );
#63 = STYLED_ITEM ( 'NONE', ( #248 ), #168 ) ;
#64 = MECHANICAL_DESIGN_GEOMETRIC_PRESENTATION_REPRESENTATION (  '', ( #42 ), #232 ) ;
#65 = VECTOR ( 'NONE', #222, 39.37007874015748143 ) ;
#66 = DIRECTION ( 'NONE',  ( 1.000000000000000000, 0.000000000000000000, 0.000000000000000000 ) ) ;
#67 = FILL_AREA_STYLE_COLOUR ( '', #231 ) ;
#68 = ORIENTED_EDGE ( 'NONE', *, *, #270, .F. ) ;
#69 = EDGE_CURVE ( 'NONE', #10, #180, #154, .T. ) ;
#70 = LENGTH_MEASURE_WITH_UNIT ( LENGTH_MEASURE( 0.02539999999999999897 ), #57 );
#71 = DIRECTION ( 'NONE',  ( 1.000000000000000000, 0.000000000000000000, 0.000000000000000000 ) ) ;
#72 = APPLICATION_CONTEXT ( 'automotive_design' ) ;
#73 =( NAMED_UNIT ( * ) SI_UNIT ( $, .STERADIAN. ) SOLID_ANGLE_UNIT ( ) );
#74 = SURFACE_STYLE_USAGE ( .BOTH. , #197 ) ;
#75 = DIRECTION ( 'NONE',  ( 1.000000000000000000, 0.000000000000000000, 0.000000000000000000 ) ) ;
#76 = CARTESIAN_POINT ( 'NONE',  ( 0.000000000000000000, 3.250000000000000000, -36.00000000000000000 ) ) ;
#77 = SHAPE_DEFINITION_REPRESENTATION ( #274, #146 ) ;
#78 =( REPRESENTATION_RELATIONSHIP ('NONE','NONE', #226, #146 ) REPRESENTATION_RELATIONSHIP_WITH_TRANSFORMATION ( #165 )SHAPE_REPRESENTATION_RELATIONSHIP( ) );
#79 = LENGTH_MEASURE_WITH_UNIT ( LENGTH_MEASURE( 0.02539999999999999897 ), #122 );
#80 = ORIENTED_EDGE ( 'NONE', *, *, #215, .T. ) ;
#81 = DIRECTION ( 'NONE',  ( 1.000000000000000000, 0.000000000000000000, 0.000000000000000000 ) ) ;
#82 = PRODUCT_DEFINITION_SHAPE ( 'NONE', 'NONE',  #47 ) ;
#83 =( GEOMETRIC_REPRESENTATION_CONTEXT ( 3 ) GLOBAL_UNCERTAINTY_ASSIGNED_CONTEXT ( ( #49 ) ) GLOBAL_UNIT_ASSIGNED_CONTEXT ( ( #33, #62, #210 ) ) REPRESENTATION_CONTEXT ( 'NONE', 'WORKASPACE' ) );
#84 = SURFACE_STYLE_FILL_AREA ( #109 ) ;
#85 = PRODUCT_DEFINITION_SHAPE ( 'NONE', 'NONE',  #145 ) ;
#86 = PRESENTATION_LAYER_ASSIGNMENT (  '', '', ( #63 ) ) ;
#87 = AXIS2_PLACEMENT_3D ( 'NONE', #134, #189, #66 ) ;
#88 = PRODUCT_DEFINITION_FORMATION_WITH_SPECIFIED_SOURCE ( 'ANY', '', #36, .NOT_KNOWN. ) ;
#89 = SURFACE_SIDE_STYLE ('',( #214 ) ) ;
#90 = DIMENSIONAL_EXPONENTS ( 1.000000000000000000, 0.000000000000000000, 0.000000000000000000, 0.000000000000000000, 0.000000000000000000, 0.000000000000000000, 0.000000000000000000 ) ;
#91 = AXIS2_PLACEMENT_3D ( 'NONE', #45, #140, #218 ) ;
#92 =( NAMED_UNIT ( * ) SI_UNIT ( $, .STERADIAN. ) SOLID_ANGLE_UNIT ( ) );
#93 = EDGE_LOOP ( 'NONE', ( #80, #143 ) ) ;
#94 = APPLICATION_CONTEXT ( 'automotive_design' ) ;
#95 = CYLINDRICAL_SURFACE ( 'NONE', #91, 1.000000000000000000 ) ;
#96 = DIRECTION ( 'NONE',  ( 0.000000000000000000, 0.000000000000000000, 1.000000000000000000 ) ) ;
#97 = FILL_AREA_STYLE ('',( #192 ) ) ;
#98 = COLOUR_RGB ( '',0.7764705882352941346, 0.7764705882352941346, 0.8156862745098039102 ) ;
#99 = EDGE_CURVE ( 'NONE', #180, #158, #3, .T. ) ;
#100 =( NAMED_UNIT ( * ) PLANE_ANGLE_UNIT ( ) SI_UNIT ( $, .RADIAN. ) );
#101 = DIRECTION ( 'NONE',  ( 0.000000000000000000, 0.000000000000000000, 1.000000000000000000 ) ) ;
#102 = ORIENTED_EDGE ( 'NONE', *, *, #99, .T. ) ;
#103 = DIMENSIONAL_EXPONENTS ( 1.000000000000000000, 0.000000000000000000, 0.000000000000000000, 0.000000000000000000, 0.000000000000000000, 0.000000000000000000, 0.000000000000000000 ) ;
#104 =( LENGTH_UNIT ( ) NAMED_UNIT ( * ) SI_UNIT ( $, .METRE. ) );
#105 = DIRECTION ( 'NONE',  ( 1.000000000000000000, 0.000000000000000000, 0.000000000000000000 ) ) ;
#106 = MECHANICAL_DESIGN_GEOMETRIC_PRESENTATION_REPRESENTATION (  '', ( #1 ), #22 ) ;
#107 = AXIS2_PLACEMENT_3D ( 'NONE', #182, #264, #239 ) ;
#108 = EDGE_CURVE ( 'NONE', #180, #10, #136, .T. ) ;
#109 = FILL_AREA_STYLE ('',( #48 ) ) ;
#110 = UNCERTAINTY_MEASURE_WITH_UNIT (LENGTH_MEASURE( 1.000000000000000082E-05 ), #4, 'distance_accuracy_value', 'NONE');
#111 = UNCERTAINTY_MEASURE_WITH_UNIT (LENGTH_MEASURE( 1.000000000000000082E-05 ), #172, 'distance_accuracy_value', 'NONE');
#112 = AXIS2_PLACEMENT_3D ( 'NONE', #137, #96, #75 ) ;
#113 = SURFACE_STYLE_USAGE ( .BOTH. , #89 ) ;
#114 = DIMENSIONAL_EXPONENTS ( 1.000000000000000000, 0.000000000000000000, 0.000000000000000000, 0.000000000000000000, 0.000000000000000000, 0.000000000000000000, 0.000000000000000000 ) ;
#115 = ORIENTED_EDGE ( 'NONE', *, *, #99, .F. ) ;
#116 = LENGTH_MEASURE_WITH_UNIT ( LENGTH_MEASURE( 0.02539999999999999897 ), #235 );
#117 = SURFACE_STYLE_USAGE ( .BOTH. , #251 ) ;
#118 = SURFACE_STYLE_FILL_AREA ( #141 ) ;
#119 = EDGE_CURVE ( 'NONE', #246, #158, #60, .T. ) ;
#120 = CARTESIAN_POINT ( 'NONE',  ( 0.000000000000000000, 0.000000000000000000, 0.000000000000000000 ) ) ;
#121 = FACE_OUTER_BOUND ( 'NONE', #142, .T. ) ;
#122 =( LENGTH_UNIT ( ) NAMED_UNIT ( * ) SI_UNIT ( $, .METRE. ) );
#123 = EDGE_LOOP ( 'NONE', ( #202, #56, #14, #115 ) ) ;
#124 =( NAMED_UNIT ( * ) PLANE_ANGLE_UNIT ( ) SI_UNIT ( $, .RADIAN. ) );
#125 = SHAPE_REPRESENTATION_RELATIONSHIP ( 'NONE' , 'NONE' ,  #146, #168 ) ;
#126 = DIRECTION ( 'NONE',  ( 0.000000000000000000, 0.000000000000000000, 1.000000000000000000 ) ) ;
#127 = FILL_AREA_STYLE ('',( #260 ) ) ;
#128 = STYLED_ITEM ( 'NONE', ( #5 ), #228 ) ;
#129 =( LENGTH_UNIT ( ) NAMED_UNIT ( * ) SI_UNIT ( $, .METRE. ) );
#130 = FILL_AREA_STYLE_COLOUR ( '', #211 ) ;
#131 = PRESENTATION_STYLE_ASSIGNMENT (( #38 ) ) ;
#132 = CARTESIAN_POINT ( 'NONE',  ( 1.000000000000000000, 3.250000000000000000, -36.00000000000000000 ) ) ;
#133 = PRESENTATION_LAYER_ASSIGNMENT (  '', '', ( #21 ) ) ;
#134 = CARTESIAN_POINT ( 'NONE',  ( 0.000000000000000000, 0.000000000000000000, 0.000000000000000000 ) ) ;
#135 = MECHANICAL_DESIGN_GEOMETRIC_PRESENTATION_REPRESENTATION (  '', ( #167 ), #31 ) ;
#136 = CIRCLE ( 'NONE', #216, 1.000000000000000000 ) ;
#137 = CARTESIAN_POINT ( 'NONE',  ( 0.000000000000000000, 0.000000000000000000, 0.000000000000000000 ) ) ;
#138 =( NAMED_UNIT ( * ) SI_UNIT ( $, .STERADIAN. ) SOLID_ANGLE_UNIT ( ) );
#139 = PRODUCT_DEFINITION_FORMATION_WITH_SPECIFIED_SOURCE ( 'ANY', '', #41, .NOT_KNOWN. ) ;
#140 = DIRECTION ( 'NONE',  ( 0.000000000000000000, 0.000000000000000000, 1.000000000000000000 ) ) ;
#141 = FILL_AREA_STYLE ('',( #27 ) ) ;
#142 = EDGE_LOOP ( 'NONE', ( #68, #221, #102, #204 ) ) ;
#143 = ORIENTED_EDGE ( 'NONE', *, *, #119, .T. ) ;
#144 = VECTOR ( 'NONE', #7, 39.37007874015748143 ) ;
#145 = PRODUCT_DEFINITION ( 'UNKNOWN', '', #139, #160 ) ;
#146 = SHAPE_REPRESENTATION ( 'TX4eh1J2WQ_CADModel_0', ( #87 ), #46 ) ;
#147 =( NAMED_UNIT ( * ) PLANE_ANGLE_UNIT ( ) SI_UNIT ( $, .RADIAN. ) );
#148 = COLOUR_RGB ( '',0.8980392156862745390, 0.9176470588235293713, 0.9294117647058823817 ) ;
#149 = PRODUCT_DEFINITION ( 'UNKNOWN', '', #88, #252 ) ;
#150 = PLANE ( 'NONE',  #233 ) ;
#151 = PLANE ( 'NONE',  #8 ) ;
#152 = PRODUCT_DEFINITION_SHAPE ( 'NONE', 'NONE',  #276 ) ;
#153 =( LENGTH_UNIT ( ) NAMED_UNIT ( * ) SI_UNIT ( $, .METRE. ) );
#154 = CIRCLE ( 'NONE', #209, 1.000000000000000000 ) ;
#155 = PRESENTATION_LAYER_ASSIGNMENT (  '', '', ( #167 ) ) ;
#156 = FILL_AREA_STYLE ('',( #67 ) ) ;
#157 =( NAMED_UNIT ( * ) SI_UNIT ( $, .STERADIAN. ) SOLID_ANGLE_UNIT ( ) );
#158 = VERTEX_POINT ( 'NONE', #35 ) ;
#159 = SURFACE_STYLE_FILL_AREA ( #127 ) ;
#160 = PRODUCT_DEFINITION_CONTEXT ( 'detailed design', #237, 'design' ) ;
#161 = CARTESIAN_POINT ( 'NONE',  ( -1.000000000000000000, 3.250000000000000000, -36.00000000000000000 ) ) ;
#162 =( NAMED_UNIT ( * ) SI_UNIT ( $, .STERADIAN. ) SOLID_ANGLE_UNIT ( ) );
#163 = MECHANICAL_DESIGN_GEOMETRIC_PRESENTATION_REPRESENTATION (  '', ( #128 ), #83 ) ;
#164 = CARTESIAN_POINT ( 'NONE',  ( 0.000000000000000000, 3.250000000000000000, -36.00000000000000000 ) ) ;
#165 = ITEM_DEFINED_TRANSFORMATION ( 'NONE', 'NONE', #112,  #87 ) ;
#166 = CARTESIAN_POINT ( 'NONE',  ( 0.000000000000000000, 3.250000000000000000, 0.000000000000000000 ) ) ;
#167 = STYLED_ITEM ( 'NONE', ( #247 ), #263 ) ;
#168 = ADVANCED_BREP_SHAPE_REPRESENTATION ( '', ( #228, #87 ), #46 ) ;
#169 = AXIS2_PLACEMENT_3D ( 'NONE', #259, #53, #71 ) ;
#170 = APPLICATION_CONTEXT ( 'automotive_design' ) ;
#171 = ORIENTED_EDGE ( 'NONE', *, *, #108, .F. ) ;
#172 =( CONVERSION_BASED_UNIT ( 'INCH', #70 ) LENGTH_UNIT ( ) NAMED_UNIT ( #114 ) );
#173 = AXIS2_PLACEMENT_3D ( 'NONE', #9, #44, #24 ) ;
#174 = SURFACE_SIDE_STYLE ('',( #84 ) ) ;
#175 = APPLICATION_PROTOCOL_DEFINITION ( 'draft international standard', 'automotive_design', 1998, #94 ) ;
#176 =( CONVERSION_BASED_UNIT ( 'INCH', #116 ) LENGTH_UNIT ( ) NAMED_UNIT ( #43 ) );
#177 = CARTESIAN_POINT ( 'NONE',  ( 0.000000000000000000, 3.250000000000000000, 0.000000000000000000 ) ) ;
#178 = DIMENSIONAL_EXPONENTS ( 1.000000000000000000, 0.000000000000000000, 0.000000000000000000, 0.000000000000000000, 0.000000000000000000, 0.000000000000000000, 0.000000000000000000 ) ;
#179 = PRODUCT_CONTEXT ( 'NONE', #13, 'mechanical' ) ;
#180 = VERTEX_POINT ( 'NONE', #132 ) ;
#181 = CARTESIAN_POINT ( 'NONE',  ( -1.000000000000000000, 3.250000000000000000, 0.000000000000000000 ) ) ;
#182 = CARTESIAN_POINT ( 'NONE',  ( 0.000000000000000000, 0.000000000000000000, 0.000000000000000000 ) ) ;
#183 = DIRECTION ( 'NONE',  ( 1.000000000000000000, 0.000000000000000000, 0.000000000000000000 ) ) ;
#184 = AXIS2_PLACEMENT_3D ( 'NONE', #224, #185, #266 ) ;
#185 = DIRECTION ( 'NONE',  ( 0.000000000000000000, 0.000000000000000000, 1.000000000000000000 ) ) ;
#186 = PRESENTATION_STYLE_ASSIGNMENT (( #267 ) ) ;
#187 = LENGTH_MEASURE_WITH_UNIT ( LENGTH_MEASURE( 0.02539999999999999897 ), #207 );
#188 = ADVANCED_FACE ( 'NONE', ( #265 ), #150, .T. ) ;
#189 = DIRECTION ( 'NONE',  ( 0.000000000000000000, 0.000000000000000000, 1.000000000000000000 ) ) ;
#190 = LENGTH_MEASURE_WITH_UNIT ( LENGTH_MEASURE( 0.02539999999999999897 ), #153 );
#191 =( GEOMETRIC_REPRESENTATION_CONTEXT ( 3 ) GLOBAL_UNCERTAINTY_ASSIGNED_CONTEXT ( ( #111 ) ) GLOBAL_UNIT_ASSIGNED_CONTEXT ( ( #172, #100, #162 ) ) REPRESENTATION_CONTEXT ( 'NONE', 'WORKASPACE' ) );
#192 = FILL_AREA_STYLE_COLOUR ( '', #255 ) ;
#193 = PRODUCT_RELATED_PRODUCT_CATEGORY ( 'part', '', ( #227 ) ) ;
#194 = UNCERTAINTY_MEASURE_WITH_UNIT (LENGTH_MEASURE( 1.000000000000000082E-05 ), #50, 'distance_accuracy_value', 'NONE');
#195 = CARTESIAN_POINT ( 'NONE',  ( 0.000000000000000000, 3.250000000000000000, -36.00000000000000000 ) ) ;
#196 = DIRECTION ( 'NONE',  ( 1.000000000000000000, 0.000000000000000000, -0.000000000000000000 ) ) ;
#197 = SURFACE_SIDE_STYLE ('',( #118 ) ) ;
#198 =( NAMED_UNIT ( * ) PLANE_ANGLE_UNIT ( ) SI_UNIT ( $, .RADIAN. ) );
#199 = DIRECTION ( 'NONE',  ( 1.000000000000000000, 0.000000000000000000, 0.000000000000000000 ) ) ;
#200 = PRESENTATION_LAYER_ASSIGNMENT (  '', '', ( #128 ) ) ;
#201 = PRODUCT_CONTEXT ( 'NONE', #72, 'mechanical' ) ;
#202 = ORIENTED_EDGE ( 'NONE', *, *, #108, .T. ) ;
#203 = PRODUCT_CONTEXT ( 'NONE', #273, 'mechanical' ) ;
#204 = ORIENTED_EDGE ( 'NONE', *, *, #119, .F. ) ;
#205 =( NAMED_UNIT ( * ) PLANE_ANGLE_UNIT ( ) SI_UNIT ( $, .RADIAN. ) );
#206 = UNCERTAINTY_MEASURE_WITH_UNIT (LENGTH_MEASURE( 1.000000000000000082E-05 ), #176, 'distance_accuracy_value', 'NONE');
#207 =( LENGTH_UNIT ( ) NAMED_UNIT ( * ) SI_UNIT ( $, .METRE. ) );
#208 = LENGTH_MEASURE_WITH_UNIT ( LENGTH_MEASURE( 0.02539999999999999897 ), #129 );
#209 = AXIS2_PLACEMENT_3D ( 'NONE', #195, #220, #199 ) ;
#210 =( NAMED_UNIT ( * ) SI_UNIT ( $, .STERADIAN. ) SOLID_ANGLE_UNIT ( ) );
#211 = COLOUR_RGB ( '',0.7764705882352941346, 0.7764705882352941346, 0.8156862745098039102 ) ;
#212 = DIMENSIONAL_EXPONENTS ( 1.000000000000000000, 0.000000000000000000, 0.000000000000000000, 0.000000000000000000, 0.000000000000000000, 0.000000000000000000, 0.000000000000000000 ) ;
#213 =( NAMED_UNIT ( * ) PLANE_ANGLE_UNIT ( ) SI_UNIT ( $, .RADIAN. ) );
#214 = SURFACE_STYLE_FILL_AREA ( #156 ) ;
#215 = EDGE_CURVE ( 'NONE', #158, #246, #34, .T. ) ;
#216 = AXIS2_PLACEMENT_3D ( 'NONE', #76, #30, #81 ) ;
#217 = AXIS2_PLACEMENT_3D ( 'NONE', #120, #101, #105 ) ;
#218 = DIRECTION ( 'NONE',  ( 1.000000000000000000, 0.000000000000000000, 0.000000000000000000 ) ) ;
#219 = SHAPE_DEFINITION_REPRESENTATION ( #85, #226 ) ;
#220 = DIRECTION ( 'NONE',  ( 0.000000000000000000, 0.000000000000000000, 1.000000000000000000 ) ) ;
#221 = ORIENTED_EDGE ( 'NONE', *, *, #69, .T. ) ;
#222 = DIRECTION ( 'NONE',  ( 0.000000000000000000, 0.000000000000000000, 1.000000000000000000 ) ) ;
#223 =( NAMED_UNIT ( * ) SI_UNIT ( $, .STERADIAN. ) SOLID_ANGLE_UNIT ( ) );
#224 = CARTESIAN_POINT ( 'NONE',  ( 0.000000000000000000, 3.250000000000000000, 0.000000000000000000 ) ) ;
#225 = DIRECTION ( 'NONE',  ( 0.000000000000000000, 0.000000000000000000, 1.000000000000000000 ) ) ;
#226 = SHAPE_REPRESENTATION ( 'ShaftRailAssembly_4BC03CDDAA', ( #217, #112 ), #245 ) ;
#227 = PRODUCT ( 'TX4eh1J2WQ_CADModel_0', 'TX4eh1J2WQ_CADModel_0', '', ( #203 ) ) ;
#228 = MANIFOLD_SOLID_BREP ( 'S0_a_shaft-1/S0_a_shaft-1-solid1', #39 ) ;
#229 = SURFACE_STYLE_FILL_AREA ( #269 ) ;
#230 = ADVANCED_FACE ( 'NONE', ( #272 ), #151, .F. ) ;
#231 = COLOUR_RGB ( '',0.8980392156862745390, 0.9176470588235293713, 0.9294117647058823817 ) ;
#232 =( GEOMETRIC_REPRESENTATION_CONTEXT ( 3 ) GLOBAL_UNCERTAINTY_ASSIGNED_CONTEXT ( ( #206 ) ) GLOBAL_UNIT_ASSIGNED_CONTEXT ( ( #176, #261, #138 ) ) REPRESENTATION_CONTEXT ( 'NONE', 'WORKASPACE' ) );
#233 = AXIS2_PLACEMENT_3D ( 'NONE', #177, #242, #17 ) ;
#234 =( CONVERSION_BASED_UNIT ( 'INCH', #190 ) LENGTH_UNIT ( ) NAMED_UNIT ( #103 ) );
#235 =( LENGTH_UNIT ( ) NAMED_UNIT ( * ) SI_UNIT ( $, .METRE. ) );
#236 = PRESENTATION_LAYER_ASSIGNMENT (  '', '', ( #1 ) ) ;
#237 = APPLICATION_CONTEXT ( 'automotive_design' ) ;
#238 = CARTESIAN_POINT ( 'NONE',  ( 1.000000000000000000, 3.250000000000000000, -36.00000000000000000 ) ) ;
#239 = DIRECTION ( 'NONE',  ( 1.000000000000000000, 0.000000000000000000, 0.000000000000000000 ) ) ;
#240 = SURFACE_SIDE_STYLE ('',( #243 ) ) ;
#241 = CARTESIAN_POINT ( 'NONE',  ( -1.000000000000000000, 3.250000000000000000, -36.00000000000000000 ) ) ;
#242 = DIRECTION ( 'NONE',  ( 0.000000000000000000, 0.000000000000000000, 1.000000000000000000 ) ) ;
#243 = SURFACE_STYLE_FILL_AREA ( #97 ) ;
#244 =( LENGTH_UNIT ( ) NAMED_UNIT ( * ) SI_UNIT ( $, .METRE. ) );
#245 =( GEOMETRIC_REPRESENTATION_CONTEXT ( 3 ) GLOBAL_UNCERTAINTY_ASSIGNED_CONTEXT ( ( #61 ) ) GLOBAL_UNIT_ASSIGNED_CONTEXT ( ( #55, #198, #32 ) ) REPRESENTATION_CONTEXT ( 'NONE', 'WORKASPACE' ) );
#246 = VERTEX_POINT ( 'NONE', #181 ) ;
#247 = PRESENTATION_STYLE_ASSIGNMENT (( #117 ) ) ;
#248 = PRESENTATION_STYLE_ASSIGNMENT (( #113 ) ) ;
#249 = PRODUCT_RELATED_PRODUCT_CATEGORY ( 'part', '', ( #41 ) ) ;
#250 = EDGE_LOOP ( 'NONE', ( #171, #28 ) ) ;
#251 = SURFACE_SIDE_STYLE ('',( #159 ) ) ;
#252 = PRODUCT_DEFINITION_CONTEXT ( 'detailed design', #170, 'design' ) ;
#253 = PRESENTATION_STYLE_ASSIGNMENT (( #2 ) ) ;
#254 = LENGTH_MEASURE_WITH_UNIT ( LENGTH_MEASURE( 0.02539999999999999897 ), #244 );
#255 = COLOUR_RGB ( '',0.7764705882352941346, 0.7764705882352941346, 0.8156862745098039102 ) ;
#256 = AXIS2_PLACEMENT_3D ( 'NONE', #166, #225, #183 ) ;
#257 = APPLICATION_PROTOCOL_DEFINITION ( 'draft international standard', 'automotive_design', 1998, #13 ) ;
#258 = APPLICATION_PROTOCOL_DEFINITION ( 'draft international standard', 'automotive_design', 1998, #170 ) ;
#259 = CARTESIAN_POINT ( 'NONE',  ( 0.000000000000000000, 3.250000000000000000, -36.00000000000000000 ) ) ;
#260 = FILL_AREA_STYLE_COLOUR ( '', #271 ) ;
#261 =( NAMED_UNIT ( * ) PLANE_ANGLE_UNIT ( ) SI_UNIT ( $, .RADIAN. ) );
#262 =( GEOMETRIC_REPRESENTATION_CONTEXT ( 3 ) GLOBAL_UNCERTAINTY_ASSIGNED_CONTEXT ( ( #268 ) ) GLOBAL_UNIT_ASSIGNED_CONTEXT ( ( #234, #213, #157 ) ) REPRESENTATION_CONTEXT ( 'NONE', 'WORKASPACE' ) );
#263 = ADVANCED_FACE ( 'NONE', ( #54 ), #95, .T. ) ;
#264 = DIRECTION ( 'NONE',  ( 0.000000000000000000, 0.000000000000000000, 1.000000000000000000 ) ) ;
#265 = FACE_OUTER_BOUND ( 'NONE', #93, .T. ) ;
#266 = DIRECTION ( 'NONE',  ( 1.000000000000000000, 0.000000000000000000, 0.000000000000000000 ) ) ;
#267 = SURFACE_STYLE_USAGE ( .BOTH. , #174 ) ;
#268 = UNCERTAINTY_MEASURE_WITH_UNIT (LENGTH_MEASURE( 1.000000000000000082E-05 ), #234, 'distance_accuracy_value', 'NONE');
#269 = FILL_AREA_STYLE ('',( #130 ) ) ;
#270 = EDGE_CURVE ( 'NONE', #10, #246, #26, .T. ) ;
#271 = COLOUR_RGB ( '',0.7764705882352941346, 0.7764705882352941346, 0.8156862745098039102 ) ;
#272 = FACE_OUTER_BOUND ( 'NONE', #250, .T. ) ;
#273 = APPLICATION_CONTEXT ( 'automotive_design' ) ;
#274 = PRODUCT_DEFINITION_SHAPE ( 'NONE', 'NONE',  #149 ) ;
#275 = MECHANICAL_DESIGN_GEOMETRIC_PRESENTATION_REPRESENTATION (  '', ( #63 ), #262 ) ;
#276 = NEXT_ASSEMBLY_USAGE_OCCURRENCE ( 'NAUO1', ' ', ' ', #145, #149, $ ) ;
ENDSEC;
END-ISO-10303-21;
