ISO-10303-21;
HEADER;
FILE_DESCRIPTION (( 'STEP AP203' ),
    '1' );
FILE_NAME ('ShaftRailAssembly_B336D01FE5.step',
    '2022-11-04T16:48:16',
    ( '' ),
    ( '' ),
    'SwSTEP 2.0',
    'SolidWorks 2019',
    '' );
FILE_SCHEMA (( 'CONFIG_CONTROL_DESIGN' ));
ENDSEC;

DATA;
#1 = CYLINDRICAL_SURFACE ( 'NONE', #261, 1.000000000000000000 ) ;
#2 = DIMENSIONAL_EXPONENTS ( 1.000000000000000000, 0.000000000000000000, 0.000000000000000000, 0.000000000000000000, 0.000000000000000000, 0.000000000000000000, 0.000000000000000000 ) ;
#3 = APPROVAL_ROLE ( '' ) ;
#4 = LENGTH_MEASURE_WITH_UNIT ( LENGTH_MEASURE( 0.02539999999999999897 ), #318 );
#5 = PRODUCT ( 'ShaftRailAssembly_B336D01FE5', 'ShaftRailAssembly_B336D01FE5', '', ( #298 ) ) ;
#6 = APPROVAL_STATUS ( 'not_yet_approved' ) ;
#7 = PERSON_AND_ORGANIZATION ( #325, #354 ) ;
#8 = CC_DESIGN_APPROVAL ( #213, ( #292 ) ) ;
#9 = PERSON_AND_ORGANIZATION ( #325, #354 ) ;
#10 = DESIGN_CONTEXT ( 'detailed design', #87, 'design' ) ;
#11 = DATE_AND_TIME ( #296, #147 ) ;
#12 = COORDINATED_UNIVERSAL_TIME_OFFSET ( 6, 0, .BEHIND. ) ;
#13 = SECURITY_CLASSIFICATION ( '', '', #27 ) ;
#14 = LOCAL_TIME ( 11, 48, 16.00000000000000000, #70 ) ;
#15 = APPROVAL ( #144, 'UNSPECIFIED' ) ;
#16 = AXIS2_PLACEMENT_3D ( 'NONE', #287, #78, #105 ) ;
#17 = LOCAL_TIME ( 11, 48, 16.00000000000000000, #313 ) ;
#18 = SHAPE_DEFINITION_REPRESENTATION ( #80, #249 ) ;
#19 = AXIS2_PLACEMENT_3D ( 'NONE', #317, #196, #259 ) ;
#20 = CC_DESIGN_SECURITY_CLASSIFICATION ( #177, ( #226 ) ) ;
#21 = CALENDAR_DATE ( 2022, 4, 11 ) ;
#22 = PERSON_AND_ORGANIZATION_ROLE ( 'design_supplier' ) ;
#23 = APPROVAL_ROLE ( '' ) ;
#24 = CARTESIAN_POINT ( 'NONE',  ( -1.000000000000000000, 3.250000000000000000, 0.000000000000000000 ) ) ;
#25 = CC_DESIGN_PERSON_AND_ORGANIZATION_ASSIGNMENT ( #104, #138, ( #177 ) ) ;
#26 = AXIS2_PLACEMENT_3D ( 'NONE', #38, #338, #94 ) ;
#27 = SECURITY_CLASSIFICATION_LEVEL ( 'unclassified' ) ;
#28 = CALENDAR_DATE ( 2022, 4, 11 ) ;
#29 = PERSON_AND_ORGANIZATION_ROLE ( 'design_supplier' ) ;
#30 =( NAMED_UNIT ( * ) PLANE_ANGLE_UNIT ( ) SI_UNIT ( $, .RADIAN. ) );
#31 = PRODUCT_RELATED_PRODUCT_CATEGORY ( 'detail', '', ( #5 ) ) ;
#32 = APPROVAL_STATUS ( 'not_yet_approved' ) ;
#33 = CC_DESIGN_APPROVAL ( #15, ( #13 ) ) ;
#34 = PRODUCT_DEFINITION_SHAPE ( 'NONE', 'NONE',  #112 ) ;
#35 = COORDINATED_UNIVERSAL_TIME_OFFSET ( 6, 0, .BEHIND. ) ;
#36 =( LENGTH_UNIT ( ) NAMED_UNIT ( * ) SI_UNIT ( $, .METRE. ) );
#37 = APPROVAL_DATE_TIME ( #149, #319 ) ;
#38 = CARTESIAN_POINT ( 'NONE',  ( 0.000000000000000000, 0.000000000000000000, 0.000000000000000000 ) ) ;
#39 = CARTESIAN_POINT ( 'NONE',  ( -1.000000000000000000, 3.250000000000000000, -47.99999999999999289 ) ) ;
#40 = CC_DESIGN_DATE_AND_TIME_ASSIGNMENT ( #273, #52, ( #304 ) ) ;
#41 = APPROVAL_PERSON_ORGANIZATION ( #308, #213, #311 ) ;
#42 = PERSON_AND_ORGANIZATION ( #325, #354 ) ;
#43 = PERSON_AND_ORGANIZATION_ROLE ( 'design_supplier' ) ;
#44 = APPROVAL_STATUS ( 'not_yet_approved' ) ;
#45 = APPROVAL_PERSON_ORGANIZATION ( #69, #187, #257 ) ;
#46 = CALENDAR_DATE ( 2022, 4, 11 ) ;
#47 = SECURITY_CLASSIFICATION_LEVEL ( 'unclassified' ) ;
#48 = CARTESIAN_POINT ( 'NONE',  ( 0.000000000000000000, 3.250000000000000000, -47.99999999999999289 ) ) ;
#49 = DATE_TIME_ROLE ( 'classification_date' ) ;
#50 = LINE ( 'NONE', #353, #117 ) ;
#51 = CIRCLE ( 'NONE', #19, 1.000000000000000000 ) ;
#52 = DATE_TIME_ROLE ( 'creation_date' ) ;
#53 = APPLICATION_CONTEXT ( 'configuration controlled 3d designs of mechanical parts and assemblies' ) ;
#54 = LENGTH_MEASURE_WITH_UNIT ( LENGTH_MEASURE( 0.02539999999999999897 ), #36 );
#55 = COORDINATED_UNIVERSAL_TIME_OFFSET ( 6, 0, .BEHIND. ) ;
#56 = APPLICATION_PROTOCOL_DEFINITION ( 'international standard', 'config_control_design', 1994, #53 ) ;
#57 = DESIGN_CONTEXT ( 'detailed design', #252, 'design' ) ;
#58 = COORDINATED_UNIVERSAL_TIME_OFFSET ( 6, 0, .BEHIND. ) ;
#59 = CC_DESIGN_APPROVAL ( #187, ( #151 ) ) ;
#60 =( CONVERSION_BASED_UNIT ( 'INCH', #54 ) LENGTH_UNIT ( ) NAMED_UNIT ( #2 ) );
#61 = CALENDAR_DATE ( 2022, 4, 11 ) ;
#62 = DESIGN_CONTEXT ( 'detailed design', #53, 'design' ) ;
#63 = CC_DESIGN_PERSON_AND_ORGANIZATION_ASSIGNMENT ( #326, #22, ( #226 ) ) ;
#64 = CALENDAR_DATE ( 2022, 4, 11 ) ;
#65 = EDGE_CURVE ( 'NONE', #131, #156, #379, .T. ) ;
#66 = CIRCLE ( 'NONE', #219, 1.000000000000000000 ) ;
#67 = ORIENTED_EDGE ( 'NONE', *, *, #122, .F. ) ;
#68 = AXIS2_PLACEMENT_3D ( 'NONE', #220, #277, #302 ) ;
#69 = PERSON_AND_ORGANIZATION ( #325, #354 ) ;
#70 = COORDINATED_UNIVERSAL_TIME_OFFSET ( 6, 0, .BEHIND. ) ;
#71 = DIRECTION ( 'NONE',  ( 1.000000000000000000, 0.000000000000000000, 0.000000000000000000 ) ) ;
#72 = CC_DESIGN_PERSON_AND_ORGANIZATION_ASSIGNMENT ( #9, #172, ( #90 ) ) ;
#73 = PERSON_AND_ORGANIZATION_ROLE ( 'classification_officer' ) ;
#74 = CALENDAR_DATE ( 2022, 4, 11 ) ;
#75 = CARTESIAN_POINT ( 'NONE',  ( 1.000000000000000000, 3.250000000000000000, 0.000000000000000000 ) ) ;
#76 = VECTOR ( 'NONE', #276, 39.37007874015748143 ) ;
#77 = CALENDAR_DATE ( 2022, 4, 11 ) ;
#78 = DIRECTION ( 'NONE',  ( 0.000000000000000000, 0.000000000000000000, 1.000000000000000000 ) ) ;
#79 = PERSON_AND_ORGANIZATION ( #325, #354 ) ;
#80 = PRODUCT_DEFINITION_SHAPE ( 'NONE', 'NONE',  #241 ) ;
#81 = PLANE ( 'NONE',  #332 ) ;
#82 = AXIS2_PLACEMENT_3D ( 'NONE', #371, #121, #116 ) ;
#83 = APPROVAL_DATE_TIME ( #89, #15 ) ;
#84 = PERSON_AND_ORGANIZATION_ROLE ( 'classification_officer' ) ;
#85 = PERSON_AND_ORGANIZATION ( #325, #354 ) ;
#86 = PRODUCT_DEFINITION_SHAPE ( 'NONE', 'NONE',  #383 ) ;
#87 = APPLICATION_CONTEXT ( 'configuration controlled 3d designs of mechanical parts and assemblies' ) ;
#88 = DIRECTION ( 'NONE',  ( 0.000000000000000000, 0.000000000000000000, 1.000000000000000000 ) ) ;
#89 = DATE_AND_TIME ( #362, #197 ) ;
#90 = PRODUCT_DEFINITION_FORMATION_WITH_SPECIFIED_SOURCE ( 'ANY', '', #5, .NOT_KNOWN. ) ;
#91 = CC_DESIGN_PERSON_AND_ORGANIZATION_ASSIGNMENT ( #301, #275, ( #241 ) ) ;
#92 = DATE_TIME_ROLE ( 'creation_date' ) ;
#93 = CC_DESIGN_PERSON_AND_ORGANIZATION_ASSIGNMENT ( #370, #245, ( #13 ) ) ;
#94 = DIRECTION ( 'NONE',  ( 1.000000000000000000, 0.000000000000000000, 0.000000000000000000 ) ) ;
#95 = LOCAL_TIME ( 11, 48, 16.00000000000000000, #115 ) ;
#96 = ORIENTED_EDGE ( 'NONE', *, *, #211, .F. ) ;
#97 = APPLICATION_PROTOCOL_DEFINITION ( 'international standard', 'config_control_design', 1994, #217 ) ;
#98 = COORDINATED_UNIVERSAL_TIME_OFFSET ( 6, 0, .BEHIND. ) ;
#99 = ITEM_DEFINED_TRANSFORMATION ( 'NONE', 'NONE', #321,  #372 ) ;
#100 = ORIENTED_EDGE ( 'NONE', *, *, #198, .F. ) ;
#101 = AXIS2_PLACEMENT_3D ( 'NONE', #127, #225, #71 ) ;
#102 = DIMENSIONAL_EXPONENTS ( 1.000000000000000000, 0.000000000000000000, 0.000000000000000000, 0.000000000000000000, 0.000000000000000000, 0.000000000000000000, 0.000000000000000000 ) ;
#103 = PERSON_AND_ORGANIZATION ( #325, #354 ) ;
#104 = PERSON_AND_ORGANIZATION ( #325, #354 ) ;
#105 = DIRECTION ( 'NONE',  ( 1.000000000000000000, 0.000000000000000000, -0.000000000000000000 ) ) ;
#106 = CC_DESIGN_PERSON_AND_ORGANIZATION_ASSIGNMENT ( #103, #352, ( #292 ) ) ;
#107 = COORDINATED_UNIVERSAL_TIME_OFFSET ( 6, 0, .BEHIND. ) ;
#108 = COORDINATED_UNIVERSAL_TIME_OFFSET ( 6, 0, .BEHIND. ) ;
#109 = CARTESIAN_POINT ( 'NONE',  ( 0.000000000000000000, 3.250000000000000000, 0.000000000000000000 ) ) ;
#110 = CC_DESIGN_PERSON_AND_ORGANIZATION_ASSIGNMENT ( #114, #323, ( #270 ) ) ;
#111 = APPROVAL_STATUS ( 'not_yet_approved' ) ;
#112 = PRODUCT_DEFINITION ( 'UNKNOWN', '', #292, #10 ) ;
#113 = COORDINATED_UNIVERSAL_TIME_OFFSET ( 6, 0, .BEHIND. ) ;
#114 = PERSON_AND_ORGANIZATION ( #325, #354 ) ;
#115 = COORDINATED_UNIVERSAL_TIME_OFFSET ( 6, 0, .BEHIND. ) ;
#116 = DIRECTION ( 'NONE',  ( 1.000000000000000000, 0.000000000000000000, 0.000000000000000000 ) ) ;
#117 = VECTOR ( 'NONE', #201, 39.37007874015748143 ) ;
#118 = APPROVAL_ROLE ( '' ) ;
#119 = APPLICATION_PROTOCOL_DEFINITION ( 'international standard', 'config_control_design', 1994, #252 ) ;
#120 = CC_DESIGN_PERSON_AND_ORGANIZATION_ASSIGNMENT ( #85, #327, ( #5 ) ) ;
#121 = DIRECTION ( 'NONE',  ( 0.000000000000000000, 0.000000000000000000, 1.000000000000000000 ) ) ;
#122 = EDGE_CURVE ( 'NONE', #131, #154, #191, .T. ) ;
#123 = ADVANCED_FACE ( 'NONE', ( #218 ), #185, .T. ) ;
#124 = COORDINATED_UNIVERSAL_TIME_OFFSET ( 6, 0, .BEHIND. ) ;
#125 = LOCAL_TIME ( 11, 48, 16.00000000000000000, #192 ) ;
#126 = SECURITY_CLASSIFICATION ( '', '', #195 ) ;
#127 = CARTESIAN_POINT ( 'NONE',  ( 0.000000000000000000, 3.250000000000000000, -47.99999999999999289 ) ) ;
#128 = PERSON ( 'NAUO-PER1', 'UNSPECIFIED', 'UNSPECIFIED', ('UNSPECIFIED'), ('UNSPECIFIED'), ('UNSPECIFIED') ) ;
#129 = APPROVAL_PERSON_ORGANIZATION ( #255, #158, #164 ) ;
#130 = CC_DESIGN_DATE_AND_TIME_ASSIGNMENT ( #227, #165, ( #112 ) ) ;
#131 = VERTEX_POINT ( 'NONE', #239 ) ;
#132 = CC_DESIGN_PERSON_AND_ORGANIZATION_ASSIGNMENT ( #7, #29, ( #90 ) ) ;
#133 = ORIENTED_EDGE ( 'NONE', *, *, #65, .T. ) ;
#134 = DATE_TIME_ROLE ( 'classification_date' ) ;
#135 = LOCAL_TIME ( 11, 48, 16.00000000000000000, #113 ) ;
#136 = LOCAL_TIME ( 11, 48, 16.00000000000000000, #12 ) ;
#137 = APPROVAL_DATE_TIME ( #315, #343 ) ;
#138 = PERSON_AND_ORGANIZATION_ROLE ( 'classification_officer' ) ;
#139 = FACE_OUTER_BOUND ( 'NONE', #375, .T. ) ;
#140 = CALENDAR_DATE ( 2022, 4, 11 ) ;
#141 = CARTESIAN_POINT ( 'NONE',  ( 1.000000000000000000, 3.250000000000000000, -47.99999999999999289 ) ) ;
#142 = ADVANCED_FACE ( 'NONE', ( #139 ), #81, .T. ) ;
#143 = PERSON_AND_ORGANIZATION ( #325, #354 ) ;
#144 = APPROVAL_STATUS ( 'not_yet_approved' ) ;
#145 = DATE_AND_TIME ( #200, #263 ) ;
#146 = APPROVAL_STATUS ( 'not_yet_approved' ) ;
#147 = LOCAL_TIME ( 11, 48, 16.00000000000000000, #55 ) ;
#148 = APPLICATION_CONTEXT ( 'configuration controlled 3d designs of mechanical parts and assemblies' ) ;
#149 = DATE_AND_TIME ( #61, #95 ) ;
#150 = APPROVAL_ROLE ( '' ) ;
#151 = SECURITY_CLASSIFICATION ( '', '', #160 ) ;
#152 = CC_DESIGN_SECURITY_CLASSIFICATION ( #13, ( #90 ) ) ;
#153 = ORIENTED_EDGE ( 'NONE', *, *, #65, .F. ) ;
#154 = VERTEX_POINT ( 'NONE', #24 ) ;
#155 = CC_DESIGN_APPROVAL ( #319, ( #304 ) ) ;
#156 = VERTEX_POINT ( 'NONE', #141 ) ;
#157 = LOCAL_TIME ( 11, 48, 16.00000000000000000, #190 ) ;
#158 = APPROVAL ( #44, 'UNSPECIFIED' ) ;
#159 = ORIENTED_EDGE ( 'NONE', *, *, #198, .T. ) ;
#160 = SECURITY_CLASSIFICATION_LEVEL ( 'unclassified' ) ;
#161 = PERSON_AND_ORGANIZATION ( #325, #354 ) ;
#162 = PLANE ( 'NONE',  #16 ) ;
#163 = ADVANCED_FACE ( 'NONE', ( #314 ), #1, .T. ) ;
#164 = APPROVAL_ROLE ( '' ) ;
#165 = DATE_TIME_ROLE ( 'creation_date' ) ;
#166 = SHAPE_REPRESENTATION_RELATIONSHIP ( 'NONE' , 'NONE' ,  #249, #267 ) ;
#167 = DIRECTION ( 'NONE',  ( 0.000000000000000000, 0.000000000000000000, 1.000000000000000000 ) ) ;
#168 = CC_DESIGN_SECURITY_CLASSIFICATION ( #151, ( #292 ) ) ;
#169 = CC_DESIGN_DATE_AND_TIME_ASSIGNMENT ( #229, #134, ( #126 ) ) ;
#170 = COORDINATED_UNIVERSAL_TIME_OFFSET ( 6, 0, .BEHIND. ) ;
#171 = COORDINATED_UNIVERSAL_TIME_OFFSET ( 6, 0, .BEHIND. ) ;
#172 = PERSON_AND_ORGANIZATION_ROLE ( 'creator' ) ;
#173 = PERSON_AND_ORGANIZATION_ROLE ( 'creator' ) ;
#174 = PERSON_AND_ORGANIZATION ( #325, #354 ) ;
#175 = APPROVAL_PERSON_ORGANIZATION ( #288, #343, #23 ) ;
#176 = PERSON_AND_ORGANIZATION ( #325, #354 ) ;
#177 = SECURITY_CLASSIFICATION ( '', '', #47 ) ;
#178 = ADVANCED_FACE ( 'NONE', ( #356 ), #162, .F. ) ;
#179 = UNCERTAINTY_MEASURE_WITH_UNIT (LENGTH_MEASURE( 1.000000000000000082E-05 ), #60, 'distance_accuracy_value', 'NONE');
#180 = MECHANICAL_CONTEXT ( 'NONE', #333, 'mechanical' ) ;
#181 = CC_DESIGN_PERSON_AND_ORGANIZATION_ASSIGNMENT ( #143, #199, ( #112 ) ) ;
#182 = DATE_AND_TIME ( #64, #136 ) ;
#183 = LOCAL_TIME ( 11, 48, 16.00000000000000000, #98 ) ;
#184 = CC_DESIGN_APPROVAL ( #253, ( #126 ) ) ;
#185 = CYLINDRICAL_SURFACE ( 'NONE', #286, 1.000000000000000000 ) ;
#186 = PERSON_AND_ORGANIZATION_ROLE ( 'design_owner' ) ;
#187 = APPROVAL ( #189, 'UNSPECIFIED' ) ;
#188 = ORIENTED_EDGE ( 'NONE', *, *, #211, .T. ) ;
#189 = APPROVAL_STATUS ( 'not_yet_approved' ) ;
#190 = COORDINATED_UNIVERSAL_TIME_OFFSET ( 6, 0, .BEHIND. ) ;
#191 = LINE ( 'NONE', #39, #76 ) ;
#192 = COORDINATED_UNIVERSAL_TIME_OFFSET ( 6, 0, .BEHIND. ) ;
#193 = DIRECTION ( 'NONE',  ( 0.000000000000000000, 0.000000000000000000, 1.000000000000000000 ) ) ;
#194 = DATE_AND_TIME ( #74, #268 ) ;
#195 = SECURITY_CLASSIFICATION_LEVEL ( 'unclassified' ) ;
#196 = DIRECTION ( 'NONE',  ( 0.000000000000000000, 0.000000000000000000, 1.000000000000000000 ) ) ;
#197 = LOCAL_TIME ( 11, 48, 16.00000000000000000, #35 ) ;
#198 = EDGE_CURVE ( 'NONE', #156, #344, #50, .T. ) ;
#199 = PERSON_AND_ORGANIZATION_ROLE ( 'creator' ) ;
#200 = CALENDAR_DATE ( 2022, 4, 11 ) ;
#201 = DIRECTION ( 'NONE',  ( 0.000000000000000000, 0.000000000000000000, 1.000000000000000000 ) ) ;
#202 = CC_DESIGN_DATE_AND_TIME_ASSIGNMENT ( #203, #49, ( #151 ) ) ;
#203 = DATE_AND_TIME ( #285, #125 ) ;
#204 = DIRECTION ( 'NONE',  ( 0.000000000000000000, 0.000000000000000000, 1.000000000000000000 ) ) ;
#205 = APPROVAL_DATE_TIME ( #271, #231 ) ;
#206 = LOCAL_TIME ( 11, 48, 16.00000000000000000, #108 ) ;
#207 = CONTEXT_DEPENDENT_SHAPE_REPRESENTATION ( #339, #86 ) ;
#208 = DIRECTION ( 'NONE',  ( 0.000000000000000000, 0.000000000000000000, 1.000000000000000000 ) ) ;
#209 = APPROVAL_ROLE ( '' ) ;
#210 = LOCAL_TIME ( 11, 48, 16.00000000000000000, #58 ) ;
#211 = EDGE_CURVE ( 'NONE', #156, #131, #66, .T. ) ;
#212 = CARTESIAN_POINT ( 'NONE',  ( 0.000000000000000000, 0.000000000000000000, 0.000000000000000000 ) ) ;
#213 = APPROVAL ( #254, 'UNSPECIFIED' ) ;
#214 = APPROVAL_DATE_TIME ( #182, #322 ) ;
#215 = CC_DESIGN_PERSON_AND_ORGANIZATION_ASSIGNMENT ( #282, #186, ( #216 ) ) ;
#216 = PRODUCT ( 'gpVyrKOkzr_CADModel_0', 'gpVyrKOkzr_CADModel_0', '', ( #341 ) ) ;
#217 = APPLICATION_CONTEXT ( 'configuration controlled 3d designs of mechanical parts and assemblies' ) ;
#218 = FACE_OUTER_BOUND ( 'NONE', #280, .T. ) ;
#219 = AXIS2_PLACEMENT_3D ( 'NONE', #310, #260, #264 ) ;
#220 = CARTESIAN_POINT ( 'NONE',  ( 0.000000000000000000, 0.000000000000000000, 0.000000000000000000 ) ) ;
#221 = ORIENTED_EDGE ( 'NONE', *, *, #281, .F. ) ;
#222 = ORIENTED_EDGE ( 'NONE', *, *, #281, .T. ) ;
#223 = CLOSED_SHELL ( 'NONE', ( #163, #123, #178, #142 ) ) ;
#224 = LOCAL_TIME ( 11, 48, 16.00000000000000000, #170 ) ;
#225 = DIRECTION ( 'NONE',  ( 0.000000000000000000, 0.000000000000000000, 1.000000000000000000 ) ) ;
#226 = PRODUCT_DEFINITION_FORMATION_WITH_SPECIFIED_SOURCE ( 'ANY', '', #270, .NOT_KNOWN. ) ;
#227 = DATE_AND_TIME ( #77, #183 ) ;
#228 = CC_DESIGN_DATE_AND_TIME_ASSIGNMENT ( #11, #320, ( #13 ) ) ;
#229 = DATE_AND_TIME ( #46, #17 ) ;
#230 = DIRECTION ( 'NONE',  ( 1.000000000000000000, 0.000000000000000000, 0.000000000000000000 ) ) ;
#231 = APPROVAL ( #146, 'UNSPECIFIED' ) ;
#232 = CALENDAR_DATE ( 2022, 4, 11 ) ;
#233 = CARTESIAN_POINT ( 'NONE',  ( 0.000000000000000000, 3.250000000000000000, 0.000000000000000000 ) ) ;
#234 = LOCAL_TIME ( 11, 48, 16.00000000000000000, #350 ) ;
#235 = ORGANIZATION ( 'NAUO-ORG1', 'UNSPECIFIED', 'UNSPECIFIED' ) ;
#236 = DATE_AND_TIME ( #140, #135 ) ;
#237 = MANIFOLD_SOLID_BREP ( 'S0_a_shaft-1/S0_a_shaft-1-solid1', #223 ) ;
#238 = APPROVAL_ROLE ( '' ) ;
#239 = CARTESIAN_POINT ( 'NONE',  ( -1.000000000000000000, 3.250000000000000000, -47.99999999999999289 ) ) ;
#240 = PERSON_AND_ORGANIZATION ( #325, #354 ) ;
#241 = PRODUCT_DEFINITION ( 'UNKNOWN', '', #226, #57 ) ;
#242 = APPROVAL_PERSON_ORGANIZATION ( #382, #253, #365 ) ;
#243 = APPROVAL_DATE_TIME ( #380, #253 ) ;
#244 = APPROVAL_DATE_TIME ( #194, #187 ) ;
#245 = PERSON_AND_ORGANIZATION_ROLE ( 'classification_officer' ) ;
#246 = CALENDAR_DATE ( 2022, 4, 11 ) ;
#247 =( GEOMETRIC_REPRESENTATION_CONTEXT ( 3 ) GLOBAL_UNCERTAINTY_ASSIGNED_CONTEXT ( ( #179 ) ) GLOBAL_UNIT_ASSIGNED_CONTEXT ( ( #60, #345, #376 ) ) REPRESENTATION_CONTEXT ( 'NONE', 'WORKASPACE' ) );
#248 = CALENDAR_DATE ( 2022, 4, 11 ) ;
#249 = SHAPE_REPRESENTATION ( 'gpVyrKOkzr_CADModel_0', ( #372 ), #250 ) ;
#250 =( GEOMETRIC_REPRESENTATION_CONTEXT ( 3 ) GLOBAL_UNCERTAINTY_ASSIGNED_CONTEXT ( ( #330 ) ) GLOBAL_UNIT_ASSIGNED_CONTEXT ( ( #309, #30, #324 ) ) REPRESENTATION_CONTEXT ( 'NONE', 'WORKASPACE' ) );
#251 = APPROVAL_DATE_TIME ( #289, #158 ) ;
#252 = APPLICATION_CONTEXT ( 'configuration controlled 3d designs of mechanical parts and assemblies' ) ;
#253 = APPROVAL ( #6, 'UNKNOWN' ) ;
#254 = APPROVAL_STATUS ( 'not_yet_approved' ) ;
#255 = PERSON_AND_ORGANIZATION ( #325, #354 ) ;
#256 = CC_DESIGN_PERSON_AND_ORGANIZATION_ASSIGNMENT ( #79, #73, ( #151 ) ) ;
#257 = APPROVAL_ROLE ( '' ) ;
#258 = CALENDAR_DATE ( 2022, 4, 11 ) ;
#259 = DIRECTION ( 'NONE',  ( 1.000000000000000000, 0.000000000000000000, 0.000000000000000000 ) ) ;
#260 = DIRECTION ( 'NONE',  ( 0.000000000000000000, 0.000000000000000000, 1.000000000000000000 ) ) ;
#261 = AXIS2_PLACEMENT_3D ( 'NONE', #48, #204, #359 ) ;
#262 = SHAPE_REPRESENTATION ( 'ShaftRailAssembly_B336D01FE5', ( #26, #321 ), #247 ) ;
#263 = LOCAL_TIME ( 11, 48, 16.00000000000000000, #171 ) ;
#264 = DIRECTION ( 'NONE',  ( 1.000000000000000000, 0.000000000000000000, 0.000000000000000000 ) ) ;
#265 = APPLICATION_PROTOCOL_DEFINITION ( 'international standard', 'config_control_design', 1994, #333 ) ;
#266 = DIRECTION ( 'NONE',  ( 1.000000000000000000, 0.000000000000000000, 0.000000000000000000 ) ) ;
#267 = ADVANCED_BREP_SHAPE_REPRESENTATION ( '', ( #237, #372 ), #250 ) ;
#268 = LOCAL_TIME ( 11, 48, 16.00000000000000000, #107 ) ;
#269 = LOCAL_TIME ( 11, 48, 16.00000000000000000, #124 ) ;
#270 = PRODUCT ( 'gpVyrKOkzr_CADModel_0', 'gpVyrKOkzr_CADModel_0', '', ( #180 ) ) ;
#271 = DATE_AND_TIME ( #246, #224 ) ;
#272 = CC_DESIGN_PERSON_AND_ORGANIZATION_ASSIGNMENT ( #358, #43, ( #292 ) ) ;
#273 = DATE_AND_TIME ( #328, #210 ) ;
#274 = APPROVAL ( #316, 'UNSPECIFIED' ) ;
#275 = PERSON_AND_ORGANIZATION_ROLE ( 'creator' ) ;
#276 = DIRECTION ( 'NONE',  ( 0.000000000000000000, 0.000000000000000000, 1.000000000000000000 ) ) ;
#277 = DIRECTION ( 'NONE',  ( 0.000000000000000000, 0.000000000000000000, 1.000000000000000000 ) ) ;
#278 = APPROVAL_PERSON_ORGANIZATION ( #240, #319, #209 ) ;
#279 = CC_DESIGN_APPROVAL ( #322, ( #241 ) ) ;
#280 = EDGE_LOOP ( 'NONE', ( #67, #133, #159, #221 ) ) ;
#281 = EDGE_CURVE ( 'NONE', #154, #344, #305, .T. ) ;
#282 = PERSON_AND_ORGANIZATION ( #325, #354 ) ;
#283 = ORIENTED_EDGE ( 'NONE', *, *, #122, .T. ) ;
#284 = APPROVAL_DATE_TIME ( #145, #274 ) ;
#285 = CALENDAR_DATE ( 2022, 4, 11 ) ;
#286 = AXIS2_PLACEMENT_3D ( 'NONE', #361, #290, #381 ) ;
#287 = CARTESIAN_POINT ( 'NONE',  ( 0.000000000000000000, 3.250000000000000000, -47.99999999999999289 ) ) ;
#288 = PERSON_AND_ORGANIZATION ( #325, #354 ) ;
#289 = DATE_AND_TIME ( #232, #206 ) ;
#290 = DIRECTION ( 'NONE',  ( 0.000000000000000000, 0.000000000000000000, 1.000000000000000000 ) ) ;
#291 = APPLICATION_PROTOCOL_DEFINITION ( 'international standard', 'config_control_design', 1994, #87 ) ;
#292 = PRODUCT_DEFINITION_FORMATION_WITH_SPECIFIED_SOURCE ( 'ANY', '', #216, .NOT_KNOWN. ) ;
#293 = CC_DESIGN_APPROVAL ( #158, ( #226 ) ) ;
#294 = CC_DESIGN_PERSON_AND_ORGANIZATION_ASSIGNMENT ( #174, #295, ( #304 ) ) ;
#295 = PERSON_AND_ORGANIZATION_ROLE ( 'creator' ) ;
#296 = CALENDAR_DATE ( 2022, 4, 11 ) ;
#297 = DATE_AND_TIME ( #28, #14 ) ;
#298 = MECHANICAL_CONTEXT ( 'NONE', #148, 'mechanical' ) ;
#299 = CC_DESIGN_APPROVAL ( #231, ( #90 ) ) ;
#300 = CC_DESIGN_PERSON_AND_ORGANIZATION_ASSIGNMENT ( #42, #173, ( #226 ) ) ;
#301 = PERSON_AND_ORGANIZATION ( #325, #354 ) ;
#302 = DIRECTION ( 'NONE',  ( 1.000000000000000000, 0.000000000000000000, 0.000000000000000000 ) ) ;
#303 = APPROVAL_PERSON_ORGANIZATION ( #161, #274, #118 ) ;
#304 = PRODUCT_DEFINITION ( 'UNKNOWN', '', #90, #62 ) ;
#305 = CIRCLE ( 'NONE', #340, 1.000000000000000000 ) ;
#306 = ORIENTED_EDGE ( 'NONE', *, *, #357, .F. ) ;
#307 = CC_DESIGN_PERSON_AND_ORGANIZATION_ASSIGNMENT ( #382, #84, ( #126 ) ) ;
#308 = PERSON_AND_ORGANIZATION ( #325, #354 ) ;
#309 =( CONVERSION_BASED_UNIT ( 'INCH', #4 ) LENGTH_UNIT ( ) NAMED_UNIT ( #102 ) );
#310 = CARTESIAN_POINT ( 'NONE',  ( 0.000000000000000000, 3.250000000000000000, -47.99999999999999289 ) ) ;
#311 = APPROVAL_ROLE ( '' ) ;
#312 = APPROVAL_PERSON_ORGANIZATION ( #366, #322, #150 ) ;
#313 = COORDINATED_UNIVERSAL_TIME_OFFSET ( 6, 0, .BEHIND. ) ;
#314 = FACE_OUTER_BOUND ( 'NONE', #342, .T. ) ;
#315 = DATE_AND_TIME ( #21, #234 ) ;
#316 = APPROVAL_STATUS ( 'not_yet_approved' ) ;
#317 = CARTESIAN_POINT ( 'NONE',  ( 0.000000000000000000, 3.250000000000000000, 0.000000000000000000 ) ) ;
#318 =( LENGTH_UNIT ( ) NAMED_UNIT ( * ) SI_UNIT ( $, .METRE. ) );
#319 = APPROVAL ( #32, 'UNSPECIFIED' ) ;
#320 = DATE_TIME_ROLE ( 'classification_date' ) ;
#321 = AXIS2_PLACEMENT_3D ( 'NONE', #212, #88, #329 ) ;
#322 = APPROVAL ( #336, 'UNSPECIFIED' ) ;
#323 = PERSON_AND_ORGANIZATION_ROLE ( 'design_owner' ) ;
#324 =( NAMED_UNIT ( * ) SI_UNIT ( $, .STERADIAN. ) SOLID_ANGLE_UNIT ( ) );
#325 = PERSON ( 'UNSPECIFIED', 'UNSPECIFIED', 'UNSPECIFIED', ('UNSPECIFIED'), ('UNSPECIFIED'), ('UNSPECIFIED') ) ;
#326 = PERSON_AND_ORGANIZATION ( #325, #354 ) ;
#327 = PERSON_AND_ORGANIZATION_ROLE ( 'design_owner' ) ;
#328 = CALENDAR_DATE ( 2022, 4, 11 ) ;
#329 = DIRECTION ( 'NONE',  ( 1.000000000000000000, 0.000000000000000000, 0.000000000000000000 ) ) ;
#330 = UNCERTAINTY_MEASURE_WITH_UNIT (LENGTH_MEASURE( 1.000000000000000082E-05 ), #309, 'distance_accuracy_value', 'NONE');
#331 = PRODUCT_RELATED_PRODUCT_CATEGORY ( 'detail', '', ( #270 ) ) ;
#332 = AXIS2_PLACEMENT_3D ( 'NONE', #233, #193, #351 ) ;
#333 = APPLICATION_CONTEXT ( 'configuration controlled 3d designs of mechanical parts and assemblies' ) ;
#334 = CC_DESIGN_SECURITY_CLASSIFICATION ( #126, ( #383 ) ) ;
#335 = SHAPE_DEFINITION_REPRESENTATION ( #373, #262 ) ;
#336 = APPROVAL_STATUS ( 'not_yet_approved' ) ;
#337 = PRODUCT_RELATED_PRODUCT_CATEGORY ( 'detail', '', ( #216 ) ) ;
#338 = DIRECTION ( 'NONE',  ( 0.000000000000000000, 0.000000000000000000, 1.000000000000000000 ) ) ;
#339 =( REPRESENTATION_RELATIONSHIP ('NONE','NONE', #262, #249 ) REPRESENTATION_RELATIONSHIP_WITH_TRANSFORMATION ( #99 )SHAPE_REPRESENTATION_RELATIONSHIP( ) );
#340 = AXIS2_PLACEMENT_3D ( 'NONE', #109, #167, #230 ) ;
#341 = MECHANICAL_CONTEXT ( 'NONE', #217, 'mechanical' ) ;
#342 = EDGE_LOOP ( 'NONE', ( #188, #283, #306, #100 ) ) ;
#343 = APPROVAL ( #111, 'UNSPECIFIED' ) ;
#344 = VERTEX_POINT ( 'NONE', #75 ) ;
#345 =( NAMED_UNIT ( * ) PLANE_ANGLE_UNIT ( ) SI_UNIT ( $, .RADIAN. ) );
#346 = CC_DESIGN_DATE_AND_TIME_ASSIGNMENT ( #297, #355, ( #177 ) ) ;
#347 = EDGE_LOOP ( 'NONE', ( #96, #153 ) ) ;
#348 = APPROVAL_PERSON_ORGANIZATION ( #360, #231, #238 ) ;
#349 = APPROVAL_DATE_TIME ( #236, #213 ) ;
#350 = COORDINATED_UNIVERSAL_TIME_OFFSET ( 6, 0, .BEHIND. ) ;
#351 = DIRECTION ( 'NONE',  ( 1.000000000000000000, 0.000000000000000000, -0.000000000000000000 ) ) ;
#352 = PERSON_AND_ORGANIZATION_ROLE ( 'creator' ) ;
#353 = CARTESIAN_POINT ( 'NONE',  ( 1.000000000000000000, 3.250000000000000000, -47.99999999999999289 ) ) ;
#354 = ORGANIZATION ( 'UNSPECIFIED', 'UNSPECIFIED', '' ) ;
#355 = DATE_TIME_ROLE ( 'classification_date' ) ;
#356 = FACE_OUTER_BOUND ( 'NONE', #347, .T. ) ;
#357 = EDGE_CURVE ( 'NONE', #344, #154, #51, .T. ) ;
#358 = PERSON_AND_ORGANIZATION ( #325, #354 ) ;
#359 = DIRECTION ( 'NONE',  ( 1.000000000000000000, 0.000000000000000000, 0.000000000000000000 ) ) ;
#360 = PERSON_AND_ORGANIZATION ( #325, #354 ) ;
#361 = CARTESIAN_POINT ( 'NONE',  ( 0.000000000000000000, 3.250000000000000000, -47.99999999999999289 ) ) ;
#362 = CALENDAR_DATE ( 2022, 4, 11 ) ;
#363 = CC_DESIGN_APPROVAL ( #343, ( #112 ) ) ;
#364 = CC_DESIGN_APPROVAL ( #274, ( #177 ) ) ;
#365 = APPROVAL_ROLE ( '' ) ;
#366 = PERSON_AND_ORGANIZATION ( #325, #354 ) ;
#367 = CARTESIAN_POINT ( 'NONE',  ( 0.000000000000000000, 0.000000000000000000, 0.000000000000000000 ) ) ;
#368 = CC_DESIGN_DATE_AND_TIME_ASSIGNMENT ( #374, #92, ( #241 ) ) ;
#369 = APPLICATION_PROTOCOL_DEFINITION ( 'international standard', 'config_control_design', 1994, #148 ) ;
#370 = PERSON_AND_ORGANIZATION ( #325, #354 ) ;
#371 = CARTESIAN_POINT ( 'NONE',  ( 0.000000000000000000, 0.000000000000000000, 0.000000000000000000 ) ) ;
#372 = AXIS2_PLACEMENT_3D ( 'NONE', #367, #208, #266 ) ;
#373 = PRODUCT_DEFINITION_SHAPE ( 'NONE', 'NONE',  #304 ) ;
#374 = DATE_AND_TIME ( #248, #269 ) ;
#375 = EDGE_LOOP ( 'NONE', ( #378, #222 ) ) ;
#376 =( NAMED_UNIT ( * ) SI_UNIT ( $, .STERADIAN. ) SOLID_ANGLE_UNIT ( ) );
#377 = APPROVAL_PERSON_ORGANIZATION ( #176, #15, #3 ) ;
#378 = ORIENTED_EDGE ( 'NONE', *, *, #357, .T. ) ;
#379 = CIRCLE ( 'NONE', #101, 1.000000000000000000 ) ;
#380 = DATE_AND_TIME ( #258, #157 ) ;
#381 = DIRECTION ( 'NONE',  ( 1.000000000000000000, 0.000000000000000000, 0.000000000000000000 ) ) ;
#382 = PERSON_AND_ORGANIZATION ( #128, #235 ) ;
#383 = NEXT_ASSEMBLY_USAGE_OCCURRENCE ( 'NAUO1', ' ', ' ', #304, #241, $ ) ;
ENDSEC;
END-ISO-10303-21;
