ISO-10303-21;
HEADER;
FILE_DESCRIPTION (( 'STEP AP214' ),
    '1' );
FILE_NAME ('ShaftRailAssembly_AC6159151E.step',
    '2022-01-28T15:10:36',
    ( '' ),
    ( '' ),
    'SwSTEP 2.0',
    'SolidWorks 2019',
    '' );
FILE_SCHEMA (( 'AUTOMOTIVE_DESIGN' ));
ENDSEC;

DATA;
#1 =( GEOMETRIC_REPRESENTATION_CONTEXT ( 3 ) GLOBAL_UNCERTAINTY_ASSIGNED_CONTEXT ( ( #260 ) ) GLOBAL_UNIT_ASSIGNED_CONTEXT ( ( #131, #177, #158 ) ) REPRESENTATION_CONTEXT ( 'NONE', 'WORKASPACE' ) );
#2 = SURFACE_STYLE_FILL_AREA ( #48 ) ;
#3 = CARTESIAN_POINT ( 'NONE',  ( 0.000000000000000000, 2.362204999999999888, -39.37007899999999694 ) ) ;
#4 = PRODUCT_RELATED_PRODUCT_CATEGORY ( 'part', '', ( #245 ) ) ;
#5 = DIRECTION ( 'NONE',  ( 0.000000000000000000, 0.000000000000000000, 1.000000000000000000 ) ) ;
#6 = PRODUCT_DEFINITION_FORMATION_WITH_SPECIFIED_SOURCE ( 'ANY', '', #242, .NOT_KNOWN. ) ;
#7 = AXIS2_PLACEMENT_3D ( 'NONE', #98, #190, #231 ) ;
#8 = PRODUCT_DEFINITION_CONTEXT ( 'detailed design', #38, 'design' ) ;
#9 = DIRECTION ( 'NONE',  ( 0.000000000000000000, 0.000000000000000000, 1.000000000000000000 ) ) ;
#10 = CARTESIAN_POINT ( 'NONE',  ( 0.000000000000000000, 0.000000000000000000, 0.000000000000000000 ) ) ;
#11 = PRODUCT_DEFINITION_FORMATION_WITH_SPECIFIED_SOURCE ( 'ANY', '', #183, .NOT_KNOWN. ) ;
#12 = DIRECTION ( 'NONE',  ( 0.000000000000000000, 0.000000000000000000, 1.000000000000000000 ) ) ;
#13 = COLOUR_RGB ( '',0.7764705882352941346, 0.7764705882352941346, 0.8156862745098039102 ) ;
#14 = LENGTH_MEASURE_WITH_UNIT ( LENGTH_MEASURE( 0.02539999999999999897 ), #114 );
#15 =( LENGTH_UNIT ( ) NAMED_UNIT ( * ) SI_UNIT ( $, .METRE. ) );
#16 =( LENGTH_UNIT ( ) NAMED_UNIT ( * ) SI_UNIT ( $, .METRE. ) );
#17 = MECHANICAL_DESIGN_GEOMETRIC_PRESENTATION_REPRESENTATION (  '', ( #185 ), #178 ) ;
#18 = DIMENSIONAL_EXPONENTS ( 1.000000000000000000, 0.000000000000000000, 0.000000000000000000, 0.000000000000000000, 0.000000000000000000, 0.000000000000000000, 0.000000000000000000 ) ;
#19 =( GEOMETRIC_REPRESENTATION_CONTEXT ( 3 ) GLOBAL_UNCERTAINTY_ASSIGNED_CONTEXT ( ( #184 ) ) GLOBAL_UNIT_ASSIGNED_CONTEXT ( ( #138, #39, #163 ) ) REPRESENTATION_CONTEXT ( 'NONE', 'WORKASPACE' ) );
#20 =( LENGTH_UNIT ( ) NAMED_UNIT ( * ) SI_UNIT ( $, .METRE. ) );
#21 = APPLICATION_CONTEXT ( 'automotive_design' ) ;
#22 = LENGTH_MEASURE_WITH_UNIT ( LENGTH_MEASURE( 0.02539999999999999897 ), #126 );
#23 = ORIENTED_EDGE ( 'NONE', *, *, #119, .F. ) ;
#24 = APPLICATION_PROTOCOL_DEFINITION ( 'draft international standard', 'automotive_design', 1998, #21 ) ;
#25 = AXIS2_PLACEMENT_3D ( 'NONE', #149, #83, #101 ) ;
#26 = VERTEX_POINT ( 'NONE', #253 ) ;
#27 = CIRCLE ( 'NONE', #179, 0.7874014999999999764 ) ;
#28 = ORIENTED_EDGE ( 'NONE', *, *, #32, .F. ) ;
#29 = EDGE_LOOP ( 'NONE', ( #214, #65 ) ) ;
#30 = FILL_AREA_STYLE_COLOUR ( '', #241 ) ;
#31 = ORIENTED_EDGE ( 'NONE', *, *, #32, .T. ) ;
#32 = EDGE_CURVE ( 'NONE', #44, #216, #265, .T. ) ;
#33 = SURFACE_STYLE_USAGE ( .BOTH. , #40 ) ;
#34 = DIRECTION ( 'NONE',  ( 0.000000000000000000, 0.000000000000000000, 1.000000000000000000 ) ) ;
#35 = EDGE_CURVE ( 'NONE', #44, #26, #61, .T. ) ;
#36 = CYLINDRICAL_SURFACE ( 'NONE', #266, 0.7874014999999999764 ) ;
#37 =( NAMED_UNIT ( * ) PLANE_ANGLE_UNIT ( ) SI_UNIT ( $, .RADIAN. ) );
#38 = APPLICATION_CONTEXT ( 'automotive_design' ) ;
#39 =( NAMED_UNIT ( * ) PLANE_ANGLE_UNIT ( ) SI_UNIT ( $, .RADIAN. ) );
#40 = SURFACE_SIDE_STYLE ('',( #240 ) ) ;
#41 = SHAPE_REPRESENTATION ( 'ShaftRailAssembly_AC6159151E', ( #25, #208 ), #122 ) ;
#42 = DIRECTION ( 'NONE',  ( 0.000000000000000000, 0.000000000000000000, 1.000000000000000000 ) ) ;
#43 = SHAPE_REPRESENTATION ( 'tHxrbq1FL9_CADModel_0', ( #99 ), #236 ) ;
#44 = VERTEX_POINT ( 'NONE', #148 ) ;
#45 = LINE ( 'NONE', #125, #157 ) ;
#46 = PRESENTATION_STYLE_ASSIGNMENT (( #232 ) ) ;
#47 =( CONVERSION_BASED_UNIT ( 'INCH', #22 ) LENGTH_UNIT ( ) NAMED_UNIT ( #58 ) );
#48 = FILL_AREA_STYLE ('',( #30 ) ) ;
#49 = PRODUCT_DEFINITION_CONTEXT ( 'detailed design', #152, 'design' ) ;
#50 = CARTESIAN_POINT ( 'NONE',  ( 0.7874014999999999764, 2.362204999999999888, -39.37007899999999694 ) ) ;
#51 = FILL_AREA_STYLE ('',( #180 ) ) ;
#52 = PLANE ( 'NONE',  #62 ) ;
#53 = SURFACE_STYLE_FILL_AREA ( #225 ) ;
#54 = PRESENTATION_STYLE_ASSIGNMENT (( #33 ) ) ;
#55 = PRESENTATION_LAYER_ASSIGNMENT (  '', '', ( #218 ) ) ;
#56 =( NAMED_UNIT ( * ) SI_UNIT ( $, .STERADIAN. ) SOLID_ANGLE_UNIT ( ) );
#57 = FILL_AREA_STYLE ('',( #166 ) ) ;
#58 = DIMENSIONAL_EXPONENTS ( 1.000000000000000000, 0.000000000000000000, 0.000000000000000000, 0.000000000000000000, 0.000000000000000000, 0.000000000000000000, 0.000000000000000000 ) ;
#59 = CARTESIAN_POINT ( 'NONE',  ( 0.000000000000000000, 2.362204999999999888, -39.37007899999999694 ) ) ;
#60 = VERTEX_POINT ( 'NONE', #120 ) ;
#61 = LINE ( 'NONE', #153, #168 ) ;
#62 = AXIS2_PLACEMENT_3D ( 'NONE', #70, #133, #224 ) ;
#63 = CARTESIAN_POINT ( 'NONE',  ( 0.000000000000000000, 2.362204999999999888, -39.37007899999999694 ) ) ;
#64 = LENGTH_MEASURE_WITH_UNIT ( LENGTH_MEASURE( 0.02539999999999999897 ), #89 );
#65 = ORIENTED_EDGE ( 'NONE', *, *, #77, .T. ) ;
#66 = SURFACE_STYLE_FILL_AREA ( #259 ) ;
#67 = FILL_AREA_STYLE_COLOUR ( '', #13 ) ;
#68 =( GEOMETRIC_REPRESENTATION_CONTEXT ( 3 ) GLOBAL_UNCERTAINTY_ASSIGNED_CONTEXT ( ( #154 ) ) GLOBAL_UNIT_ASSIGNED_CONTEXT ( ( #132, #221, #219 ) ) REPRESENTATION_CONTEXT ( 'NONE', 'WORKASPACE' ) );
#69 =( NAMED_UNIT ( * ) PLANE_ANGLE_UNIT ( ) SI_UNIT ( $, .RADIAN. ) );
#70 = CARTESIAN_POINT ( 'NONE',  ( 0.000000000000000000, 2.362204999999999888, -39.37007899999999694 ) ) ;
#71 = CYLINDRICAL_SURFACE ( 'NONE', #270, 0.7874014999999999764 ) ;
#72 = UNCERTAINTY_MEASURE_WITH_UNIT (LENGTH_MEASURE( 1.000000000000000082E-05 ), #47, 'distance_accuracy_value', 'NONE');
#73 = PRODUCT_DEFINITION_SHAPE ( 'NONE', 'NONE',  #276 ) ;
#74 = SURFACE_SIDE_STYLE ('',( #76 ) ) ;
#75 =( CONVERSION_BASED_UNIT ( 'INCH', #164 ) LENGTH_UNIT ( ) NAMED_UNIT ( #243 ) );
#76 = SURFACE_STYLE_FILL_AREA ( #57 ) ;
#77 = EDGE_CURVE ( 'NONE', #26, #60, #272, .T. ) ;
#78 = STYLED_ITEM ( 'NONE', ( #238 ), #256 ) ;
#79 = COLOUR_RGB ( '',0.7764705882352941346, 0.7764705882352941346, 0.8156862745098039102 ) ;
#80 =( NAMED_UNIT ( * ) SI_UNIT ( $, .STERADIAN. ) SOLID_ANGLE_UNIT ( ) );
#81 = PRODUCT_CONTEXT ( 'NONE', #151, 'mechanical' ) ;
#82 = AXIS2_PLACEMENT_3D ( 'NONE', #145, #192, #268 ) ;
#83 = DIRECTION ( 'NONE',  ( 0.000000000000000000, 0.000000000000000000, 1.000000000000000000 ) ) ;
#84 = ORIENTED_EDGE ( 'NONE', *, *, #249, .T. ) ;
#85 = CONTEXT_DEPENDENT_SHAPE_REPRESENTATION ( #199, #73 ) ;
#86 = DIRECTION ( 'NONE',  ( 1.000000000000000000, 0.000000000000000000, 0.000000000000000000 ) ) ;
#87 = DIRECTION ( 'NONE',  ( 0.000000000000000000, 0.000000000000000000, 1.000000000000000000 ) ) ;
#88 = AXIS2_PLACEMENT_3D ( 'NONE', #222, #34, #106 ) ;
#89 =( LENGTH_UNIT ( ) NAMED_UNIT ( * ) SI_UNIT ( $, .METRE. ) );
#90 = SURFACE_SIDE_STYLE ('',( #109 ) ) ;
#91 = SURFACE_STYLE_USAGE ( .BOTH. , #74 ) ;
#92 = DIRECTION ( 'NONE',  ( 1.000000000000000000, 0.000000000000000000, 0.000000000000000000 ) ) ;
#93 =( CONVERSION_BASED_UNIT ( 'INCH', #14 ) LENGTH_UNIT ( ) NAMED_UNIT ( #18 ) );
#94 = MECHANICAL_DESIGN_GEOMETRIC_PRESENTATION_REPRESENTATION (  '', ( #78 ), #1 ) ;
#95 = DIMENSIONAL_EXPONENTS ( 1.000000000000000000, 0.000000000000000000, 0.000000000000000000, 0.000000000000000000, 0.000000000000000000, 0.000000000000000000, 0.000000000000000000 ) ;
#96 = PRODUCT_CONTEXT ( 'NONE', #137, 'mechanical' ) ;
#97 = SURFACE_STYLE_USAGE ( .BOTH. , #134 ) ;
#98 = CARTESIAN_POINT ( 'NONE',  ( 0.000000000000000000, 2.362204999999999888, 0.000000000000000000 ) ) ;
#99 = AXIS2_PLACEMENT_3D ( 'NONE', #10, #12, #92 ) ;
#100 = DIRECTION ( 'NONE',  ( 0.000000000000000000, 0.000000000000000000, 1.000000000000000000 ) ) ;
#101 = DIRECTION ( 'NONE',  ( 1.000000000000000000, 0.000000000000000000, 0.000000000000000000 ) ) ;
#102 = DIRECTION ( 'NONE',  ( 1.000000000000000000, 0.000000000000000000, 0.000000000000000000 ) ) ;
#103 = ORIENTED_EDGE ( 'NONE', *, *, #182, .F. ) ;
#104 = LENGTH_MEASURE_WITH_UNIT ( LENGTH_MEASURE( 0.02539999999999999897 ), #127 );
#105 = UNCERTAINTY_MEASURE_WITH_UNIT (LENGTH_MEASURE( 1.000000000000000082E-05 ), #93, 'distance_accuracy_value', 'NONE');
#106 = DIRECTION ( 'NONE',  ( 1.000000000000000000, 0.000000000000000000, -0.000000000000000000 ) ) ;
#107 = UNCERTAINTY_MEASURE_WITH_UNIT (LENGTH_MEASURE( 1.000000000000000082E-05 ), #234, 'distance_accuracy_value', 'NONE');
#108 = PRESENTATION_LAYER_ASSIGNMENT (  '', '', ( #185 ) ) ;
#109 = SURFACE_STYLE_FILL_AREA ( #51 ) ;
#110 =( NAMED_UNIT ( * ) PLANE_ANGLE_UNIT ( ) SI_UNIT ( $, .RADIAN. ) );
#111 =( LENGTH_UNIT ( ) NAMED_UNIT ( * ) SI_UNIT ( $, .METRE. ) );
#112 =( GEOMETRIC_REPRESENTATION_CONTEXT ( 3 ) GLOBAL_UNCERTAINTY_ASSIGNED_CONTEXT ( ( #105 ) ) GLOBAL_UNIT_ASSIGNED_CONTEXT ( ( #93, #69, #193 ) ) REPRESENTATION_CONTEXT ( 'NONE', 'WORKASPACE' ) );
#113 = LENGTH_MEASURE_WITH_UNIT ( LENGTH_MEASURE( 0.02539999999999999897 ), #16 );
#114 =( LENGTH_UNIT ( ) NAMED_UNIT ( * ) SI_UNIT ( $, .METRE. ) );
#115 = LENGTH_MEASURE_WITH_UNIT ( LENGTH_MEASURE( 0.02539999999999999897 ), #111 );
#116 = STYLED_ITEM ( 'NONE', ( #46 ), #261 ) ;
#117 = PRODUCT_DEFINITION_SHAPE ( 'NONE', 'NONE',  #233 ) ;
#118 = APPLICATION_PROTOCOL_DEFINITION ( 'draft international standard', 'automotive_design', 1998, #170 ) ;
#119 = EDGE_CURVE ( 'NONE', #216, #60, #45, .T. ) ;
#120 = CARTESIAN_POINT ( 'NONE',  ( 0.7874014999999999764, 2.362204999999999888, 0.000000000000000000 ) ) ;
#121 =( NAMED_UNIT ( * ) PLANE_ANGLE_UNIT ( ) SI_UNIT ( $, .RADIAN. ) );
#122 =( GEOMETRIC_REPRESENTATION_CONTEXT ( 3 ) GLOBAL_UNCERTAINTY_ASSIGNED_CONTEXT ( ( #72 ) ) GLOBAL_UNIT_ASSIGNED_CONTEXT ( ( #47, #121, #273 ) ) REPRESENTATION_CONTEXT ( 'NONE', 'WORKASPACE' ) );
#123 = ORIENTED_EDGE ( 'NONE', *, *, #119, .T. ) ;
#124 = UNCERTAINTY_MEASURE_WITH_UNIT (LENGTH_MEASURE( 1.000000000000000082E-05 ), #75, 'distance_accuracy_value', 'NONE');
#125 = CARTESIAN_POINT ( 'NONE',  ( 0.7874014999999999764, 2.362204999999999888, -39.37007899999999694 ) ) ;
#126 =( LENGTH_UNIT ( ) NAMED_UNIT ( * ) SI_UNIT ( $, .METRE. ) );
#127 =( LENGTH_UNIT ( ) NAMED_UNIT ( * ) SI_UNIT ( $, .METRE. ) );
#128 = ORIENTED_EDGE ( 'NONE', *, *, #35, .F. ) ;
#129 = DIRECTION ( 'NONE',  ( 0.000000000000000000, 0.000000000000000000, 1.000000000000000000 ) ) ;
#130 = PRODUCT_DEFINITION ( 'UNKNOWN', '', #160, #8 ) ;
#131 =( CONVERSION_BASED_UNIT ( 'INCH', #104 ) LENGTH_UNIT ( ) NAMED_UNIT ( #144 ) );
#132 =( CONVERSION_BASED_UNIT ( 'INCH', #176 ) LENGTH_UNIT ( ) NAMED_UNIT ( #140 ) );
#133 = DIRECTION ( 'NONE',  ( 0.000000000000000000, 0.000000000000000000, 1.000000000000000000 ) ) ;
#134 = SURFACE_SIDE_STYLE ('',( #53 ) ) ;
#135 = AXIS2_PLACEMENT_3D ( 'NONE', #275, #5, #220 ) ;
#136 = PRODUCT_DEFINITION_SHAPE ( 'NONE', 'NONE',  #130 ) ;
#137 = APPLICATION_CONTEXT ( 'automotive_design' ) ;
#138 =( CONVERSION_BASED_UNIT ( 'INCH', #115 ) LENGTH_UNIT ( ) NAMED_UNIT ( #95 ) );
#139 = ADVANCED_FACE ( 'NONE', ( #174 ), #52, .F. ) ;
#140 = DIMENSIONAL_EXPONENTS ( 1.000000000000000000, 0.000000000000000000, 0.000000000000000000, 0.000000000000000000, 0.000000000000000000, 0.000000000000000000, 0.000000000000000000 ) ;
#141 = COLOUR_RGB ( '',0.8980392156862745390, 0.9176470588235293713, 0.9294117647058823817 ) ;
#142 = MECHANICAL_DESIGN_GEOMETRIC_PRESENTATION_REPRESENTATION (  '', ( #218 ), #68 ) ;
#143 = PRODUCT_RELATED_PRODUCT_CATEGORY ( 'part', '', ( #242 ) ) ;
#144 = DIMENSIONAL_EXPONENTS ( 1.000000000000000000, 0.000000000000000000, 0.000000000000000000, 0.000000000000000000, 0.000000000000000000, 0.000000000000000000, 0.000000000000000000 ) ;
#145 = CARTESIAN_POINT ( 'NONE',  ( 0.000000000000000000, 0.000000000000000000, 0.000000000000000000 ) ) ;
#146 = PRESENTATION_LAYER_ASSIGNMENT (  '', '', ( #116 ) ) ;
#147 = SHAPE_DEFINITION_REPRESENTATION ( #136, #41 ) ;
#148 = CARTESIAN_POINT ( 'NONE',  ( -0.7874014999999999764, 2.362204999999999888, -39.37007899999999694 ) ) ;
#149 = CARTESIAN_POINT ( 'NONE',  ( 0.000000000000000000, 0.000000000000000000, 0.000000000000000000 ) ) ;
#150 = PRODUCT_DEFINITION_CONTEXT ( 'detailed design', #21, 'design' ) ;
#151 = APPLICATION_CONTEXT ( 'automotive_design' ) ;
#152 = APPLICATION_CONTEXT ( 'automotive_design' ) ;
#153 = CARTESIAN_POINT ( 'NONE',  ( -0.7874014999999999764, 2.362204999999999888, -39.37007899999999694 ) ) ;
#154 = UNCERTAINTY_MEASURE_WITH_UNIT (LENGTH_MEASURE( 1.000000000000000082E-05 ), #132, 'distance_accuracy_value', 'NONE');
#155 = DIRECTION ( 'NONE',  ( 1.000000000000000000, 0.000000000000000000, 0.000000000000000000 ) ) ;
#156 = MECHANICAL_DESIGN_GEOMETRIC_PRESENTATION_REPRESENTATION (  '', ( #186 ), #19 ) ;
#157 = VECTOR ( 'NONE', #87, 39.37007874015748143 ) ;
#158 =( NAMED_UNIT ( * ) SI_UNIT ( $, .STERADIAN. ) SOLID_ANGLE_UNIT ( ) );
#159 = FACE_OUTER_BOUND ( 'NONE', #258, .T. ) ;
#160 = PRODUCT_DEFINITION_FORMATION_WITH_SPECIFIED_SOURCE ( 'ANY', '', #245, .NOT_KNOWN. ) ;
#161 = PRODUCT_DEFINITION_SHAPE ( 'NONE', 'NONE',  #172 ) ;
#162 =( NAMED_UNIT ( * ) PLANE_ANGLE_UNIT ( ) SI_UNIT ( $, .RADIAN. ) );
#163 =( NAMED_UNIT ( * ) SI_UNIT ( $, .STERADIAN. ) SOLID_ANGLE_UNIT ( ) );
#164 = LENGTH_MEASURE_WITH_UNIT ( LENGTH_MEASURE( 0.02539999999999999897 ), #20 );
#165 = DIMENSIONAL_EXPONENTS ( 1.000000000000000000, 0.000000000000000000, 0.000000000000000000, 0.000000000000000000, 0.000000000000000000, 0.000000000000000000, 0.000000000000000000 ) ;
#166 = FILL_AREA_STYLE_COLOUR ( '', #141 ) ;
#167 = PRODUCT_CONTEXT ( 'NONE', #170, 'mechanical' ) ;
#168 = VECTOR ( 'NONE', #235, 39.37007874015748143 ) ;
#169 = MECHANICAL_DESIGN_GEOMETRIC_PRESENTATION_REPRESENTATION (  '', ( #211 ), #112 ) ;
#170 = APPLICATION_CONTEXT ( 'automotive_design' ) ;
#171 = DIRECTION ( 'NONE',  ( 0.000000000000000000, 0.000000000000000000, 1.000000000000000000 ) ) ;
#172 = PRODUCT_DEFINITION ( 'UNKNOWN', '', #6, #49 ) ;
#173 = FILL_AREA_STYLE_COLOUR ( '', #207 ) ;
#174 = FACE_OUTER_BOUND ( 'NONE', #194, .T. ) ;
#175 = FILL_AREA_STYLE_COLOUR ( '', #79 ) ;
#176 = LENGTH_MEASURE_WITH_UNIT ( LENGTH_MEASURE( 0.02539999999999999897 ), #15 );
#177 =( NAMED_UNIT ( * ) PLANE_ANGLE_UNIT ( ) SI_UNIT ( $, .RADIAN. ) );
#178 =( GEOMETRIC_REPRESENTATION_CONTEXT ( 3 ) GLOBAL_UNCERTAINTY_ASSIGNED_CONTEXT ( ( #124 ) ) GLOBAL_UNIT_ASSIGNED_CONTEXT ( ( #75, #162, #56 ) ) REPRESENTATION_CONTEXT ( 'NONE', 'WORKASPACE' ) );
#179 = AXIS2_PLACEMENT_3D ( 'NONE', #201, #9, #263 ) ;
#180 = FILL_AREA_STYLE_COLOUR ( '', #200 ) ;
#181 = ADVANCED_BREP_SHAPE_REPRESENTATION ( '', ( #261, #99 ), #236 ) ;
#182 = EDGE_CURVE ( 'NONE', #60, #26, #27, .T. ) ;
#183 = PRODUCT ( 'tHxrbq1FL9_CADModel_0', 'tHxrbq1FL9_CADModel_0', '', ( #81 ) ) ;
#184 = UNCERTAINTY_MEASURE_WITH_UNIT (LENGTH_MEASURE( 1.000000000000000082E-05 ), #138, 'distance_accuracy_value', 'NONE');
#185 = STYLED_ITEM ( 'NONE', ( #191 ), #264 ) ;
#186 = STYLED_ITEM ( 'NONE', ( #246 ), #181 ) ;
#187 = DIMENSIONAL_EXPONENTS ( 1.000000000000000000, 0.000000000000000000, 0.000000000000000000, 0.000000000000000000, 0.000000000000000000, 0.000000000000000000, 0.000000000000000000 ) ;
#188 = SURFACE_STYLE_USAGE ( .BOTH. , #90 ) ;
#189 = APPLICATION_PROTOCOL_DEFINITION ( 'draft international standard', 'automotive_design', 1998, #152 ) ;
#190 = DIRECTION ( 'NONE',  ( 0.000000000000000000, 0.000000000000000000, 1.000000000000000000 ) ) ;
#191 = PRESENTATION_STYLE_ASSIGNMENT (( #97 ) ) ;
#192 = DIRECTION ( 'NONE',  ( 0.000000000000000000, 0.000000000000000000, 1.000000000000000000 ) ) ;
#193 =( NAMED_UNIT ( * ) SI_UNIT ( $, .STERADIAN. ) SOLID_ANGLE_UNIT ( ) );
#194 = EDGE_LOOP ( 'NONE', ( #251, #28 ) ) ;
#195 = SURFACE_SIDE_STYLE ('',( #66 ) ) ;
#196 = MECHANICAL_DESIGN_GEOMETRIC_PRESENTATION_REPRESENTATION (  '', ( #116 ), #223 ) ;
#197 = DIRECTION ( 'NONE',  ( 0.000000000000000000, 0.000000000000000000, 1.000000000000000000 ) ) ;
#198 = UNCERTAINTY_MEASURE_WITH_UNIT (LENGTH_MEASURE( 1.000000000000000082E-05 ), #267, 'distance_accuracy_value', 'NONE');
#199 =( REPRESENTATION_RELATIONSHIP ('NONE','NONE', #41, #43 ) REPRESENTATION_RELATIONSHIP_WITH_TRANSFORMATION ( #250 )SHAPE_REPRESENTATION_RELATIONSHIP( ) );
#200 = COLOUR_RGB ( '',0.7764705882352941346, 0.7764705882352941346, 0.8156862745098039102 ) ;
#201 = CARTESIAN_POINT ( 'NONE',  ( 0.000000000000000000, 2.362204999999999888, 0.000000000000000000 ) ) ;
#202 =( NAMED_UNIT ( * ) SI_UNIT ( $, .STERADIAN. ) SOLID_ANGLE_UNIT ( ) );
#203 = FILL_AREA_STYLE ('',( #67 ) ) ;
#204 = PRODUCT_RELATED_PRODUCT_CATEGORY ( 'part', '', ( #183 ) ) ;
#205 = PRESENTATION_LAYER_ASSIGNMENT (  '', '', ( #211 ) ) ;
#206 = SHAPE_REPRESENTATION_RELATIONSHIP ( 'NONE' , 'NONE' ,  #43, #181 ) ;
#207 = COLOUR_RGB ( '',0.7764705882352941346, 0.7764705882352941346, 0.8156862745098039102 ) ;
#208 = AXIS2_PLACEMENT_3D ( 'NONE', #252, #100, #86 ) ;
#209 = ORIENTED_EDGE ( 'NONE', *, *, #35, .T. ) ;
#210 = APPLICATION_PROTOCOL_DEFINITION ( 'draft international standard', 'automotive_design', 1998, #151 ) ;
#211 = STYLED_ITEM ( 'NONE', ( #54 ), #237 ) ;
#212 = ORIENTED_EDGE ( 'NONE', *, *, #77, .F. ) ;
#213 = PLANE ( 'NONE',  #88 ) ;
#214 = ORIENTED_EDGE ( 'NONE', *, *, #182, .T. ) ;
#215 = FACE_OUTER_BOUND ( 'NONE', #29, .T. ) ;
#216 = VERTEX_POINT ( 'NONE', #50 ) ;
#217 = SURFACE_STYLE_USAGE ( .BOTH. , #195 ) ;
#218 = STYLED_ITEM ( 'NONE', ( #262 ), #139 ) ;
#219 =( NAMED_UNIT ( * ) SI_UNIT ( $, .STERADIAN. ) SOLID_ANGLE_UNIT ( ) );
#220 = DIRECTION ( 'NONE',  ( 1.000000000000000000, 0.000000000000000000, 0.000000000000000000 ) ) ;
#221 =( NAMED_UNIT ( * ) PLANE_ANGLE_UNIT ( ) SI_UNIT ( $, .RADIAN. ) );
#222 = CARTESIAN_POINT ( 'NONE',  ( 0.000000000000000000, 2.362204999999999888, 0.000000000000000000 ) ) ;
#223 =( GEOMETRIC_REPRESENTATION_CONTEXT ( 3 ) GLOBAL_UNCERTAINTY_ASSIGNED_CONTEXT ( ( #107 ) ) GLOBAL_UNIT_ASSIGNED_CONTEXT ( ( #234, #110, #202 ) ) REPRESENTATION_CONTEXT ( 'NONE', 'WORKASPACE' ) );
#224 = DIRECTION ( 'NONE',  ( 1.000000000000000000, 0.000000000000000000, -0.000000000000000000 ) ) ;
#225 = FILL_AREA_STYLE ('',( #173 ) ) ;
#226 = PRESENTATION_LAYER_ASSIGNMENT (  '', '', ( #78 ) ) ;
#227 = AXIS2_PLACEMENT_3D ( 'NONE', #274, #171, #269 ) ;
#228 = CLOSED_SHELL ( 'NONE', ( #264, #237, #139, #256 ) ) ;
#229 = APPLICATION_PROTOCOL_DEFINITION ( 'draft international standard', 'automotive_design', 1998, #38 ) ;
#230 = EDGE_LOOP ( 'NONE', ( #84, #209, #103, #23 ) ) ;
#231 = DIRECTION ( 'NONE',  ( 1.000000000000000000, 0.000000000000000000, 0.000000000000000000 ) ) ;
#232 = SURFACE_STYLE_USAGE ( .BOTH. , #255 ) ;
#233 = PRODUCT_DEFINITION ( 'UNKNOWN', '', #11, #150 ) ;
#234 =( CONVERSION_BASED_UNIT ( 'INCH', #64 ) LENGTH_UNIT ( ) NAMED_UNIT ( #187 ) );
#235 = DIRECTION ( 'NONE',  ( 0.000000000000000000, 0.000000000000000000, 1.000000000000000000 ) ) ;
#236 =( GEOMETRIC_REPRESENTATION_CONTEXT ( 3 ) GLOBAL_UNCERTAINTY_ASSIGNED_CONTEXT ( ( #198 ) ) GLOBAL_UNIT_ASSIGNED_CONTEXT ( ( #267, #37, #80 ) ) REPRESENTATION_CONTEXT ( 'NONE', 'WORKASPACE' ) );
#237 = ADVANCED_FACE ( 'NONE', ( #159 ), #36, .T. ) ;
#238 = PRESENTATION_STYLE_ASSIGNMENT (( #217 ) ) ;
#239 = FACE_OUTER_BOUND ( 'NONE', #230, .T. ) ;
#240 = SURFACE_STYLE_FILL_AREA ( #203 ) ;
#241 = COLOUR_RGB ( '',0.8980392156862745390, 0.9176470588235293713, 0.9294117647058823817 ) ;
#242 = PRODUCT ( 'tHxrbq1FL9_CADModel_0', 'tHxrbq1FL9_CADModel_0', '', ( #96 ) ) ;
#243 = DIMENSIONAL_EXPONENTS ( 1.000000000000000000, 0.000000000000000000, 0.000000000000000000, 0.000000000000000000, 0.000000000000000000, 0.000000000000000000, 0.000000000000000000 ) ;
#244 = DIRECTION ( 'NONE',  ( 1.000000000000000000, 0.000000000000000000, 0.000000000000000000 ) ) ;
#245 = PRODUCT ( 'ShaftRailAssembly_AC6159151E', 'ShaftRailAssembly_AC6159151E', '', ( #167 ) ) ;
#246 = PRESENTATION_STYLE_ASSIGNMENT (( #91 ) ) ;
#247 = APPLICATION_PROTOCOL_DEFINITION ( 'draft international standard', 'automotive_design', 1998, #137 ) ;
#248 = AXIS2_PLACEMENT_3D ( 'NONE', #63, #197, #155 ) ;
#249 = EDGE_CURVE ( 'NONE', #216, #44, #257, .T. ) ;
#250 = ITEM_DEFINED_TRANSFORMATION ( 'NONE', 'NONE', #208,  #99 ) ;
#251 = ORIENTED_EDGE ( 'NONE', *, *, #249, .F. ) ;
#252 = CARTESIAN_POINT ( 'NONE',  ( 0.000000000000000000, 0.000000000000000000, 0.000000000000000000 ) ) ;
#253 = CARTESIAN_POINT ( 'NONE',  ( -0.7874014999999999764, 2.362204999999999888, 0.000000000000000000 ) ) ;
#254 = SHAPE_DEFINITION_REPRESENTATION ( #161, #43 ) ;
#255 = SURFACE_SIDE_STYLE ('',( #2 ) ) ;
#256 = ADVANCED_FACE ( 'NONE', ( #215 ), #213, .T. ) ;
#257 = CIRCLE ( 'NONE', #135, 0.7874014999999999764 ) ;
#258 = EDGE_LOOP ( 'NONE', ( #128, #31, #123, #212 ) ) ;
#259 = FILL_AREA_STYLE ('',( #175 ) ) ;
#260 = UNCERTAINTY_MEASURE_WITH_UNIT (LENGTH_MEASURE( 1.000000000000000082E-05 ), #131, 'distance_accuracy_value', 'NONE');
#261 = MANIFOLD_SOLID_BREP ( 'S0_a_shaft-1/S0_a_shaft-1-solid1', #228 ) ;
#262 = PRESENTATION_STYLE_ASSIGNMENT (( #188 ) ) ;
#263 = DIRECTION ( 'NONE',  ( 1.000000000000000000, 0.000000000000000000, 0.000000000000000000 ) ) ;
#264 = ADVANCED_FACE ( 'NONE', ( #239 ), #71, .T. ) ;
#265 = CIRCLE ( 'NONE', #248, 0.7874014999999999764 ) ;
#266 = AXIS2_PLACEMENT_3D ( 'NONE', #3, #129, #102 ) ;
#267 =( CONVERSION_BASED_UNIT ( 'INCH', #113 ) LENGTH_UNIT ( ) NAMED_UNIT ( #165 ) );
#268 = DIRECTION ( 'NONE',  ( 1.000000000000000000, 0.000000000000000000, 0.000000000000000000 ) ) ;
#269 = DIRECTION ( 'NONE',  ( 1.000000000000000000, 0.000000000000000000, 0.000000000000000000 ) ) ;
#270 = AXIS2_PLACEMENT_3D ( 'NONE', #59, #42, #244 ) ;
#271 = PRESENTATION_LAYER_ASSIGNMENT (  '', '', ( #186 ) ) ;
#272 = CIRCLE ( 'NONE', #7, 0.7874014999999999764 ) ;
#273 =( NAMED_UNIT ( * ) SI_UNIT ( $, .STERADIAN. ) SOLID_ANGLE_UNIT ( ) );
#274 = CARTESIAN_POINT ( 'NONE',  ( 0.000000000000000000, 0.000000000000000000, 0.000000000000000000 ) ) ;
#275 = CARTESIAN_POINT ( 'NONE',  ( 0.000000000000000000, 2.362204999999999888, -39.37007899999999694 ) ) ;
#276 = NEXT_ASSEMBLY_USAGE_OCCURRENCE ( 'NAUO1', ' ', ' ', #130, #172, $ ) ;
ENDSEC;
END-ISO-10303-21;
