  0
SECTION
  2
HEADER
  9
$ACADVER
  1
AC1027
  9
$ACADMAINTVER
 70
   105
  9
$DWGCODEPAGE
  3
ANSI_1252
  9
$REQUIREDVERSIONS
160
                 0
  9
$INSBASE
 10
0.0
 20
0.0
 30
0.0
  9
$EXTMIN
 10
0.0
 20
0.0
 30
0.0
  9
$EXTMAX
 10
11.0
 20
8.5
 30
0.0
  9
$LIMMIN
 10
0.0
 20
0.0
  9
$LIMMAX
 10
11.0
 20
8.5
  9
$ORTHOMODE
 70
     0
  9
$REGENMODE
 70
     1
  9
$FILLMODE
 70
     1
  9
$QTEXTMODE
 70
     0
  9
$MIRRTEXT
 70
     1
  9
$LTSCALE
 40
1.0
  9
$ATTMODE
 70
     1
  9
$TEXTSIZE
 40
0.1377952756
  9
$TRACEWID
 40
0.05
  9
$TEXTSTYLE
  7
Standard
  9
$CLAYER
  8
0
  9
$CELTYPE
  6
ByLayer
  9
$CECOLOR
 62
   256
  9
$CELTSCALE
 40
1.0
  9
$DISPSILH
 70
     0
  9
$DIMSCALE
 40
1.0
  9
$DIMASZ
 40
0.13
  9
$DIMEXO
 40
0.0393700787
  9
$DIMDLI
 40
0.38
  9
$DIMRND
 40
0.0
  9
$DIMDLE
 40
0.0
  9
$DIMEXE
 40
0.0393700787
  9
$DIMTP
 40
0.0
  9
$DIMTM
 40
0.0
  9
$DIMTXT
 40
0.1377952756
  9
$DIMCEN
 40
0.09
  9
$DIMTSZ
 40
0.0
  9
$DIMTOL
 70
     0
  9
$DIMLIM
 70
     0
  9
$DIMTIH
 70
     1
  9
$DIMTOH
 70
     1
  9
$DIMSE1
 70
     0
  9
$DIMSE2
 70
     0
  9
$DIMTAD
 70
     1
  9
$DIMZIN
 70
     0
  9
$DIMBLK
  1

  9
$DIMASO
 70
     1
  9
$DIMSHO
 70
     1
  9
$DIMPOST
  1

  9
$DIMAPOST
  1

  9
$DIMALT
 70
     0
  9
$DIMALTD
 70
     2
  9
$DIMALTF
 40
25.4
  9
$DIMLFAC
 40
1.0
  9
$DIMTOFL
 70
     0
  9
$DIMTVP
 40
0.0
  9
$DIMTIX
 70
     0
  9
$DIMSOXD
 70
     0
  9
$DIMSAH
 70
     0
  9
$DIMBLK1
  1

  9
$DIMBLK2
  1

  9
$DIMSTYLE
  2
Standard
  9
$DIMCLRD
 70
     0
  9
$DIMCLRE
 70
     0
  9
$DIMCLRT
 70
     0
  9
$DIMTFAC
 40
1.0
  9
$DIMGAP
 40
0.06
  9
$DIMJUST
 70
     0
  9
$DIMSD1
 70
     0
  9
$DIMSD2
 70
     0
  9
$DIMTOLJ
 70
     1
  9
$DIMTZIN
 70
     0
  9
$DIMALTZ
 70
     0
  9
$DIMALTTZ
 70
     0
  9
$DIMUPT
 70
     0
  9
$DIMDEC
 70
     2
  9
$DIMTDEC
 70
     2
  9
$DIMALTU
 70
     2
  9
$DIMALTTD
 70
     2
  9
$DIMTXSTY
  7
Standard
  9
$DIMAUNIT
 70
     0
  9
$DIMADEC
 70
     2
  9
$DIMALTRND
 40
0.0
  9
$DIMAZIN
 70
     0
  9
$DIMDSEP
 70
    46
  9
$DIMATFIT
 70
     3
  9
$DIMFRAC
 70
     0
  9
$DIMLDRBLK
  1

  9
$DIMLUNIT
 70
     2
  9
$DIMLWD
 70
    -2
  9
$DIMLWE
 70
    -2
  9
$DIMTMOVE
 70
     0
  9
$DIMFXL
 40
1.0
  9
$DIMFXLON
 70
     0
  9
$DIMJOGANG
 40
0.7853981634
  9
$DIMTFILL
 70
     0
  9
$DIMTFILLCLR
 70
     0
  9
$DIMARCSYM
 70
     0
  9
$DIMLTYPE
  6

  9
$DIMLTEX1
  6

  9
$DIMLTEX2
  6

  9
$DIMTXTDIRECTION
 70
     0
  9
$LUNITS
 70
     2
  9
$LUPREC
 70
     2
  9
$SKETCHINC
 40
0.1
  9
$FILLETRAD
 40
0.5
  9
$AUNITS
 70
     0
  9
$AUPREC
 70
     2
  9
$MENU
  1
.
  9
$ELEVATION
 40
0.0
  9
$PELEVATION
 40
0.0
  9
$THICKNESS
 40
0.0
  9
$LIMCHECK
 70
     0
  9
$CHAMFERA
 40
0.0
  9
$CHAMFERB
 40
0.0
  9
$CHAMFERC
 40
0.0
  9
$CHAMFERD
 40
0.0
  9
$SKPOLY
 70
     0
  9
$TDCREATE
 40
2460003.526084317
  9
$TDUCREATE
 40
2460003.776084317
  9
$TDUPDATE
 40
2460003.526089387
  9
$TDUUPDATE
 40
2460003.776089387
  9
$TDINDWG
 40
0.0000000116
  9
$TDUSRTIMER
 40
0.0000000116
  9
$USRTIMER
 70
     1
  9
$ANGBASE
 50
0.0
  9
$ANGDIR
 70
     0
  9
$PDMODE
 70
     0
  9
$PDSIZE
 40
-1.0
  9
$PLINEWID
 40
0.0
  9
$SPLFRAME
 70
     0
  9
$SPLINETYPE
 70
     6
  9
$SPLINESEGS
 70
     8
  9
$HANDSEED
  5
20B
  9
$SURFTAB1
 70
     6
  9
$SURFTAB2
 70
     6
  9
$SURFTYPE
 70
     6
  9
$SURFU
 70
     6
  9
$SURFV
 70
     6
  9
$UCSBASE
  2

  9
$UCSNAME
  2

  9
$UCSORG
 10
0.0
 20
0.0
 30
0.0
  9
$UCSXDIR
 10
1.0
 20
0.0
 30
0.0
  9
$UCSYDIR
 10
0.0
 20
1.0
 30
0.0
  9
$UCSORTHOREF
  2

  9
$UCSORTHOVIEW
 70
     0
  9
$UCSORGTOP
 10
0.0
 20
0.0
 30
0.0
  9
$UCSORGBOTTOM
 10
0.0
 20
0.0
 30
0.0
  9
$UCSORGLEFT
 10
0.0
 20
0.0
 30
0.0
  9
$UCSORGRIGHT
 10
0.0
 20
0.0
 30
0.0
  9
$UCSORGFRONT
 10
0.0
 20
0.0
 30
0.0
  9
$UCSORGBACK
 10
0.0
 20
0.0
 30
0.0
  9
$PUCSBASE
  2

  9
$PUCSNAME
  2

  9
$PUCSORG
 10
0.0
 20
0.0
 30
0.0
  9
$PUCSXDIR
 10
1.0
 20
0.0
 30
0.0
  9
$PUCSYDIR
 10
0.0
 20
1.0
 30
0.0
  9
$PUCSORTHOREF
  2

  9
$PUCSORTHOVIEW
 70
     0
  9
$PUCSORGTOP
 10
0.0
 20
0.0
 30
0.0
  9
$PUCSORGBOTTOM
 10
0.0
 20
0.0
 30
0.0
  9
$PUCSORGLEFT
 10
0.0
 20
0.0
 30
0.0
  9
$PUCSORGRIGHT
 10
0.0
 20
0.0
 30
0.0
  9
$PUCSORGFRONT
 10
0.0
 20
0.0
 30
0.0
  9
$PUCSORGBACK
 10
0.0
 20
0.0
 30
0.0
  9
$USERI1
 70
     0
  9
$USERI2
 70
     0
  9
$USERI3
 70
     0
  9
$USERI4
 70
     0
  9
$USERI5
 70
     0
  9
$USERR1
 40
0.0
  9
$USERR2
 40
0.0
  9
$USERR3
 40
0.0
  9
$USERR4
 40
0.0
  9
$USERR5
 40
0.0
  9
$WORLDVIEW
 70
     1
  9
$SHADEDGE
 70
     3
  9
$SHADEDIF
 70
    70
  9
$TILEMODE
 70
     1
  9
$MAXACTVP
 70
    64
  9
$PINSBASE
 10
0.0
 20
0.0
 30
0.0
  9
$PLIMCHECK
 70
     0
  9
$PEXTMIN
 10
0.0
 20
0.0
 30
0.0
  9
$PEXTMAX
 10
11.0
 20
8.5
 30
0.0
  9
$PLIMMIN
 10
0.0
 20
0.0
  9
$PLIMMAX
 10
11.0
 20
8.5
  9
$UNITMODE
 70
     0
  9
$VISRETAIN
 70
     1
  9
$PLINEGEN
 70
     0
  9
$PSLTSCALE
 70
     1
  9
$TREEDEPTH
 70
  3020
  9
$CMLSTYLE
  2
Standard
  9
$CMLJUST
 70
     0
  9
$CMLSCALE
 40
1.0
  9
$PROXYGRAPHICS
 70
     1
  9
$MEASUREMENT
 70
     0
  9
$CELWEIGHT
370
    -1
  9
$ENDCAPS
280
     0
  9
$JOINSTYLE
280
     0
  9
$LWDISPLAY
290
     1
  9
$INSUNITS
 70
     1
  9
$HYPERLINKBASE
  1

  9
$STYLESHEET
  1

  9
$XEDIT
290
     1
  9
$CEPSNTYPE
380
     0
  9
$PSTYLEMODE
290
     1
  9
$FINGERPRINTGUID
  2
{abfd19e1-5375-4728-83c6-ac22f673fc6e}
  9
$VERSIONGUID
  2
{FAEB1C32-E019-11D5-929B-00C0DF256EC4}
  9
$EXTNAMES
290
     1
  9
$PSVPSCALE
 40
0.0
  9
$OLESTARTUP
290
     0
  9
$SORTENTS
280
   127
  9
$INDEXCTL
280
     0
  9
$HIDETEXT
280
     1
  9
$XCLIPFRAME
280
     2
  9
$HALOGAP
280
     0
  9
$OBSCOLOR
 70
   257
  9
$OBSLTYPE
280
     0
  9
$INTERSECTIONDISPLAY
280
     0
  9
$INTERSECTIONCOLOR
 70
   257
  9
$DIMASSOC
280
     2
  9
$PROJECTNAME
  1

  9
$CAMERADISPLAY
290
     0
  9
$LENSLENGTH
 40
50.0
  9
$CAMERAHEIGHT
 40
0.0
  9
$STEPSPERSEC
 40
2.0
  9
$STEPSIZE
 40
6.0
  9
$3DDWFPREC
 40
2.0
  9
$PSOLWIDTH
 40
0.25
  9
$PSOLHEIGHT
 40
4.0
  9
$LOFTANG1
 40
1.5707963268
  9
$LOFTANG2
 40
1.5707963268
  9
$LOFTMAG1
 40
0.0
  9
$LOFTMAG2
 40
0.0
  9
$LOFTPARAM
 70
     7
  9
$LOFTNORMALS
280
     1
  9
$LATITUDE
 40
37.795
  9
$LONGITUDE
 40
-122.394
  9
$NORTHDIRECTION
 40
0.0
  9
$TIMEZONE
 70
 -8000
  9
$LIGHTGLYPHDISPLAY
280
     1
  9
$TILEMODELIGHTSYNCH
280
     1
  9
$CMATERIAL
347
44
  9
$SOLIDHIST
280
     0
  9
$SHOWHIST
280
     1
  9
$DWFFRAME
280
     2
  9
$DGNFRAME
280
     2
  9
$REALWORLDSCALE
290
     1
  9
$INTERFERECOLOR
 62
   256
  9
$CSHADOW
280
     0
  9
$SHADOWPLANELOCATION
 40
0.0
  0
ENDSEC
  0
SECTION
  2
CLASSES
  0
CLASS
  1
ACDBDICTIONARYWDFLT
  2
AcDbDictionaryWithDefault
  3
ObjectDBX Classes
 90
        0
 91
        3
280
     0
281
     0
  0
CLASS
  1
VISUALSTYLE
  2
AcDbVisualStyle
  3
ObjectDBX Classes
 90
     4095
 91
        3
280
     0
281
     0
  0
CLASS
  1
MATERIAL
  2
AcDbMaterial
  3
ObjectDBX Classes
 90
     1153
 91
        3
280
     0
281
     0
  0
CLASS
  1
SCALE
  2
AcDbScale
  3
ObjectDBX Classes
 90
     1153
 91
        3
280
     0
281
     0
  0
CLASS
  1
TABLESTYLE
  2
AcDbTableStyle
  3
ObjectDBX Classes
 90
     4095
 91
        3
280
     0
281
     0
  0
CLASS
  1
MLEADERSTYLE
  2
AcDbMLeaderStyle
  3
ACDB_MLEADERSTYLE_CLASS
 90
     4095
 91
        3
280
     0
281
     0
  0
CLASS
  1
SUN
  2
AcDbSun
  3
SCENEOE
 90
     1153
 91
        3
280
     0
281
     0
  0
CLASS
  1
DICTIONARYVAR
  2
AcDbDictionaryVar
  3
ObjectDBX Classes
 90
        0
 91
        3
280
     0
281
     0
  0
CLASS
  1
CELLSTYLEMAP
  2
AcDbCellStyleMap
  3
ObjectDBX Classes
 90
     1152
 91
        3
280
     0
281
     0
  0
ENDSEC
  0
SECTION
  2
TABLES
  0
TABLE
  2
VPORT
  5
8
330
0
100
AcDbSymbolTable
 70
     1
  0
VPORT
  5
29
330
8
100
AcDbSymbolTableRecord
100
AcDbViewportTableRecord
  2
*Active
 70
     0
 10
0.0
 20
0.0
 11
1.0
 21
1.0
 12
5.5
 22
4.25
 13
0.0
 23
0.0
 14
0.5
 24
0.5
 15
0.5
 25
0.5
 16
0.0
 26
0.0
 36
1.0
 17
0.0
 27
0.0
 37
0.0
 40
8.5
 41
1.2941176471
 42
50.0
 43
0.0
 44
0.0
 50
0.0
 51
0.0
 71
     0
 72
  2000
 73
     1
 74
     3
 75
     0
 76
     0
 77
     0
 78
     0
281
     0
 65
     1
110
0.0
120
0.0
130
0.0
111
1.0
121
0.0
131
0.0
112
0.0
122
1.0
132
0.0
 79
     0
146
0.0
348
2F
 60
     3
 61
     5
292
     1
282
     1
141
0.0
142
0.0
 63
   250
361
6D
  0
ENDTAB
  0
TABLE
  2
LTYPE
  5
5
330
0
100
AcDbSymbolTable
 70
     6
  0
LTYPE
  5
14
330
5
100
AcDbSymbolTableRecord
100
AcDbLinetypeTableRecord
  2
ByBlock
 70
     0
  3

 72
    65
 73
     0
 40
0.0
  0
LTYPE
  5
15
330
5
100
AcDbSymbolTableRecord
100
AcDbLinetypeTableRecord
  2
ByLayer
 70
     0
  3

 72
    65
 73
     0
 40
0.0
  0
LTYPE
  5
16
330
5
100
AcDbSymbolTableRecord
100
AcDbLinetypeTableRecord
  2
Continuous
 70
     0
  3
Solid line
 72
    65
 73
     0
 40
0.0
  0
LTYPE
  5
6E
330
5
100
AcDbSymbolTableRecord
100
AcDbLinetypeTableRecord
  2
HIDDEN
 70
     0
  3
Hidden __ __ __ __ __ __ __ __ __ __ __ __ __ __
 72
    65
 73
     2
 40
0.075
 49
0.05
 74
     0
 49
-0.025
 74
     0
  0
LTYPE
  5
6F
330
5
100
AcDbSymbolTableRecord
100
AcDbLinetypeTableRecord
  2
PHANTOM
 70
     0
  3
Phantom ______  __  __  ______  __  __  ______
 72
    65
 73
     6
 40
0.5
 49
0.25
 74
     0
 49
-0.05
 74
     0
 49
0.05
 74
     0
 49
-0.05
 74
     0
 49
0.05
 74
     0
 49
-0.05
 74
     0
  0
LTYPE
  5
70
330
5
100
AcDbSymbolTableRecord
100
AcDbLinetypeTableRecord
  2
CENTER
 70
     0
  3
Center ____ _ ____ _ ____ _ ____ _ ____ _ ____
 72
    65
 73
     4
 40
0.4
 49
0.25
 74
     0
 49
-0.05
 74
     0
 49
0.05
 74
     0
 49
-0.05
 74
     0
  0
LTYPE
  5
71
330
5
100
AcDbSymbolTableRecord
100
AcDbLinetypeTableRecord
  2
CENTERX2
 70
     0
  3
Center (2x) ________  __  ________  __  _____
 72
    65
 73
     4
 40
0.8
 49
0.5
 74
     0
 49
-0.1
 74
     0
 49
0.1
 74
     0
 49
-0.1
 74
     0
  0
LTYPE
  5
72
330
5
100
AcDbSymbolTableRecord
100
AcDbLinetypeTableRecord
  2
DOT2
 70
     0
  3
Dot (.5x) ........................................
 72
    65
 73
     2
 40
0.025
 49
0.0
 74
     0
 49
-0.025
 74
     0
  0
ENDTAB
  0
TABLE
  2
LAYER
  5
2
330
0
100
AcDbSymbolTable
 70
     2
  0
LAYER
  5
10
330
2
100
AcDbSymbolTableRecord
100
AcDbLayerTableRecord
  2
0
 70
     0
 62
     7
  6
Continuous
370
    -3
390
F
347
46
348
0
  0
LAYER
  5
73
330
2
100
AcDbSymbolTableRecord
100
AcDbLayerTableRecord
  2
FORMAT
 70
     0
 62
     7
  6
Continuous
370
    -3
390
F
347
46
348
0
  0
ENDTAB
  0
TABLE
  2
STYLE
  5
3
330
0
100
AcDbSymbolTable
 70
     1
  0
STYLE
  5
11
330
3
100
AcDbSymbolTableRecord
100
AcDbTextStyleTableRecord
  2
Standard
 70
     0
 40
0.0
 41
1.0
 50
0.0
 71
     0
 42
0.1377952756
  3
txt
  4

  0
ENDTAB
  0
TABLE
  2
VIEW
  5
6
330
0
100
AcDbSymbolTable
 70
     0
  0
ENDTAB
  0
TABLE
  2
UCS
  5
7
330
0
100
AcDbSymbolTable
 70
     0
  0
ENDTAB
  0
TABLE
  2
APPID
  5
9
330
0
100
AcDbSymbolTable
 70
     1
  0
APPID
  5
12
330
9
100
AcDbSymbolTableRecord
100
AcDbRegAppTableRecord
  2
ACAD
 70
     0
  0
ENDTAB
  0
TABLE
  2
DIMSTYLE
  5
A
330
0
100
AcDbSymbolTable
 70
     1
100
AcDbDimStyleTable
  0
DIMSTYLE
105
27
330
A
100
AcDbSymbolTableRecord
100
AcDbDimStyleTableRecord
  2
Standard
 70
     0
178
     0
340
11
  0
ENDTAB
  0
TABLE
  2
BLOCK_RECORD
  5
1
330
0
100
AcDbSymbolTable
 70
     3
  0
BLOCK_RECORD
  5
1F
330
1
100
AcDbSymbolTableRecord
100
AcDbBlockTableRecord
  2
*Model_Space
340
22
 70
     0
280
     1
281
     0
  0
BLOCK_RECORD
  5
1B
330
1
100
AcDbSymbolTableRecord
100
AcDbBlockTableRecord
  2
*Paper_Space
340
1E
 70
     0
280
     1
281
     0
  0
BLOCK_RECORD
  5
23
330
1
100
AcDbSymbolTableRecord
100
AcDbBlockTableRecord
  2
*Paper_Space0
340
26
 70
     0
280
     1
281
     0
  0
BLOCK_RECORD
  5
DB
330
1
100
AcDbSymbolTableRecord
100
AcDbBlockTableRecord
  2
*Paper_Space1
340
DC
 70
     0
280
     1
281
     0
  0
BLOCK_RECORD
  5
1C7
330
1
100
AcDbSymbolTableRecord
100
AcDbBlockTableRecord
  2
*Paper_Space2
340
1C8
 70
     0
280
     1
281
     0
  0
ENDTAB
  0
ENDSEC
  0
SECTION
  2
BLOCKS
  0
BLOCK
  5
20
330
1F
100
AcDbEntity
  8
0
100
AcDbBlockBegin
  2
*Model_Space
 70
     0
 10
0.0
 20
0.0
 30
0.0
  3
*Model_Space
  1

  0
ENDBLK
  5
21
330
1F
100
AcDbEntity
  8
0
100
AcDbBlockEnd
  0
BLOCK
  5
1C
330
1B
100
AcDbEntity
 67
     1
  8
0
100
AcDbBlockBegin
  2
*Paper_Space
 70
     0
 10
0.0
 20
0.0
 30
0.0
  3
*Paper_Space
  1

  0
ENDBLK
  5
1D
330
1B
100
AcDbEntity
 67
     1
  8
0
100
AcDbBlockEnd
  0
BLOCK
  5
24
330
23
100
AcDbEntity
  8
0
100
AcDbBlockBegin
  2
*Paper_Space0
 70
     0
 10
0.0
 20
0.0
 30
0.0
  3
*Paper_Space0
  1

  0
LINE
  5
CE
330
23
100
AcDbEntity
  8
0
  6
Continuous
 62
     7
370
    25
100
AcDbLine
 10
1.6700306464
 20
0.17
 30
0.0
 11
0.1700306464
 21
0.17
 31
0.0
  0
LINE
  5
CF
330
23
100
AcDbEntity
  8
0
  6
Continuous
 62
     7
370
    25
100
AcDbLine
 10
0.1700306464
 20
0.17
 30
0.0
 11
0.1700306464
 21
0.42
 31
0.0
  0
LINE
  5
D0
330
23
100
AcDbEntity
  8
0
  6
Continuous
 62
     7
370
    25
100
AcDbLine
 10
1.6700306464
 20
0.42
 30
0.0
 11
1.6700306464
 21
0.17
 31
0.0
  0
LINE
  5
D1
330
23
100
AcDbEntity
  8
0
  6
Continuous
 62
     7
370
    25
100
AcDbLine
 10
0.1700306464
 20
0.42
 30
0.0
 11
1.6700306464
 21
0.42
 31
0.0
  0
LINE
  5
D2
330
23
100
AcDbEntity
  8
0
  6
Continuous
 62
     7
370
    25
100
AcDbLine
 10
0.1700306464
 20
0.42
 30
0.0
 11
0.1700306464
 21
1.295
 31
0.0
  0
LINE
  5
D3
330
23
100
AcDbEntity
  8
0
  6
Continuous
 62
     7
370
    25
100
AcDbLine
 10
0.1700306464
 20
1.295
 30
0.0
 11
0.2158564033
 21
1.295
 31
0.0
  0
LWPOLYLINE
  5
D4
330
23
100
AcDbEntity
  8
0
  6
Continuous
 62
     7
370
    25
100
AcDbPolyline
 90
       17
 70
   128
 43
0.0
 10
0.2312678899
 20
1.265
 10
0.231231612
 20
1.2682714438
 10
0.2311179685
 20
1.2715123271
 10
0.2309197447
 20
1.2746620283
 10
0.2306244702
 20
1.2776905301
 10
0.2302142622
 20
1.2805681589
 10
0.2296734552
 20
1.2832390342
 10
0.2289901243
 20
1.2856422332
 10
0.2281415994
 20
1.2877990724
 10
0.2271208412
 20
1.2896738623
 10
0.2259330314
 20
1.2912309161
 10
0.2245629105
 20
1.2925077541
 10
0.2230220848
 20
1.2935019569
 10
0.2212149396
 20
1.2942557885
 10
0.2192317795
 20
1.2947363535
 10
0.2170968352
 20
1.294968338
 10
0.2158564033
 20
1.295
  0
LINE
  5
D5
330
23
100
AcDbEntity
  8
0
  6
Continuous
 62
     7
370
    25
100
AcDbLine
 10
0.2312678899
 20
1.265
 30
0.0
 11
0.2312678899
 21
0.42
 31
0.0
  0
LINE
  5
D6
330
23
100
AcDbEntity
  8
0
  6
Continuous
 62
     7
370
    25
100
AcDbLine
 10
1.6700306464
 20
1.265
 30
0.0
 11
0.2312678899
 21
1.265
 31
0.0
  0
CIRCLE
  5
D7
330
23
100
AcDbEntity
  8
0
  6
Continuous
 62
     7
370
    25
100
AcDbCircle
 10
0.9200306464
 20
0.732
 30
0.0
 40
0.0395000000000005
  0
LINE
  5
D8
330
23
100
AcDbEntity
  8
0
  6
Continuous
 62
     7
370
    25
100
AcDbLine
 10
1.6700306464
 20
0.42
 30
0.0
 11
1.6700306464
 21
1.265
 31
0.0
  0
LINE
  5
D9
330
23
100
AcDbEntity
  8
0
  6
Continuous
 62
     7
370
    25
100
AcDbLine
 10
0.2158564033
 20
1.295
 30
0.0
 11
1.6700306464
 21
1.295
 31
0.0
  0
LINE
  5
DA
330
23
100
AcDbEntity
  8
0
  6
Continuous
 62
     7
370
    25
100
AcDbLine
 10
1.6700306464
 20
1.295
 30
0.0
 11
1.6700306464
 21
1.265
 31
0.0
  0
ENDBLK
  5
25
330
23
100
AcDbEntity
  8
0
100
AcDbBlockEnd
  0
BLOCK
  5
DD
330
DB
100
AcDbEntity
  8
0
100
AcDbBlockBegin
  2
*Paper_Space1
 70
     0
 10
0.0
 20
0.0
 30
0.0
  3
*Paper_Space1
  1

  0
LINE
  5
DF
330
DB
100
AcDbEntity
  8
0
  6
Continuous
 62
     7
370
    25
100
AcDbLine
 10
1.402095864
 20
1.0577972441
 30
0.0
 11
1.4496755302
 21
1.0577972441
 31
0.0
  0
LINE
  5
E0
330
DB
100
AcDbEntity
  8
0
  6
Continuous
 62
     7
370
    25
100
AcDbLine
 10
0.8903095132
 20
1.0577972441
 30
0.0
 11
0.9379053758
 21
1.0577972441
 31
0.0
  0
LINE
  5
E1
330
DB
100
AcDbEntity
  8
0
  6
Continuous
 62
     7
370
    25
100
AcDbLine
 10
0.9379061045
 20
0.7822066929
 30
0.0
 11
0.8903264383
 21
0.7822066929
 31
0.0
  0
LINE
  5
E2
330
DB
100
AcDbEntity
  8
0
  6
Continuous
 62
     7
370
    25
100
AcDbLine
 10
1.4496924553
 20
0.7822066929
 30
0.0
 11
1.4020965927
 21
0.7822066929
 31
0.0
  0
LINE
  5
E3
330
DB
100
AcDbEntity
  8
0
  6
Continuous
 62
     7
370
    25
100
AcDbLine
 10
0.8777951413
 20
1.5907519685
 30
0.0
 11
1.4622068272
 21
1.5907519685
 31
0.0
  0
LINE
  5
E4
330
DB
100
AcDbEntity
  8
0
  6
Continuous
 62
     7
370
    25
100
AcDbLine
 10
0.8831103661
 20
1.5487519685
 30
0.0
 11
1.4569024873
 21
1.5487519685
 31
0.0
  0
LWPOLYLINE
  5
E5
330
DB
100
AcDbEntity
  8
0
  6
Continuous
 62
     7
370
    25
100
AcDbPolyline
 90
       38
 70
   128
 43
0.0
 10
1.4020918217
 20
1.0577972441
 10
1.4006913603
 20
1.0579200576
 10
1.3992799596
 20
1.058293797
 10
1.3978795129
 20
1.058917119
 10
1.3964899761
 20
1.0597917727
 10
1.3951919681
 20
1.0608492162
 10
1.3939237637
 20
1.0621189735
 10
1.3926992997
 20
1.0635815891
 10
1.3915169612
 20
1.0652320231
 10
1.3899680324
 20
1.0677857211
 10
1.3885146862
 20
1.0706420847
 10
1.3871731103
 20
1.0737462884
 10
1.3859371306
 20
1.0770884585
 10
1.3844853584
 20
1.081771993
 10
1.3832229229
 20
1.0867622589
 10
1.3821587442
 20
1.0919747162
 10
1.3812845761
 20
1.0974040351
 10
1.3808481289
 20
1.1007828766
 10
1.3804841357
 20
1.1042025596
 10
1.380191023
 20
1.1076687396
 10
1.3799697858
 20
1.1111623501
 10
1.3798180897
 20
1.1147409893
 10
1.3797405189
 20
1.118335312
 10
1.3797373321
 20
1.1219516339
 10
1.379809304
 20
1.1255713362
 10
1.3799510382
 20
1.129070398
 10
1.3801644701
 20
1.1325607644
 10
1.3804517275
 20
1.1360483329
 10
1.3808134716
 20
1.1395145562
 10
1.3812605753
 20
1.143019404
 10
1.3817886406
 20
1.146486789
 10
1.3824028268
 20
1.1499228946
 10
1.3831035362
 20
1.1533018227
 10
1.3841130139
 20
1.1574552611
 10
1.3852789326
 20
1.1614981999
 10
1.3866039219
 20
1.1653727468
 10
1.3881055361
 20
1.1690571894
 10
1.3892760396
 20
1.1715019685
  0
LWPOLYLINE
  5
E6
330
DB
100
AcDbEntity
  8
0
  6
Continuous
 62
     7
370
    25
100
AcDbPolyline
 90
       36
 70
   128
 43
0.0
 10
1.414889481
 20
1.1715019685
 10
1.4162732343
 20
1.168594163
 10
1.4176986369
 20
1.1650213538
 10
1.4189835709
 20
1.1612040619
 10
1.420135771
 20
1.157151746
 10
1.4208135455
 20
1.1544025476
 10
1.4214307885
 20
1.1515901782
 10
1.4219946117
 20
1.148687782
 10
1.4224973213
 20
1.1457407472
 10
1.4233285778
 20
1.1396968078
 10
1.4239307038
 20
1.1334599384
 10
1.4242947763
 20
1.1272040397
 10
1.4244305851
 20
1.1208778592
 10
1.4243334218
 20
1.1144444966
 10
1.4239956053
 20
1.1080079389
 10
1.4237039613
 20
1.1044732121
 10
1.4233358812
 20
1.1009603929
 10
1.4228878533
 20
1.0974632982
 10
1.4223592167
 20
1.0940036866
 10
1.4217325847
 20
1.0905122506
 10
1.421016431
 20
1.0870801489
 10
1.420202854
 20
1.0837012475
 10
1.4192920869
 20
1.0804095053
 10
1.4181982034
 20
1.0769817312
 10
1.4169745936
 20
1.0736813485
 10
1.4156216272
 20
1.0705587352
 10
1.4141255489
 20
1.067635711
 10
1.4128772773
 20
1.0655601592
 10
1.411538102
 20
1.0636566162
 10
1.4101166546
 20
1.0619664997
 10
1.4086057975
 20
1.0605115149
 10
1.4073179653
 20
1.0595303671
 10
1.4059771199
 20
1.0587490458
 10
1.4045986086
 20
1.0581916647
 10
1.4031807309
 20
1.0578714719
 10
1.4020918217
 20
1.0577972441
  0
LWPOLYLINE
  5
E7
330
DB
100
AcDbEntity
  8
0
  6
Continuous
 62
     7
370
    25
100
AcDbPolyline
 90
       38
 70
   128
 43
0.0
 10
0.9379101468
 20
1.0577972441
 10
0.9365109045
 20
1.057919859
 10
0.9351007386
 20
1.0582930523
 10
0.9337015081
 20
1.0589155754
 10
0.9323131776
 20
1.0597892583
 10
0.9310162839
 20
1.0608457118
 10
0.9297491785
 20
1.0621144673
 10
0.9285258167
 20
1.0635760946
 10
0.9273445891
 20
1.0652255739
 10
0.9257985675
 20
1.0677755719
 10
0.9243480067
 20
1.0706277055
 10
0.9230090476
 20
1.0737271983
 10
0.9217755012
 20
1.0770641487
 10
0.9203249508
 20
1.0817458403
 10
0.9190636962
 20
1.0867340579
 10
0.9180005358
 20
1.0919441729
 10
0.9171271211
 20
1.0973707709
 10
0.9166900972
 20
1.1007550635
 10
0.9163256714
 20
1.1041802697
 10
0.9160322488
 20
1.1076520454
 10
0.9158108101
 20
1.1111512794
 10
0.9156590076
 20
1.1147356501
 10
0.9155814203
 20
1.118335711
 10
0.9155783027
 20
1.1219577816
 10
0.9156504297
 20
1.1255832287
 10
0.9157924241
 20
1.1290883118
 10
0.9160062295
 20
1.1325846836
 10
0.9162939899
 20
1.1360782513
 10
0.9166563846
 20
1.139550431
 10
0.9171043384
 20
1.1430613495
 10
0.9176334682
 20
1.1465347018
 10
0.9182489856
 20
1.1499766848
 10
0.9189513295
 20
1.1533612688
 10
0.9199588422
 20
1.1575042424
 10
0.9211221466
 20
1.1615370416
 10
0.9224439201
 20
1.1654020175
 10
0.9239416888
 20
1.1690774832
 10
0.9251022547
 20
1.1715019685
  0
LWPOLYLINE
  5
E8
330
DB
100
AcDbEntity
  8
0
  6
Continuous
 62
     7
370
    25
100
AcDbPolyline
 90
       36
 70
   128
 43
0.0
 10
0.9507056246
 20
1.1715019685
 10
0.9514536855
 20
1.1700240296
 10
0.9529952586
 20
1.1664274063
 10
0.9543955552
 20
1.1625191222
 10
0.9556421548
 20
1.1583701607
 10
0.9567431897
 20
1.1539892544
 10
0.957374776
 20
1.1510588037
 10
0.9579421418
 20
1.1480695022
 10
0.9584517708
 20
1.1449924047
 10
0.9588966297
 20
1.1418753231
 10
0.9592801796
 20
1.1387031696
 10
0.9596001556
 20
1.135502901
 10
0.9598602442
 20
1.1322388779
 10
0.9600568951
 20
1.1289520686
 10
0.9602593269
 20
1.1224396543
 10
0.9602154734
 20
1.1158388911
 10
0.9599185928
 20
1.1092256996
 10
0.9596710676
 20
1.1059042749
 10
0.9593567288
 20
1.102600072
 10
0.9586529546
 20
1.0969519476
 10
0.957729679
 20
1.0913592162
 10
0.9565786962
 20
1.0858977814
 10
0.9559082193
 20
1.0832121307
 10
0.9551756436
 20
1.0805850923
 10
0.9540603062
 20
1.0770752289
 10
0.952809226
 20
1.0736971986
 10
0.9514227452
 20
1.0705047436
 10
0.949886083
 20
1.0675212981
 10
0.948639509
 20
1.0654660664
 10
0.9473031789
 20
1.0635822493
 10
0.9458857313
 20
1.0619106344
 10
0.9443801878
 20
1.0604726192
 10
0.9428589388
 20
1.0593482977
 10
0.9412609992
 20
1.0585035775
 10
0.9396122967
 20
1.0579787529
 10
0.9379101468
 20
1.0577972441
  0
LWPOLYLINE
  5
E9
330
DB
100
AcDbEntity
  8
0
  6
Continuous
 62
     7
370
    25
100
AcDbPolyline
 90
       38
 70
   128
 43
0.0
 10
0.9379101468
 20
0.7822066929
 10
0.9393106082
 20
0.7820838794
 10
0.9407220089
 20
0.78171014
 10
0.9421224556
 20
0.781086818
 10
0.9435119924
 20
0.7802121644
 10
0.9448100004
 20
0.7791547208
 10
0.9460782048
 20
0.7778849635
 10
0.9473026688
 20
0.7764223479
 10
0.9484850073
 20
0.7747719139
 10
0.9500339361
 20
0.7722182159
 10
0.9514872823
 20
0.7693618523
 10
0.9528288582
 20
0.7662576487
 10
0.9540648379
 20
0.7629154785
 10
0.9555166101
 20
0.758231944
 10
0.9567790456
 20
0.7532416781
 10
0.9578432243
 20
0.7480292208
 10
0.9587173925
 20
0.7425999019
 10
0.9591538396
 20
0.7392210604
 10
0.9595178328
 20
0.7358013774
 10
0.9598109455
 20
0.7323351974
 10
0.9600321827
 20
0.7288415869
 10
0.9601838788
 20
0.7252629477
 10
0.9602614496
 20
0.721668625
 10
0.9602646365
 20
0.7180523031
 10
0.9601926645
 20
0.7144326008
 10
0.9600509303
 20
0.710933539
 10
0.9598374984
 20
0.7074431726
 10
0.959550241
 20
0.7039556041
 10
0.9591884969
 20
0.7004893808
 10
0.9587413932
 20
0.696984533
 10
0.9582133279
 20
0.693517148
 10
0.9575991417
 20
0.6900810424
 10
0.9568984323
 20
0.6867021143
 10
0.9558889546
 20
0.6825486759
 10
0.9547230359
 20
0.6785057371
 10
0.9533980466
 20
0.6746311902
 10
0.9518964324
 20
0.6709467477
 10
0.9507259289
 20
0.6685019685
  0
LWPOLYLINE
  5
EA
330
DB
100
AcDbEntity
  8
0
  6
Continuous
 62
     7
370
    25
100
AcDbPolyline
 90
       36
 70
   128
 43
0.0
 10
0.9251124875
 20
0.6685019685
 10
0.9237287342
 20
0.671409774
 10
0.9223033316
 20
0.6749825832
 10
0.9210183976
 20
0.6787998751
 10
0.9198661975
 20
0.682852191
 10
0.919188423
 20
0.6856013894
 10
0.91857118
 20
0.6884137588
 10
0.9180073569
 20
0.691316155
 10
0.9175046472
 20
0.6942631898
 10
0.9166733907
 20
0.7003071292
 10
0.9160712647
 20
0.7065439986
 10
0.9157071922
 20
0.7127998973
 10
0.9155713834
 20
0.7191260778
 10
0.9156685467
 20
0.7255594404
 10
0.9160063632
 20
0.7319959981
 10
0.9162980072
 20
0.735530725
 10
0.9166660873
 20
0.7390435441
 10
0.9171141152
 20
0.7425406388
 10
0.9176427518
 20
0.7460002504
 10
0.9182693838
 20
0.7494916864
 10
0.9189855375
 20
0.7529237881
 10
0.9197991145
 20
0.7563026895
 10
0.9207098816
 20
0.7595944317
 10
0.9218037652
 20
0.7630222058
 10
0.9230273749
 20
0.7663225885
 10
0.9243803413
 20
0.7694452018
 10
0.9258764196
 20
0.772368226
 10
0.9271246912
 20
0.7744437778
 10
0.9284638665
 20
0.7763473208
 10
0.9298853139
 20
0.7780374373
 10
0.931396171
 20
0.7794924221
 10
0.9326840032
 20
0.78047357
 10
0.9340248486
 20
0.7812548912
 10
0.9354033599
 20
0.7818122723
 10
0.9368212376
 20
0.7821324651
 10
0.9379101468
 20
0.7822066929
  0
LWPOLYLINE
  5
EB
330
DB
100
AcDbEntity
  8
0
  6
Continuous
 62
     7
370
    25
100
AcDbPolyline
 90
       38
 70
   128
 43
0.0
 10
1.4020918217
 20
0.7822066929
 10
1.403491064
 20
0.782084078
 10
1.4049012299
 20
0.7817108847
 10
1.4063004604
 20
0.7810883616
 10
1.4076887909
 20
0.7802146787
 10
1.4089856846
 20
0.7791582252
 10
1.41025279
 20
0.7778894697
 10
1.4114761518
 20
0.7764278425
 10
1.4126573794
 20
0.7747783631
 10
1.414203401
 20
0.7722283651
 10
1.4156539618
 20
0.7693762315
 10
1.4169929209
 20
0.7662767387
 10
1.4182264673
 20
0.7629397883
 10
1.4196770177
 20
0.7582580967
 10
1.4209382723
 20
0.7532698791
 10
1.4220014327
 20
0.7480597641
 10
1.4228748474
 20
0.7426331661
 10
1.4233118713
 20
0.7392488735
 10
1.4236762971
 20
0.7358236673
 10
1.4239697197
 20
0.7323518916
 10
1.4241911584
 20
0.7288526576
 10
1.4243429609
 20
0.7252682869
 10
1.4244205482
 20
0.721668226
 10
1.4244236658
 20
0.7180461555
 10
1.4243515388
 20
0.7144207083
 10
1.4242095444
 20
0.7109156252
 10
1.423995739
 20
0.7074192534
 10
1.4237079786
 20
0.7039256858
 10
1.4233455839
 20
0.700453506
 10
1.4228976301
 20
0.6969425875
 10
1.4223685003
 20
0.6934692352
 10
1.4217529829
 20
0.6900272522
 10
1.421050639
 20
0.6866426682
 10
1.4200431263
 20
0.6824996946
 10
1.4188798219
 20
0.6784668954
 10
1.4175580484
 20
0.6746019195
 10
1.4160602797
 20
0.6709264538
 10
1.4148997139
 20
0.6685019685
  0
LWPOLYLINE
  5
EC
330
DB
100
AcDbEntity
  8
0
  6
Continuous
 62
     7
370
    25
100
AcDbPolyline
 90
       36
 70
   128
 43
0.0
 10
1.3892963439
 20
0.6685019685
 10
1.388548283
 20
0.6699799074
 10
1.3870067099
 20
0.6735765307
 10
1.3856064133
 20
0.6774848148
 10
1.3843598137
 20
0.6816337763
 10
1.3832587788
 20
0.6860146826
 10
1.3826271925
 20
0.6889451334
 10
1.3820598267
 20
0.6919344348
 10
1.3815501977
 20
0.6950115323
 10
1.3811053388
 20
0.6981286139
 10
1.3807217889
 20
0.7013007674
 10
1.3804018129
 20
0.7045010361
 10
1.3801417243
 20
0.7077650591
 10
1.3799450734
 20
0.7110518684
 10
1.3797426416
 20
0.7175642827
 10
1.3797864951
 20
0.7241650459
 10
1.3800833757
 20
0.7307782375
 10
1.3803309009
 20
0.7340996621
 10
1.3806452397
 20
0.737403865
 10
1.3813490139
 20
0.7430519894
 10
1.3822722896
 20
0.7486447208
 10
1.3834232723
 20
0.7541061556
 10
1.3840937492
 20
0.7567918064
 10
1.3848263249
 20
0.7594188447
 10
1.3859416623
 20
0.7629287081
 10
1.3871927425
 20
0.7663067384
 10
1.3885792233
 20
0.7694991934
 10
1.3901158855
 20
0.7724826389
 10
1.3913624595
 20
0.7745378706
 10
1.3926987896
 20
0.7764216877
 10
1.3941162372
 20
0.7780933026
 10
1.3956217807
 20
0.7795313178
 10
1.3971430297
 20
0.7806556393
 10
1.3987409693
 20
0.7815003595
 10
1.4003896718
 20
0.7820251841
 10
1.4020918217
 20
0.7822066929
  0
LINE
  5
ED
330
DB
100
AcDbEntity
  8
0
  6
Continuous
 62
     7
370
    25
100
AcDbLine
 10
1.4622068272
 20
0.2492519685
 30
0.0
 11
0.8777951413
 21
0.2492519685
 31
0.0
  0
LINE
  5
EE
330
DB
100
AcDbEntity
  8
0
  6
Continuous
 62
     7
370
    25
100
AcDbLine
 10
1.4568916024
 20
0.2912519685
 30
0.0
 11
0.8831103661
 21
0.2912519685
 31
0.0
  0
LINE
  5
EF
330
DB
100
AcDbEntity
  8
0
  6
Continuous
 62
     7
370
    25
100
AcDbLine
 10
0.8341253435
 20
1.6700019685
 30
0.0
 11
0.8780481792
 21
1.6700019685
 31
0.0
  0
LINE
  5
F0
330
DB
100
AcDbEntity
  8
0
  6
Continuous
 62
     7
370
    25
100
AcDbLine
 10
0.8881754027
 20
1.6500019685
 30
0.0
 11
0.878047183
 21
1.670003937
 31
0.0
  0
LINE
  5
F1
330
DB
100
AcDbEntity
  8
0
  6
Continuous
 62
     7
370
    25
100
AcDbLine
 10
0.8881754027
 20
1.6500019685
 30
0.0
 11
0.8881754027
 21
1.6037540439
 31
0.0
  0
LINE
  5
F2
330
DB
100
AcDbEntity
  8
0
  6
Continuous
 62
     7
370
    25
100
AcDbLine
 10
0.8831103661
 20
1.5967519685
 30
0.0
 11
0.8881754027
 21
1.6037540439
 31
0.0
  0
LINE
  5
F3
330
DB
100
AcDbEntity
  8
0
  6
Continuous
 62
     7
370
    25
100
AcDbLine
 10
0.8831103661
 20
1.5967519685
 30
0.0
 11
0.8777951413
 21
1.5967519685
 31
0.0
  0
LINE
  5
F4
330
DB
100
AcDbEntity
  8
0
  6
Continuous
 62
     7
370
    25
100
AcDbLine
 10
0.8777951413
 20
1.5487519685
 30
0.0
 11
0.8777951413
 21
1.5967519685
 31
0.0
  0
LINE
  5
F5
330
DB
100
AcDbEntity
  8
0
  6
Continuous
 62
     7
370
    25
100
AcDbLine
 10
0.8831103661
 20
1.5487519685
 30
0.0
 11
0.8777951413
 21
1.5487519685
 31
0.0
  0
LINE
  5
F6
330
DB
100
AcDbEntity
  8
0
  6
Continuous
 62
     7
370
    25
100
AcDbLine
 10
0.8881754027
 20
1.5417498931
 30
0.0
 11
0.8831103661
 21
1.5487519685
 31
0.0
  0
LINE
  5
F7
330
DB
100
AcDbEntity
  8
0
  6
Continuous
 62
     7
370
    25
100
AcDbLine
 10
0.8881754027
 20
1.5417498931
 30
0.0
 11
0.8881754027
 21
1.1412506973
 31
0.0
  0
LINE
  5
F8
330
DB
100
AcDbEntity
  8
0
  6
Continuous
 62
     7
370
    25
100
AcDbLine
 10
0.8881754027
 20
0.6987532397
 30
0.0
 11
0.8884807551
 21
0.7091324516
 31
0.0
  0
ARC
  5
F9
330
DB
100
AcDbEntity
  8
0
  6
Continuous
 62
     7
370
    25
100
AcDbCircle
 10
-5.9696847852
 20
0.920008323
 30
0.0
 40
6.861411733630987
100
AcDbArc
 50
358.4948209646
 51
1.5050731544
  0
LINE
  5
FA
330
DB
100
AcDbEntity
  8
0
  6
Continuous
 62
     7
370
    25
100
AcDbLine
 10
0.8884806126
 20
1.1308714698
 30
0.0
 11
0.8881754027
 21
1.1412506973
 31
0.0
  0
LINE
  5
FB
330
DB
100
AcDbEntity
  8
0
  6
Continuous
 62
     7
370
    25
100
AcDbLine
 10
0.8881754027
 20
0.6987532397
 30
0.0
 11
0.8881754027
 21
0.2982540439
 31
0.0
  0
LINE
  5
FC
330
DB
100
AcDbEntity
  8
0
  6
Continuous
 62
     7
370
    25
100
AcDbLine
 10
0.8831103661
 20
0.2912519685
 30
0.0
 11
0.8881754027
 21
0.2982540439
 31
0.0
  0
LINE
  5
FD
330
DB
100
AcDbEntity
  8
0
  6
Continuous
 62
     7
370
    25
100
AcDbLine
 10
0.8777951413
 20
0.2912519685
 30
0.0
 11
0.8831103661
 21
0.2912519685
 31
0.0
  0
LINE
  5
FE
330
DB
100
AcDbEntity
  8
0
  6
Continuous
 62
     7
370
    25
100
AcDbLine
 10
0.8777951413
 20
0.2912519685
 30
0.0
 11
0.8777951413
 21
0.2432519685
 31
0.0
  0
LINE
  5
FF
330
DB
100
AcDbEntity
  8
0
  6
Continuous
 62
     7
370
    25
100
AcDbLine
 10
0.8777951413
 20
0.2432519685
 30
0.0
 11
0.8831103661
 21
0.2432519685
 31
0.0
  0
LINE
  5
100
330
DB
100
AcDbEntity
  8
0
  6
Continuous
 62
     7
370
    25
100
AcDbLine
 10
0.8881754027
 20
0.2362498931
 30
0.0
 11
0.8831103661
 21
0.2432519685
 31
0.0
  0
LINE
  5
101
330
DB
100
AcDbEntity
  8
0
  6
Continuous
 62
     7
370
    25
100
AcDbLine
 10
0.8881754027
 20
0.2362498931
 30
0.0
 11
0.8881754027
 21
0.1900019685
 31
0.0
  0
LINE
  5
102
330
DB
100
AcDbEntity
  8
0
  6
Continuous
 62
     7
370
    25
100
AcDbLine
 10
0.8780481792
 20
0.1700019685
 30
0.0
 11
0.8881754027
 21
0.1900019685
 31
0.0
  0
LINE
  5
103
330
DB
100
AcDbEntity
  8
0
  6
Continuous
 62
     7
370
    25
100
AcDbLine
 10
0.8341253435
 20
0.1700019685
 30
0.0
 11
0.8780481792
 21
0.1700019685
 31
0.0
  0
LINE
  5
104
330
DB
100
AcDbEntity
  8
0
  6
Continuous
 62
     7
370
    25
100
AcDbLine
 10
0.8341253435
 20
1.6700019685
 30
0.0
 11
0.8341253435
 21
0.1700019685
 31
0.0
  0
LINE
  5
105
330
DB
100
AcDbEntity
  8
0
  6
Continuous
 62
     7
370
    25
100
AcDbLine
 10
1.4619537893
 20
1.6700019685
 30
0.0
 11
1.505876625
 21
1.6700019685
 31
0.0
  0
LINE
  5
106
330
DB
100
AcDbEntity
  8
0
  6
Continuous
 62
     7
370
    25
100
AcDbLine
 10
1.505876625
 20
1.6700019685
 30
0.0
 11
1.505876625
 21
0.1700019685
 31
0.0
  0
LINE
  5
107
330
DB
100
AcDbEntity
  8
0
  6
Continuous
 62
     7
370
    25
100
AcDbLine
 10
1.4619537893
 20
0.1700019685
 30
0.0
 11
1.505876625
 21
0.1700019685
 31
0.0
  0
LINE
  5
108
330
DB
100
AcDbEntity
  8
0
  6
Continuous
 62
     7
370
    25
100
AcDbLine
 10
1.4518265658
 20
0.1900019685
 30
0.0
 11
1.4619537893
 21
0.1700019685
 31
0.0
  0
LINE
  5
109
330
DB
100
AcDbEntity
  8
0
  6
Continuous
 62
     7
370
    25
100
AcDbLine
 10
1.4518265658
 20
0.1900019685
 30
0.0
 11
1.4518265658
 21
0.2362498931
 31
0.0
  0
LINE
  5
10A
330
DB
100
AcDbEntity
  8
0
  6
Continuous
 62
     7
370
    25
100
AcDbLine
 10
1.4568916024
 20
0.2432519685
 30
0.0
 11
1.4518265658
 21
0.2362498931
 31
0.0
  0
LINE
  5
10B
330
DB
100
AcDbEntity
  8
0
  6
Continuous
 62
     7
370
    25
100
AcDbLine
 10
1.4568916024
 20
0.2432519685
 30
0.0
 11
1.4622068272
 21
0.2432519685
 31
0.0
  0
LINE
  5
10C
330
DB
100
AcDbEntity
  8
0
  6
Continuous
 62
     7
370
    25
100
AcDbLine
 10
1.4622068272
 20
0.2432519685
 30
0.0
 11
1.4622068272
 21
0.2912519685
 31
0.0
  0
LINE
  5
10D
330
DB
100
AcDbEntity
  8
0
  6
Continuous
 62
     7
370
    25
100
AcDbLine
 10
1.4568916024
 20
0.2912519685
 30
0.0
 11
1.4622068272
 21
0.2912519685
 31
0.0
  0
LINE
  5
10E
330
DB
100
AcDbEntity
  8
0
  6
Continuous
 62
     7
370
    25
100
AcDbLine
 10
1.4518265658
 20
0.2982540439
 30
0.0
 11
1.4568916024
 21
0.2912519685
 31
0.0
  0
LINE
  5
10F
330
DB
100
AcDbEntity
  8
0
  6
Continuous
 62
     7
370
    25
100
AcDbLine
 10
1.4518265658
 20
0.2982540439
 30
0.0
 11
1.4518265658
 21
0.6987532397
 31
0.0
  0
LINE
  5
110
330
DB
100
AcDbEntity
  8
0
  6
Continuous
 62
     7
370
    25
100
AcDbLine
 10
1.4518265658
 20
1.1412506973
 30
0.0
 11
1.4515212134
 21
1.1308714854
 31
0.0
  0
ARC
  5
111
330
DB
100
AcDbEntity
  8
0
  6
Continuous
 62
     7
370
    25
100
AcDbCircle
 10
8.3096867537
 20
0.919995614
 30
0.0
 40
6.861411733632456
100
AcDbArc
 50
178.4948209646
 51
181.5050731544
  0
LINE
  5
112
330
DB
100
AcDbEntity
  8
0
  6
Continuous
 62
     7
370
    25
100
AcDbLine
 10
1.4515213559
 20
0.7091324673
 30
0.0
 11
1.4518265658
 21
0.6987532397
 31
0.0
  0
LINE
  5
113
330
DB
100
AcDbEntity
  8
0
  6
Continuous
 62
     7
370
    25
100
AcDbLine
 10
1.4518265658
 20
1.1412506973
 30
0.0
 11
1.4518265658
 21
1.5417498931
 31
0.0
  0
LINE
  5
114
330
DB
100
AcDbEntity
  8
0
  6
Continuous
 62
     7
370
    25
100
AcDbLine
 10
1.4568916024
 20
1.5487519685
 30
0.0
 11
1.4518265658
 21
1.5417498931
 31
0.0
  0
LINE
  5
115
330
DB
100
AcDbEntity
  8
0
  6
Continuous
 62
     7
370
    25
100
AcDbLine
 10
1.4622068272
 20
1.5487519685
 30
0.0
 11
1.4568916024
 21
1.5487519685
 31
0.0
  0
LINE
  5
116
330
DB
100
AcDbEntity
  8
0
  6
Continuous
 62
     7
370
    25
100
AcDbLine
 10
1.4622068272
 20
1.5967519685
 30
0.0
 11
1.4622068272
 21
1.5487519685
 31
0.0
  0
LINE
  5
117
330
DB
100
AcDbEntity
  8
0
  6
Continuous
 62
     7
370
    25
100
AcDbLine
 10
1.4622068272
 20
1.5967519685
 30
0.0
 11
1.4568916024
 21
1.5967519685
 31
0.0
  0
LINE
  5
118
330
DB
100
AcDbEntity
  8
0
  6
Continuous
 62
     7
370
    25
100
AcDbLine
 10
1.4518265658
 20
1.6037540439
 30
0.0
 11
1.4568916024
 21
1.5967519685
 31
0.0
  0
LINE
  5
119
330
DB
100
AcDbEntity
  8
0
  6
Continuous
 62
     7
370
    25
100
AcDbLine
 10
1.4518265658
 20
1.6037540439
 30
0.0
 11
1.4518265658
 21
1.6500019685
 31
0.0
  0
LINE
  5
11A
330
DB
100
AcDbEntity
  8
0
  6
Continuous
 62
     7
370
    25
100
AcDbLine
 10
1.4619547855
 20
1.670003937
 30
0.0
 11
1.4518265658
 21
1.6500019685
 31
0.0
  0
LINE
  5
11B
330
DB
100
AcDbEntity
  8
0
  6
Continuous
 62
     7
370
    25
100
AcDbLine
 10
1.9200009843
 20
0.8706461178
 30
0.0
 11
1.9200009843
 21
0.1700019685
 31
0.0
  0
LINE
  5
11C
330
DB
100
AcDbEntity
  8
0
  6
Continuous
 62
     7
370
    25
100
AcDbLine
 10
1.9200009843
 20
0.1700019685
 30
0.0
 11
1.8900009843
 21
0.1700019685
 31
0.0
  0
LINE
  5
11D
330
DB
100
AcDbEntity
  8
0
  6
Continuous
 62
     7
370
    25
100
AcDbLine
 10
1.8900009843
 20
0.1700019685
 30
0.0
 11
1.8900009843
 21
0.8875058149
 31
0.0
  0
ARC
  5
11E
330
DB
100
AcDbEntity
  8
0
  6
Continuous
 62
     7
370
    25
100
AcDbCircle
 10
1.8879445301
 20
0.8487258585
 30
0.0
 40
0.0388344437787819
100
AcDbArc
 50
34.3643885984
 51
86.9645172916
  0
LINE
  5
11F
330
DB
100
AcDbEntity
  8
0
  6
Continuous
 62
     7
370
    25
100
AcDbLine
 10
1.8786624016
 20
0.9524981221
 30
0.0
 11
1.8786624016
 21
1.6700019685
 31
0.0
  0
LINE
  5
120
330
DB
100
AcDbEntity
  8
0
  6
Continuous
 62
     7
370
    25
100
AcDbLine
 10
1.8900009843
 20
0.9524981221
 30
0.0
 11
1.8900009843
 21
1.6700019685
 31
0.0
  0
LINE
  5
121
330
DB
100
AcDbEntity
  8
0
  6
Continuous
 62
     7
370
    25
100
AcDbLine
 10
1.8900009843
 20
0.9524981221
 30
0.0
 11
1.8786624016
 21
0.9524981221
 31
0.0
  0
LINE
  5
122
330
DB
100
AcDbEntity
  8
0
  6
Continuous
 62
     7
370
    25
100
AcDbLine
 10
1.8786624016
 20
1.6700019685
 30
0.0
 11
1.8900009843
 21
1.6700019685
 31
0.0
  0
LINE
  5
123
330
DB
100
AcDbEntity
  8
0
  6
Continuous
 62
     7
370
    25
100
AcDbLine
 10
1.8900009843
 20
0.1700019685
 30
0.0
 11
1.8786624016
 21
0.1700019685
 31
0.0
  0
LINE
  5
124
330
DB
100
AcDbEntity
  8
0
  6
Continuous
 62
     7
370
    25
100
AcDbLine
 10
1.8786624016
 20
0.1700019685
 30
0.0
 11
1.8786624016
 21
0.8875058149
 31
0.0
  0
LINE
  5
125
330
DB
100
AcDbEntity
  8
0
  6
Continuous
 62
     7
370
    25
100
AcDbLine
 10
1.8786624016
 20
0.8875058149
 30
0.0
 11
1.8900009843
 21
0.8875058149
 31
0.0
  0
LINE
  5
126
330
DB
100
AcDbEntity
  8
0
  6
Continuous
 62
     7
370
    25
100
AcDbLine
 10
1.8786624016
 20
0.8875058149
 30
0.0
 11
1.8786624016
 21
0.9524981221
 31
0.0
  0
ARC
  5
127
330
DB
100
AcDbEntity
  8
0
  6
Continuous
 62
     7
370
    25
100
AcDbCircle
 10
1.8879967528
 20
0.9911851538
 30
0.0
 40
0.0387389127750635
100
AcDbArc
 50
272.965630276
 51
325.705463834
  0
LINE
  5
128
330
DB
100
AcDbEntity
  8
0
  6
Continuous
 62
     7
370
    25
100
AcDbLine
 10
1.9200009843
 20
0.8706461178
 30
0.0
 11
1.9200009843
 21
0.9693578192
 31
0.0
  0
LINE
  5
129
330
DB
100
AcDbEntity
  8
0
  6
Continuous
 62
     7
370
    25
100
AcDbLine
 10
1.9200009843
 20
1.6700019685
 30
0.0
 11
1.9200009843
 21
0.9693578192
 31
0.0
  0
LINE
  5
12A
330
DB
100
AcDbEntity
  8
0
  6
Continuous
 62
     7
370
    25
100
AcDbLine
 10
1.8900009843
 20
1.6700019685
 30
0.0
 11
1.9200009843
 21
1.6700019685
 31
0.0
  0
ARC
  5
12B
330
DB
100
AcDbEntity
  8
0
  6
Continuous
 62
     7
370
    25
100
AcDbCircle
 10
1.8128647092
 20
0.9200019685
 30
0.0
 40
0.0797985490380439
100
AcDbArc
 50
155.9692186008
 51
204.0307813992
  0
LINE
  5
12C
330
DB
100
AcDbEntity
  8
0
  6
Continuous
 62
     7
370
    25
100
AcDbLine
 10
1.7399825548
 20
0.8875058149
 30
0.0
 11
1.7399825548
 21
0.9524981221
 31
0.0
  0
LINE
  5
12D
330
DB
100
AcDbEntity
  8
0
  6
Continuous
 62
     7
370
    25
100
AcDbLine
 10
1.7999222441
 20
0.8875058149
 30
0.0
 11
1.7399825548
 21
0.8875058149
 31
0.0
  0
LINE
  5
12E
330
DB
100
AcDbEntity
  8
0
  6
Continuous
 62
     7
370
    25
100
AcDbLine
 10
1.7999222441
 20
0.8875058149
 30
0.0
 11
1.7999222441
 21
0.1700019685
 31
0.0
  0
LINE
  5
12F
330
DB
100
AcDbEntity
  8
0
  6
Continuous
 62
     7
370
    25
100
AcDbLine
 10
1.505876625
 20
0.1700019685
 30
0.0
 11
1.7999222441
 21
0.1700019685
 31
0.0
  0
LINE
  5
130
330
DB
100
AcDbEntity
  8
0
  6
Continuous
 62
     7
370
    25
100
AcDbLine
 10
1.7999222441
 20
1.6700019685
 30
0.0
 11
1.7999222441
 21
0.9524981221
 31
0.0
  0
LINE
  5
131
330
DB
100
AcDbEntity
  8
0
  6
Continuous
 62
     7
370
    25
100
AcDbLine
 10
1.7399825548
 20
0.9524981221
 30
0.0
 11
1.7999222441
 21
0.9524981221
 31
0.0
  0
LINE
  5
132
330
DB
100
AcDbEntity
  8
0
  6
Continuous
 62
     7
370
    25
100
AcDbLine
 10
1.505876625
 20
1.6700019685
 30
0.0
 11
1.7999222441
 21
1.6700019685
 31
0.0
  0
LINE
  5
133
330
DB
100
AcDbEntity
  8
0
  6
Continuous
 62
     7
370
    25
100
AcDbLine
 10
1.7999222441
 20
0.9524981221
 30
0.0
 11
1.7999222441
 21
0.8875058149
 31
0.0
  0
LINE
  5
134
330
DB
100
AcDbEntity
  8
0
  6
Continuous
 62
     7
370
    25
100
AcDbLine
 10
0.5125009843
 20
0.1700019685
 30
0.0
 11
0.8341253435
 21
0.1700019685
 31
0.0
  0
LINE
  5
135
330
DB
100
AcDbEntity
  8
0
  6
Continuous
 62
     7
370
    25
100
AcDbLine
 10
0.5125009843
 20
1.6241762116
 30
0.0
 11
0.5125009843
 21
0.1700019685
 31
0.0
  0
ARC
  5
136
330
DB
100
AcDbEntity
  8
0
  6
Continuous
 62
     7
370
    25
100
AcDbCircle
 10
0.4700009843
 20
1.6700019685
 30
0.0
 40
0.0624999999999999
100
AcDbArc
 50
312.8436430436
 51
0.0
  0
LINE
  5
137
330
DB
100
AcDbEntity
  8
0
  6
Continuous
 62
     7
370
    25
100
AcDbLine
 10
0.5325009843
 20
1.6700019685
 30
0.0
 11
0.8341253435
 21
1.6700019685
 31
0.0
  0
LINE
  5
138
330
DB
100
AcDbEntity
  8
0
  6
Continuous
 62
     7
370
    25
100
AcDbLine
 10
0.5125009843
 20
0.1700019685
 30
0.0
 11
0.4825009843
 21
0.1700019685
 31
0.0
  0
LINE
  5
139
330
DB
100
AcDbEntity
  8
0
  6
Continuous
 62
     7
370
    25
100
AcDbLine
 10
0.4825009843
 20
0.1700019685
 30
0.0
 11
0.4825009843
 21
1.6087647249
 31
0.0
  0
ARC
  5
13A
330
DB
100
AcDbEntity
  8
0
  6
Continuous
 62
     7
370
    25
100
AcDbCircle
 10
0.470001657
 20
1.6700006589
 30
0.0
 40
0.0624985822882889
100
AcDbArc
 50
281.5365948473
 51
312.8440072291
  0
LINE
  5
13B
330
DB
100
AcDbEntity
  8
0
  6
Continuous
 62
     7
370
    25
100
AcDbLine
 10
1.4518265658
 20
1.6500019685
 30
0.0
 11
0.8881754027
 21
1.6500019685
 31
0.0
  0
LINE
  5
13C
330
DB
100
AcDbEntity
  8
0
  6
Continuous
 62
     7
370
    25
100
AcDbLine
 10
0.8780140494
 20
1.6700019685
 30
0.0
 11
1.4619537893
 21
1.6700019685
 31
0.0
  0
LINE
  5
13D
330
DB
100
AcDbEntity
  8
0
  6
Continuous
 62
     7
370
    25
100
AcDbLine
 10
0.8881754027
 20
0.1900019685
 30
0.0
 11
1.4518265658
 21
0.1900019685
 31
0.0
  0
LINE
  5
13E
330
DB
100
AcDbEntity
  8
0
  6
Continuous
 62
     7
370
    25
100
AcDbLine
 10
1.4619537893
 20
0.1700019685
 30
0.0
 11
0.8780481792
 21
0.1700019685
 31
0.0
  0
LINE
  5
13F
330
DB
100
AcDbEntity
  8
0
  6
Continuous
 62
     7
370
    25
100
AcDbLine
 10
0.8881754027
 20
0.2982540439
 30
0.0
 11
1.4518265658
 21
0.2982540439
 31
0.0
  0
LINE
  5
140
330
DB
100
AcDbEntity
  8
0
  6
Continuous
 62
     7
370
    25
100
AcDbLine
 10
1.4518265658
 20
0.2362498931
 30
0.0
 11
0.8881754027
 21
0.2362498931
 31
0.0
  0
LINE
  5
141
330
DB
100
AcDbEntity
  8
0
  6
Continuous
 62
     7
370
    25
100
AcDbLine
 10
0.8831103661
 20
0.2432519685
 30
0.0
 11
1.4568916024
 21
0.2432519685
 31
0.0
  0
LINE
  5
142
330
DB
100
AcDbEntity
  8
0
  6
Continuous
 62
     7
370
    25
100
AcDbLine
 10
0.8881754027
 20
1.6037540439
 30
0.0
 11
1.4518265658
 21
1.6037540439
 31
0.0
  0
LINE
  5
143
330
DB
100
AcDbEntity
  8
0
  6
Continuous
 62
     7
370
    25
100
AcDbLine
 10
1.4568916024
 20
1.5967519685
 30
0.0
 11
0.8831103661
 21
1.5967519685
 31
0.0
  0
LINE
  5
144
330
DB
100
AcDbEntity
  8
0
  6
Continuous
 62
     7
370
    25
100
AcDbLine
 10
1.4518265658
 20
1.5417498931
 30
0.0
 11
0.8881754027
 21
1.5417498931
 31
0.0
  0
LINE
  5
145
330
DB
100
AcDbEntity
  8
0
  6
Continuous
 62
     7
370
    25
100
AcDbLine
 10
1.8786624016
 20
0.6271524473
 30
0.0
 11
1.7999222441
 21
0.6271524473
 31
0.0
  0
LINE
  5
146
330
DB
100
AcDbEntity
  8
0
  6
Continuous
 62
     7
370
    25
100
AcDbLine
 10
1.7999222441
 20
0.8208514897
 30
0.0
 11
1.8786624016
 21
0.8208514897
 31
0.0
  0
LINE
  5
147
330
DB
100
AcDbEntity
  8
0
  6
Continuous
 62
     7
370
    25
100
AcDbLine
 10
1.8575009843
 20
0.8208514897
 30
0.0
 11
1.8575009843
 21
0.6271524473
 31
0.0
  0
LINE
  5
148
330
DB
100
AcDbEntity
  8
0
  6
Continuous
 62
     7
370
    25
100
AcDbLine
 10
1.7999222441
 20
0.1700019685
 30
0.0
 11
1.8786624016
 21
0.1700019685
 31
0.0
  0
LINE
  5
149
330
DB
100
AcDbEntity
  8
0
  6
Continuous
 62
     7
370
    25
100
AcDbLine
 10
1.7999222441
 20
1.6700019685
 30
0.0
 11
1.8786624016
 21
1.6700019685
 31
0.0
  0
LINE
  5
14A
330
DB
100
AcDbEntity
  8
0
  6
Continuous
 62
     7
370
    25
100
AcDbLine
 10
2.1700009843
 20
1.6700019685
 30
0.0
 11
2.1700009843
 21
0.1700019685
 31
0.0
  0
CIRCLE
  5
14B
330
DB
100
AcDbEntity
  8
0
  6
Continuous
 62
     7
370
    25
100
AcDbCircle
 10
2.0137509843
 20
1.4200019685
 30
0.0
 40
0.0781249999999993
  0
CIRCLE
  5
14C
330
DB
100
AcDbEntity
  8
0
  6
Continuous
 62
     7
370
    25
100
AcDbCircle
 10
2.0137509843
 20
0.4200019685
 30
0.0
 40
0.0781250000000004
  0
LINE
  5
14D
330
DB
100
AcDbEntity
  8
0
  6
Continuous
 62
     7
370
    25
100
AcDbLine
 10
2.1700009843
 20
0.1700019685
 30
0.0
 11
1.9200009843
 21
0.1700019685
 31
0.0
  0
LINE
  5
14E
330
DB
100
AcDbEntity
  8
0
  6
Continuous
 62
     7
370
    25
100
AcDbLine
 10
1.9200009843
 20
1.6700019685
 30
0.0
 11
2.1700009843
 21
1.6700019685
 31
0.0
  0
LINE
  5
14F
330
DB
100
AcDbEntity
  8
0
  6
Continuous
 62
     7
370
    25
100
AcDbLine
 10
0.1700009843
 20
1.6700019685
 30
0.0
 11
0.1700009843
 21
0.1700019685
 31
0.0
  0
LINE
  5
150
330
DB
100
AcDbEntity
  8
0
  6
Continuous
 62
     7
370
    25
100
AcDbLine
 10
0.1700009843
 20
1.6700019685
 30
0.0
 11
0.4075009843
 21
1.6700019685
 31
0.0
  0
CIRCLE
  5
151
330
DB
100
AcDbEntity
  8
0
  6
Continuous
 62
     7
370
    25
100
AcDbCircle
 10
0.3262509843
 20
0.4200019685
 30
0.0
 40
0.078125
  0
CIRCLE
  5
152
330
DB
100
AcDbEntity
  8
0
  6
Continuous
 62
     7
370
    25
100
AcDbCircle
 10
0.3262509843
 20
1.4200019685
 30
0.0
 40
0.0781249999999999
  0
LINE
  5
153
330
DB
100
AcDbEntity
  8
0
  6
Continuous
 62
     7
370
    25
100
AcDbLine
 10
0.4825009843
 20
0.1700019685
 30
0.0
 11
0.1700009843
 21
0.1700019685
 31
0.0
  0
ARC
  5
154
330
DB
100
AcDbEntity
  8
0
  6
Continuous
 62
     7
370
    25
100
AcDbCircle
 10
0.4700009843
 20
1.6700019685
 30
0.0
 40
0.0625000000000005
100
AcDbArc
 50
180.0
 51
281.5369590328
  0
LINE
  5
155
330
DB
100
AcDbEntity
  8
0
  6
Continuous
 62
     7
370
    25
100
AcDbLine
 10
1.0135009843
 20
0.3129484879
 30
0.0
 11
1.3265009843
 21
0.3129484879
 31
0.0
  0
ARC
  5
156
330
DB
100
AcDbEntity
  8
0
  6
Continuous
 62
     7
370
    25
100
AcDbCircle
 10
1.3438691628
 20
0.3156190301
 30
0.0
 40
0.0175722913425952
100
AcDbArc
 50
188.7413758158
 51
253.5293452648
  0
LINE
  5
157
330
DB
100
AcDbEntity
  8
0
  6
Continuous
 62
     7
370
    25
100
AcDbLine
 10
1.3388869925
 20
0.2987678164
 30
0.0
 11
1.001114976
 21
0.2987678164
 31
0.0
  0
ARC
  5
158
330
DB
100
AcDbEntity
  8
0
  6
Continuous
 62
     7
370
    25
100
AcDbCircle
 10
0.9963589212
 20
0.3154215311
 30
0.0
 40
0.0173195343543496
100
AcDbArc
 50
285.9385590938
 51
351.7907198256
  0
LINE
  5
159
330
DB
100
AcDbEntity
  8
0
  6
Continuous
 62
     7
370
    25
100
AcDbLine
 10
1.001114976
 20
1.5412361206
 30
0.0
 11
1.001114976
 21
0.2987678164
 31
0.0
  0
LINE
  5
15A
330
DB
100
AcDbEntity
  8
0
  6
Continuous
 62
     7
370
    25
100
AcDbLine
 10
1.3388869925
 20
1.5412361206
 30
0.0
 11
1.3388869925
 21
0.2987678164
 31
0.0
  0
LINE
  5
15B
330
DB
100
AcDbEntity
  8
0
  6
Continuous
 62
     7
370
    25
100
AcDbLine
 10
1.3388869925
 20
1.5412361206
 30
0.0
 11
1.001114976
 21
1.5412361206
 31
0.0
  0
LINE
  5
15C
330
DB
100
AcDbEntity
  8
0
  6
Continuous
 62
     7
370
    25
100
AcDbLine
 10
1.0135009843
 20
1.5270554491
 30
0.0
 11
1.0135009843
 21
0.3129484879
 31
0.0
  0
ARC
  5
15D
330
DB
100
AcDbEntity
  8
0
  6
Continuous
 62
     7
370
    25
100
AcDbCircle
 10
0.9963589212
 20
1.5245824059
 30
0.0
 40
0.0173195343543499
100
AcDbArc
 50
8.2092801744
 51
74.0614409062
  0
ARC
  5
15E
330
DB
100
AcDbEntity
  8
0
  6
Continuous
 62
     7
370
    25
100
AcDbCircle
 10
1.3438691628
 20
1.5243849069
 30
0.0
 40
0.0175722913425951
100
AcDbArc
 50
106.4706547352
 51
171.2586241842
  0
LINE
  5
15F
330
DB
100
AcDbEntity
  8
0
  6
Continuous
 62
     7
370
    25
100
AcDbLine
 10
1.0135009843
 20
1.5270554491
 30
0.0
 11
1.3265009843
 21
1.5270554491
 31
0.0
  0
LINE
  5
160
330
DB
100
AcDbEntity
  8
0
  6
Continuous
 62
     7
370
    25
100
AcDbLine
 10
1.3265009843
 20
1.5270554491
 30
0.0
 11
1.3265009843
 21
0.3129484879
 31
0.0
  0
LINE
  5
161
330
DB
100
AcDbEntity
  8
0
  6
Continuous
 62
     7
370
    25
100
AcDbLine
 10
0.9253578746
 20
0.4335019685
 30
0.0
 11
0.9200883807
 21
0.4230019685
 31
0.0
  0
LINE
  5
162
330
DB
100
AcDbEntity
  8
0
  6
Continuous
 62
     7
370
    25
100
AcDbLine
 10
0.9253578746
 20
0.4335019685
 30
0.0
 11
0.9337032943
 21
0.4335019685
 31
0.0
  0
LINE
  5
163
330
DB
100
AcDbEntity
  8
0
  6
Continuous
 62
     7
370
    25
100
AcDbLine
 10
0.9337032943
 20
0.4335019685
 30
0.0
 11
0.9337032943
 21
0.4810019685
 31
0.0
  0
LINE
  5
164
330
DB
100
AcDbEntity
  8
0
  6
Continuous
 62
     7
370
    25
100
AcDbLine
 10
0.9337032943
 20
0.4810019685
 30
0.0
 11
0.9253578746
 21
0.4810019685
 31
0.0
  0
LINE
  5
165
330
DB
100
AcDbEntity
  8
0
  6
Continuous
 62
     7
370
    25
100
AcDbLine
 10
0.9200883807
 20
0.4915019685
 30
0.0
 11
0.9253578746
 21
0.4810019685
 31
0.0
  0
LINE
  5
166
330
DB
100
AcDbEntity
  8
0
  6
Continuous
 62
     7
370
    25
100
AcDbLine
 10
0.9200883807
 20
0.4915019685
 30
0.0
 11
0.9200883807
 21
0.6580019685
 31
0.0
  0
LINE
  5
167
330
DB
100
AcDbEntity
  8
0
  6
Continuous
 62
     7
370
    25
100
AcDbLine
 10
0.9253578746
 20
0.6685019685
 30
0.0
 11
0.9200883807
 21
0.6580019685
 31
0.0
  0
LINE
  5
168
330
DB
100
AcDbEntity
  8
0
  6
Continuous
 62
     7
370
    25
100
AcDbLine
 10
0.9253578746
 20
0.6685019685
 30
0.0
 11
0.9608315912
 21
0.6685019685
 31
0.0
  0
LINE
  5
169
330
DB
100
AcDbEntity
  8
0
  6
Continuous
 62
     7
370
    25
100
AcDbLine
 10
0.9608315912
 20
0.6685019685
 30
0.0
 11
0.9608315912
 21
0.7935019685
 31
0.0
  0
LINE
  5
16A
330
DB
100
AcDbEntity
  8
0
  6
Continuous
 62
     7
370
    25
100
AcDbLine
 10
0.9608315912
 20
0.7935019685
 30
0.0
 11
0.9253578746
 21
0.7935019685
 31
0.0
  0
LINE
  5
16B
330
DB
100
AcDbEntity
  8
0
  6
Continuous
 62
     7
370
    25
100
AcDbLine
 10
0.9200883807
 20
0.8040019685
 30
0.0
 11
0.9253578746
 21
0.7935019685
 31
0.0
  0
LINE
  5
16C
330
DB
100
AcDbEntity
  8
0
  6
Continuous
 62
     7
370
    25
100
AcDbLine
 10
0.9200883807
 20
0.8040019685
 30
0.0
 11
0.9200883807
 21
1.0360019685
 31
0.0
  0
LINE
  5
16D
330
DB
100
AcDbEntity
  8
0
  6
Continuous
 62
     7
370
    25
100
AcDbLine
 10
0.9253578746
 20
1.0465019685
 30
0.0
 11
0.9200883807
 21
1.0360019685
 31
0.0
  0
LINE
  5
16E
330
DB
100
AcDbEntity
  8
0
  6
Continuous
 62
     7
370
    25
100
AcDbLine
 10
0.9253578746
 20
1.0465019685
 30
0.0
 11
0.9608315912
 21
1.0465019685
 31
0.0
  0
LINE
  5
16F
330
DB
100
AcDbEntity
  8
0
  6
Continuous
 62
     7
370
    25
100
AcDbLine
 10
0.9608315912
 20
1.0465019685
 30
0.0
 11
0.9608315912
 21
1.1715019685
 31
0.0
  0
LINE
  5
170
330
DB
100
AcDbEntity
  8
0
  6
Continuous
 62
     7
370
    25
100
AcDbLine
 10
0.9608315912
 20
1.1715019685
 30
0.0
 11
0.9253578746
 21
1.1715019685
 31
0.0
  0
LINE
  5
171
330
DB
100
AcDbEntity
  8
0
  6
Continuous
 62
     7
370
    25
100
AcDbLine
 10
0.9200883807
 20
1.1820019685
 30
0.0
 11
0.9253578746
 21
1.1715019685
 31
0.0
  0
LINE
  5
172
330
DB
100
AcDbEntity
  8
0
  6
Continuous
 62
     7
370
    25
100
AcDbLine
 10
0.9200883807
 20
1.1820019685
 30
0.0
 11
0.9200883807
 21
1.3485019685
 31
0.0
  0
LINE
  5
173
330
DB
100
AcDbEntity
  8
0
  6
Continuous
 62
     7
370
    25
100
AcDbLine
 10
0.9253578746
 20
1.3590019685
 30
0.0
 11
0.9200883807
 21
1.3485019685
 31
0.0
  0
LINE
  5
174
330
DB
100
AcDbEntity
  8
0
  6
Continuous
 62
     7
370
    25
100
AcDbLine
 10
0.9253578746
 20
1.3590019685
 30
0.0
 11
0.9337032943
 21
1.3590019685
 31
0.0
  0
LINE
  5
175
330
DB
100
AcDbEntity
  8
0
  6
Continuous
 62
     7
370
    25
100
AcDbLine
 10
0.9337032943
 20
1.3590019685
 30
0.0
 11
0.9337032943
 21
1.4065019685
 31
0.0
  0
LINE
  5
176
330
DB
100
AcDbEntity
  8
0
  6
Continuous
 62
     7
370
    25
100
AcDbLine
 10
0.9337032943
 20
1.4065019685
 30
0.0
 11
0.9253578746
 21
1.4065019685
 31
0.0
  0
LINE
  5
177
330
DB
100
AcDbEntity
  8
0
  6
Continuous
 62
     7
370
    25
100
AcDbLine
 10
0.9200883807
 20
1.4170019685
 30
0.0
 11
0.9253578746
 21
1.4065019685
 31
0.0
  0
LINE
  5
178
330
DB
100
AcDbEntity
  8
0
  6
Continuous
 62
     7
370
    25
100
AcDbLine
 10
0.9200883807
 20
1.4170019685
 30
0.0
 11
0.9200883807
 21
1.5226509816
 31
0.0
  0
LWPOLYLINE
  5
179
330
DB
100
AcDbEntity
  8
0
  6
Continuous
 62
     7
370
    25
100
AcDbPolyline
 90
       15
 70
   128
 43
0.0
 10
0.9200883807
 20
1.5226509816
 10
0.920521047
 20
1.5245578442
 10
0.9210218856
 20
1.5264084969
 10
0.9215954985
 20
1.5282107342
 10
0.9222352201
 20
1.5299352851
 10
0.9230491878
 20
1.5318085968
 10
0.923944083
 20
1.5335525986
 10
0.924929855
 20
1.5351745227
 10
0.9259886941
 20
1.5366334363
 10
0.9270697768
 20
1.5378691502
 10
0.9282061039
 20
1.5389288453
 10
0.9294082998
 20
1.5398127692
 10
0.9306527375
 20
1.5404939035
 10
0.9323136213
 20
1.5410594752
 10
0.9340170844
 20
1.5412519685
  0
LINE
  5
17A
330
DB
100
AcDbEntity
  8
0
  6
Continuous
 62
     7
370
    25
100
AcDbLine
 10
1.001114976
 20
1.5412519685
 30
0.0
 11
0.9340170844
 21
1.5412519685
 31
0.0
  0
LINE
  5
17B
330
DB
100
AcDbEntity
  8
0
  6
Continuous
 62
     7
370
    25
100
AcDbLine
 10
1.001114976
 20
1.5412519685
 30
0.0
 11
1.001114976
 21
0.2987519685
 31
0.0
  0
LINE
  5
17C
330
DB
100
AcDbEntity
  8
0
  6
Continuous
 62
     7
370
    25
100
AcDbLine
 10
1.001114976
 20
0.2987519685
 30
0.0
 11
0.9340170844
 21
0.2987519685
 31
0.0
  0
LWPOLYLINE
  5
17D
330
DB
100
AcDbEntity
  8
0
  6
Continuous
 62
     7
370
    25
100
AcDbPolyline
 90
       15
 70
   128
 43
0.0
 10
0.9340170844
 20
0.2987519685
 10
0.9323279899
 20
0.2989412177
 10
0.9310901277
 20
0.2993239315
 10
0.9298639829
 20
0.2999151388
 10
0.9286410465
 20
0.30072843
 10
0.9274486814
 20
0.3017556977
 10
0.9263458097
 20
0.3029358681
 10
0.9252885566
 20
0.3043050136
 10
0.924271151
 20
0.3058817245
 10
0.92331814
 20
0.307640196
 10
0.9224765728
 20
0.3094799267
 10
0.9217092094
 20
0.3114672048
 10
0.9210136977
 20
0.3136233456
 10
0.9204088505
 20
0.3159077793
 10
0.9200883807
 20
0.3173529554
  0
LINE
  5
17E
330
DB
100
AcDbEntity
  8
0
  6
Continuous
 62
     7
370
    25
100
AcDbLine
 10
0.9200883807
 20
0.3173529554
 30
0.0
 11
0.9200883807
 21
0.4230019685
 31
0.0
  0
LINE
  5
17F
330
DB
100
AcDbEntity
  8
0
  6
Continuous
 62
     7
370
    25
100
AcDbLine
 10
0.9340170844
 20
0.2987519685
 30
0.0
 11
0.8881754027
 21
0.2987519685
 31
0.0
  0
LINE
  5
180
330
DB
100
AcDbEntity
  8
0
  6
Continuous
 62
     7
370
    25
100
AcDbLine
 10
1.4518265658
 20
0.2987519685
 30
0.0
 11
1.4059848841
 21
0.2987519685
 31
0.0
  0
LWPOLYLINE
  5
181
330
DB
100
AcDbEntity
  8
0
  6
Continuous
 62
     7
370
    25
100
AcDbPolyline
 90
       15
 70
   128
 43
0.0
 10
1.4199135878
 20
0.3173529554
 10
1.4194809216
 20
0.3154460928
 10
1.4189800829
 20
0.3135954401
 10
1.41840647
 20
0.3117932028
 10
1.4177667485
 20
0.3100686519
 10
1.4169527807
 20
0.3081953402
 10
1.4160578855
 20
0.3064513384
 10
1.4150721135
 20
0.3048294143
 10
1.4140132744
 20
0.3033705007
 10
1.4129321917
 20
0.3021347868
 10
1.4117958646
 20
0.3010750918
 10
1.4105936687
 20
0.3001911678
 10
1.409349231
 20
0.2995100335
 10
1.4076883472
 20
0.2989444618
 10
1.4059848841
 20
0.2987519685
  0
LINE
  5
182
330
DB
100
AcDbEntity
  8
0
  6
Continuous
 62
     7
370
    25
100
AcDbLine
 10
1.4199135878
 20
0.3173529554
 30
0.0
 11
1.4518265658
 21
0.3173529554
 31
0.0
  0
LINE
  5
183
330
DB
100
AcDbEntity
  8
0
  6
Continuous
 62
     7
370
    25
100
AcDbLine
 10
0.8881754027
 20
0.3173529554
 30
0.0
 11
0.9200883807
 21
0.3173529554
 31
0.0
  0
LINE
  5
184
330
DB
100
AcDbEntity
  8
0
  6
Continuous
 62
     7
370
    25
100
AcDbLine
 10
1.4146440939
 20
1.4065019685
 30
0.0
 11
1.4199135878
 21
1.4170019685
 31
0.0
  0
LINE
  5
185
330
DB
100
AcDbEntity
  8
0
  6
Continuous
 62
     7
370
    25
100
AcDbLine
 10
1.4146440939
 20
1.4065019685
 30
0.0
 11
1.4062986742
 21
1.4065019685
 31
0.0
  0
LINE
  5
186
330
DB
100
AcDbEntity
  8
0
  6
Continuous
 62
     7
370
    25
100
AcDbLine
 10
1.4062986742
 20
1.4065019685
 30
0.0
 11
1.4062986742
 21
1.3590019685
 31
0.0
  0
LINE
  5
187
330
DB
100
AcDbEntity
  8
0
  6
Continuous
 62
     7
370
    25
100
AcDbLine
 10
1.4062986742
 20
1.3590019685
 30
0.0
 11
1.4146440939
 21
1.3590019685
 31
0.0
  0
LINE
  5
188
330
DB
100
AcDbEntity
  8
0
  6
Continuous
 62
     7
370
    25
100
AcDbLine
 10
1.4199135878
 20
1.3485019685
 30
0.0
 11
1.4146440939
 21
1.3590019685
 31
0.0
  0
LINE
  5
189
330
DB
100
AcDbEntity
  8
0
  6
Continuous
 62
     7
370
    25
100
AcDbLine
 10
1.4199135878
 20
1.3485019685
 30
0.0
 11
1.4199135878
 21
1.1820019685
 31
0.0
  0
LINE
  5
18A
330
DB
100
AcDbEntity
  8
0
  6
Continuous
 62
     7
370
    25
100
AcDbLine
 10
1.4146440939
 20
1.1715019685
 30
0.0
 11
1.4199135878
 21
1.1820019685
 31
0.0
  0
LINE
  5
18B
330
DB
100
AcDbEntity
  8
0
  6
Continuous
 62
     7
370
    25
100
AcDbLine
 10
1.4146440939
 20
1.1715019685
 30
0.0
 11
1.3791703773
 21
1.1715019685
 31
0.0
  0
LINE
  5
18C
330
DB
100
AcDbEntity
  8
0
  6
Continuous
 62
     7
370
    25
100
AcDbLine
 10
1.3791703773
 20
1.1715019685
 30
0.0
 11
1.3791703773
 21
1.0465019685
 31
0.0
  0
LINE
  5
18D
330
DB
100
AcDbEntity
  8
0
  6
Continuous
 62
     7
370
    25
100
AcDbLine
 10
1.3791703773
 20
1.0465019685
 30
0.0
 11
1.4146440939
 21
1.0465019685
 31
0.0
  0
LINE
  5
18E
330
DB
100
AcDbEntity
  8
0
  6
Continuous
 62
     7
370
    25
100
AcDbLine
 10
1.4199135878
 20
1.0360019685
 30
0.0
 11
1.4146440939
 21
1.0465019685
 31
0.0
  0
LINE
  5
18F
330
DB
100
AcDbEntity
  8
0
  6
Continuous
 62
     7
370
    25
100
AcDbLine
 10
1.4199135878
 20
1.0360019685
 30
0.0
 11
1.4199135878
 21
0.8040019685
 31
0.0
  0
LINE
  5
190
330
DB
100
AcDbEntity
  8
0
  6
Continuous
 62
     7
370
    25
100
AcDbLine
 10
1.4146440939
 20
0.7935019685
 30
0.0
 11
1.4199135878
 21
0.8040019685
 31
0.0
  0
LINE
  5
191
330
DB
100
AcDbEntity
  8
0
  6
Continuous
 62
     7
370
    25
100
AcDbLine
 10
1.4146440939
 20
0.7935019685
 30
0.0
 11
1.3791703773
 21
0.7935019685
 31
0.0
  0
LINE
  5
192
330
DB
100
AcDbEntity
  8
0
  6
Continuous
 62
     7
370
    25
100
AcDbLine
 10
1.3791703773
 20
0.7935019685
 30
0.0
 11
1.3791703773
 21
0.6685019685
 31
0.0
  0
LINE
  5
193
330
DB
100
AcDbEntity
  8
0
  6
Continuous
 62
     7
370
    25
100
AcDbLine
 10
1.3791703773
 20
0.6685019685
 30
0.0
 11
1.4146440939
 21
0.6685019685
 31
0.0
  0
LINE
  5
194
330
DB
100
AcDbEntity
  8
0
  6
Continuous
 62
     7
370
    25
100
AcDbLine
 10
1.4199135878
 20
0.6580019685
 30
0.0
 11
1.4146440939
 21
0.6685019685
 31
0.0
  0
LINE
  5
195
330
DB
100
AcDbEntity
  8
0
  6
Continuous
 62
     7
370
    25
100
AcDbLine
 10
1.4199135878
 20
0.6580019685
 30
0.0
 11
1.4199135878
 21
0.4915019685
 31
0.0
  0
LINE
  5
196
330
DB
100
AcDbEntity
  8
0
  6
Continuous
 62
     7
370
    25
100
AcDbLine
 10
1.4146440939
 20
0.4810019685
 30
0.0
 11
1.4199135878
 21
0.4915019685
 31
0.0
  0
LINE
  5
197
330
DB
100
AcDbEntity
  8
0
  6
Continuous
 62
     7
370
    25
100
AcDbLine
 10
1.4146440939
 20
0.4810019685
 30
0.0
 11
1.4062986742
 21
0.4810019685
 31
0.0
  0
LINE
  5
198
330
DB
100
AcDbEntity
  8
0
  6
Continuous
 62
     7
370
    25
100
AcDbLine
 10
1.4062986742
 20
0.4810019685
 30
0.0
 11
1.4062986742
 21
0.4335019685
 31
0.0
  0
LINE
  5
199
330
DB
100
AcDbEntity
  8
0
  6
Continuous
 62
     7
370
    25
100
AcDbLine
 10
1.4062986742
 20
0.4335019685
 30
0.0
 11
1.4146440939
 21
0.4335019685
 31
0.0
  0
LINE
  5
19A
330
DB
100
AcDbEntity
  8
0
  6
Continuous
 62
     7
370
    25
100
AcDbLine
 10
1.4199135878
 20
0.4230019685
 30
0.0
 11
1.4146440939
 21
0.4335019685
 31
0.0
  0
LINE
  5
19B
330
DB
100
AcDbEntity
  8
0
  6
Continuous
 62
     7
370
    25
100
AcDbLine
 10
1.4199135878
 20
0.4230019685
 30
0.0
 11
1.4199135878
 21
0.3173529554
 31
0.0
  0
LINE
  5
19C
330
DB
100
AcDbEntity
  8
0
  6
Continuous
 62
     7
370
    25
100
AcDbLine
 10
1.4059848841
 20
0.2987519685
 30
0.0
 11
1.3388869925
 21
0.2987519685
 31
0.0
  0
LINE
  5
19D
330
DB
100
AcDbEntity
  8
0
  6
Continuous
 62
     7
370
    25
100
AcDbLine
 10
1.3388869925
 20
0.2987519685
 30
0.0
 11
1.3388869925
 21
1.5412519685
 31
0.0
  0
LINE
  5
19E
330
DB
100
AcDbEntity
  8
0
  6
Continuous
 62
     7
370
    25
100
AcDbLine
 10
1.4059848841
 20
1.5412519685
 30
0.0
 11
1.3388869925
 21
1.5412519685
 31
0.0
  0
LWPOLYLINE
  5
19F
330
DB
100
AcDbEntity
  8
0
  6
Continuous
 62
     7
370
    25
100
AcDbPolyline
 90
       15
 70
   128
 43
0.0
 10
1.4059848841
 20
1.5412519685
 10
1.4076739786
 20
1.5410627193
 10
1.4089118408
 20
1.5406800055
 10
1.4101379856
 20
1.5400887982
 10
1.411360922
 20
1.539275507
 10
1.4125532871
 20
1.5382482393
 10
1.4136561588
 20
1.5370680689
 10
1.4147134119
 20
1.5356989234
 10
1.4157308175
 20
1.5341222125
 10
1.4166838285
 20
1.532363741
 10
1.4175253957
 20
1.5305240103
 10
1.4182927591
 20
1.5285367322
 10
1.4189882709
 20
1.5263805915
 10
1.419593118
 20
1.5240961577
 10
1.4199135878
 20
1.5226509816
  0
LINE
  5
1A0
330
DB
100
AcDbEntity
  8
0
  6
Continuous
 62
     7
370
    25
100
AcDbLine
 10
1.4199135878
 20
1.5226509816
 30
0.0
 11
1.4199135878
 21
1.4170019685
 31
0.0
  0
LINE
  5
1A1
330
DB
100
AcDbEntity
  8
0
  6
Continuous
 62
     7
370
    25
100
AcDbLine
 10
0.9340170844
 20
1.5412519685
 30
0.0
 11
0.8881754027
 21
1.5412519685
 31
0.0
  0
LINE
  5
1A2
330
DB
100
AcDbEntity
  8
0
  6
Continuous
 62
     7
370
    25
100
AcDbLine
 10
1.4518265658
 20
1.5412519685
 30
0.0
 11
1.4059848841
 21
1.5412519685
 31
0.0
  0
LINE
  5
1A3
330
DB
100
AcDbEntity
  8
0
  6
Continuous
 62
     7
370
    25
100
AcDbLine
 10
0.9200883807
 20
1.5226509816
 30
0.0
 11
0.8881754027
 21
1.5226509816
 31
0.0
  0
LINE
  5
1A4
330
DB
100
AcDbEntity
  8
0
  6
Continuous
 62
     7
370
    25
100
AcDbLine
 10
1.4518265658
 20
1.5226509816
 30
0.0
 11
1.4199135878
 21
1.5226509816
 31
0.0
  0
LINE
  5
1A5
330
DB
100
AcDbEntity
  8
0
  6
Continuous
 62
     7
370
    25
100
AcDbLine
 10
1.4199135878
 20
1.3485019685
 30
0.0
 11
1.4518265658
 21
1.3485019685
 31
0.0
  0
LINE
  5
1A6
330
DB
100
AcDbEntity
  8
0
  6
Continuous
 62
     7
370
    25
100
AcDbLine
 10
0.8881754027
 20
1.3485019685
 30
0.0
 11
0.9200883807
 21
1.3485019685
 31
0.0
  0
LINE
  5
1A7
330
DB
100
AcDbEntity
  8
0
  6
Continuous
 62
     7
370
    25
100
AcDbLine
 10
0.9200883807
 20
1.1820019685
 30
0.0
 11
0.8881754027
 21
1.1820019685
 31
0.0
  0
LINE
  5
1A8
330
DB
100
AcDbEntity
  8
0
  6
Continuous
 62
     7
370
    25
100
AcDbLine
 10
1.4518265658
 20
1.1820019685
 30
0.0
 11
1.4199135878
 21
1.1820019685
 31
0.0
  0
LINE
  5
1A9
330
DB
100
AcDbEntity
  8
0
  6
Continuous
 62
     7
370
    25
100
AcDbLine
 10
1.4146440939
 20
0.6685019685
 30
0.0
 11
1.4518265658
 21
0.6685019685
 31
0.0
  0
LINE
  5
1AA
330
DB
100
AcDbEntity
  8
0
  6
Continuous
 62
     7
370
    25
100
AcDbLine
 10
0.8881754027
 20
0.6685019685
 30
0.0
 11
0.9253578746
 21
0.6685019685
 31
0.0
  0
LINE
  5
1AB
330
DB
100
AcDbEntity
  8
0
  6
Continuous
 62
     7
370
    25
100
AcDbLine
 10
1.4199135878
 20
0.6580019685
 30
0.0
 11
1.4518265658
 21
0.6580019685
 31
0.0
  0
LINE
  5
1AC
330
DB
100
AcDbEntity
  8
0
  6
Continuous
 62
     7
370
    25
100
AcDbLine
 10
0.8881754027
 20
0.6580019685
 30
0.0
 11
0.9200883807
 21
0.6580019685
 31
0.0
  0
LINE
  5
1AD
330
DB
100
AcDbEntity
  8
0
  6
Continuous
 62
     7
370
    25
100
AcDbLine
 10
1.4199135878
 20
0.4230019685
 30
0.0
 11
1.4518265658
 21
0.4230019685
 31
0.0
  0
LINE
  5
1AE
330
DB
100
AcDbEntity
  8
0
  6
Continuous
 62
     7
370
    25
100
AcDbLine
 10
0.8881754027
 20
0.4230019685
 30
0.0
 11
0.9200883807
 21
0.4230019685
 31
0.0
  0
LINE
  5
1AF
330
DB
100
AcDbEntity
  8
0
  6
Continuous
 62
     7
370
    25
100
AcDbLine
 10
1.4146440939
 20
1.0465019685
 30
0.0
 11
1.4494680338
 21
1.0465019685
 31
0.0
  0
LINE
  5
1B0
330
DB
100
AcDbEntity
  8
0
  6
Continuous
 62
     7
370
    25
100
AcDbLine
 10
0.8905233023
 20
1.0465019685
 30
0.0
 11
0.9253578746
 21
1.0465019685
 31
0.0
  0
LINE
  5
1B1
330
DB
100
AcDbEntity
  8
0
  6
Continuous
 62
     7
370
    25
100
AcDbLine
 10
1.4199135878
 20
1.0360019685
 30
0.0
 11
1.4493066215
 21
1.0360019685
 31
0.0
  0
LINE
  5
1B2
330
DB
100
AcDbEntity
  8
0
  6
Continuous
 62
     7
370
    25
100
AcDbLine
 10
0.8907002835
 20
1.0360019685
 30
0.0
 11
0.9200883807
 21
1.0360019685
 31
0.0
  0
LINE
  5
1B3
330
DB
100
AcDbEntity
  8
0
  6
Continuous
 62
     7
370
    25
100
AcDbLine
 10
0.9253578746
 20
1.4065019685
 30
0.0
 11
0.8881754027
 21
1.4065019685
 31
0.0
  0
LINE
  5
1B4
330
DB
100
AcDbEntity
  8
0
  6
Continuous
 62
     7
370
    25
100
AcDbLine
 10
1.4518265658
 20
1.4065019685
 30
0.0
 11
1.4146440939
 21
1.4065019685
 31
0.0
  0
LINE
  5
1B5
330
DB
100
AcDbEntity
  8
0
  6
Continuous
 62
     7
370
    25
100
AcDbLine
 10
0.9200883807
 20
1.4170019685
 30
0.0
 11
0.8881754027
 21
1.4170019685
 31
0.0
  0
LINE
  5
1B6
330
DB
100
AcDbEntity
  8
0
  6
Continuous
 62
     7
370
    25
100
AcDbLine
 10
1.4518265658
 20
1.4170019685
 30
0.0
 11
1.4199135878
 21
1.4170019685
 31
0.0
  0
LINE
  5
1B7
330
DB
100
AcDbEntity
  8
0
  6
Continuous
 62
     7
370
    25
100
AcDbLine
 10
0.9200883807
 20
0.4915019685
 30
0.0
 11
0.8881754027
 21
0.4915019685
 31
0.0
  0
LINE
  5
1B8
330
DB
100
AcDbEntity
  8
0
  6
Continuous
 62
     7
370
    25
100
AcDbLine
 10
1.4518265658
 20
0.4915019685
 30
0.0
 11
1.4199135878
 21
0.4915019685
 31
0.0
  0
LINE
  5
1B9
330
DB
100
AcDbEntity
  8
0
  6
Continuous
 62
     7
370
    25
100
AcDbLine
 10
0.9253578746
 20
0.4810019685
 30
0.0
 11
0.8881754027
 21
0.4810019685
 31
0.0
  0
LINE
  5
1BA
330
DB
100
AcDbEntity
  8
0
  6
Continuous
 62
     7
370
    25
100
AcDbLine
 10
1.4518265658
 20
0.4810019685
 30
0.0
 11
1.4146440939
 21
0.4810019685
 31
0.0
  0
LINE
  5
1BB
330
DB
100
AcDbEntity
  8
0
  6
Continuous
 62
     7
370
    25
100
AcDbLine
 10
1.4146440939
 20
1.3590019685
 30
0.0
 11
1.4518265658
 21
1.3590019685
 31
0.0
  0
LINE
  5
1BC
330
DB
100
AcDbEntity
  8
0
  6
Continuous
 62
     7
370
    25
100
AcDbLine
 10
0.8881754027
 20
1.3590019685
 30
0.0
 11
0.9253578746
 21
1.3590019685
 31
0.0
  0
LINE
  5
1BD
330
DB
100
AcDbEntity
  8
0
  6
Continuous
 62
     7
370
    25
100
AcDbLine
 10
0.9253578746
 20
0.7935019685
 30
0.0
 11
0.8905339347
 21
0.7935019685
 31
0.0
  0
LINE
  5
1BE
330
DB
100
AcDbEntity
  8
0
  6
Continuous
 62
     7
370
    25
100
AcDbLine
 10
1.4494786662
 20
0.7935019685
 30
0.0
 11
1.4146440939
 21
0.7935019685
 31
0.0
  0
LINE
  5
1BF
330
DB
100
AcDbEntity
  8
0
  6
Continuous
 62
     7
370
    25
100
AcDbLine
 10
0.9200883807
 20
0.8040019685
 30
0.0
 11
0.890695347
 21
0.8040019685
 31
0.0
  0
LINE
  5
1C0
330
DB
100
AcDbEntity
  8
0
  6
Continuous
 62
     7
370
    25
100
AcDbLine
 10
1.449301685
 20
0.8040019685
 30
0.0
 11
1.4199135878
 21
0.8040019685
 31
0.0
  0
LINE
  5
1C1
330
DB
100
AcDbEntity
  8
0
  6
Continuous
 62
     7
370
    25
100
AcDbLine
 10
1.4146440939
 20
0.4335019685
 30
0.0
 11
1.4518265658
 21
0.4335019685
 31
0.0
  0
LINE
  5
1C2
330
DB
100
AcDbEntity
  8
0
  6
Continuous
 62
     7
370
    25
100
AcDbLine
 10
0.8881754027
 20
0.4335019685
 30
0.0
 11
0.9253578746
 21
0.4335019685
 31
0.0
  0
LINE
  5
1C3
330
DB
100
AcDbEntity
  8
0
  6
Continuous
 62
     7
370
    25
100
AcDbLine
 10
0.9253578746
 20
1.1715019685
 30
0.0
 11
0.8881754027
 21
1.1715019685
 31
0.0
  0
LINE
  5
1C4
330
DB
100
AcDbEntity
  8
0
  6
Continuous
 62
     7
370
    25
100
AcDbLine
 10
1.4518265658
 20
1.1715019685
 30
0.0
 11
1.4146440939
 21
1.1715019685
 31
0.0
  0
LINE
  5
1C5
330
DB
100
AcDbEntity
  8
0
  6
Continuous
 62
     7
370
    25
100
AcDbLine
 10
1.3388869925
 20
0.2987519685
 30
0.0
 11
1.001425613
 21
0.2987519685
 31
0.0
  0
LINE
  5
1C6
330
DB
100
AcDbEntity
  8
0
  6
Continuous
 62
     7
370
    25
100
AcDbLine
 10
1.001114976
 20
1.5412519685
 30
0.0
 11
1.3385900516
 21
1.5412519685
 31
0.0
  0
ENDBLK
  5
DE
330
DB
100
AcDbEntity
  8
0
100
AcDbBlockEnd
  0
BLOCK
  5
1C9
330
1C7
100
AcDbEntity
  8
0
100
AcDbBlockBegin
  2
*Paper_Space2
 70
     0
 10
0.0
 20
0.0
 30
0.0
  3
*Paper_Space2
  1

  0
ARC
  5
1CB
330
1C7
100
AcDbEntity
  8
0
  6
Continuous
 62
     7
370
    25
100
AcDbCircle
 10
1.1700009843
 20
0.857
 30
0.0
 40
0.4450000000000001
100
AcDbArc
 50
124.8728404474
 51
129.295190543
  0
ARC
  5
1CC
330
1C7
100
AcDbEntity
  8
0
  6
Continuous
 62
     7
370
    25
100
AcDbCircle
 10
1.1700009843
 20
0.857
 30
0.0
 40
0.4450000000000001
100
AcDbArc
 50
50.7034747022
 51
55.1271511576
  0
ARC
  5
1CD
330
1C7
100
AcDbEntity
  8
0
  6
Continuous
 62
     7
370
    25
100
AcDbCircle
 10
0.7625297547
 20
1.2393202317
 30
0.0
 40
0.1200000000000001
100
AcDbArc
 50
300.3222232287
 51
305.2931629733
  0
ARC
  5
1CE
330
1C7
100
AcDbEntity
  8
0
  6
Continuous
 62
     7
370
    25
100
AcDbCircle
 10
0.8491937894
 20
1.1168892508
 30
0.0
 40
0.0300000000000002
100
AcDbArc
 50
48.6818340887
 51
125.2931629733
  0
ARC
  5
1CF
330
1C7
100
AcDbEntity
  8
0
  6
Continuous
 62
     7
370
    25
100
AcDbCircle
 10
1.1700009843
 20
0.857
 30
0.0
 40
0.4127500000000003
100
AcDbArc
 50
136.823974133
 51
43.176025867
  0
ARC
  5
1D0
330
1C7
100
AcDbEntity
  8
0
  6
Continuous
 62
     7
370
    25
100
AcDbCircle
 10
1.5774722138
 20
1.2393202317
 30
0.0
 40
0.1200000000000001
100
AcDbArc
 50
234.7068370267
 51
239.6777767713
  0
ARC
  5
1D1
330
1C7
100
AcDbEntity
  8
0
  6
Continuous
 62
     7
370
    25
100
AcDbCircle
 10
1.4908081791
 20
1.1168892508
 30
0.0
 40
0.0300000000000002
100
AcDbArc
 50
54.7068370267
 51
131.3181659113
  0
LINE
  5
1D2
330
1C7
100
AcDbEntity
  8
0
  6
Continuous
 62
     7
370
    25
100
AcDbLine
 10
1.4204752657
 20
1.2152366674
 30
0.0
 11
1.4244236658
 21
1.222075497
 31
0.0
  0
LINE
  5
1D3
330
1C7
100
AcDbEntity
  8
0
  6
Continuous
 62
     7
370
    25
100
AcDbLine
 10
0.9195281735
 20
1.21523412
 30
0.0
 11
0.9155713834
 21
1.2220874816
 31
0.0
  0
ARC
  5
1D4
330
1C7
100
AcDbEntity
  8
0
  6
Continuous
 62
     7
370
    25
100
AcDbCircle
 10
1.1700009843
 20
0.857
 30
0.0
 40
0.445
100
AcDbArc
 50
129.295190543
 51
50.704809457
  0
ARC
  5
1D5
330
1C7
100
AcDbEntity
  8
0
  6
Continuous
 62
     7
370
    25
100
AcDbCircle
 10
1.1700009843
 20
0.857
 30
0.0
 40
0.4650000000000001
100
AcDbArc
 50
128.8920624704
 51
51.1079375296
  0
LINE
  5
1D6
330
1C7
100
AcDbEntity
  8
0
  6
Continuous
 62
     7
370
    25
100
AcDbLine
 10
0.878047183
 20
1.2189251423
 30
0.0
 11
0.8881754027
 21
1.2013825512
 31
0.0
  0
LINE
  5
1D7
330
1C7
100
AcDbEntity
  8
0
  6
Continuous
 62
     7
370
    25
100
AcDbLine
 10
1.4518265658
 20
1.2013825512
 30
0.0
 11
1.4619547855
 21
1.2189251423
 31
0.0
  0
LINE
  5
1D8
330
1C7
100
AcDbEntity
  8
0
  6
Continuous
 62
     7
370
    25
100
AcDbLine
 10
1.8075009843
 20
1.295
 30
0.0
 11
1.505876625
 21
1.295
 31
0.0
  0
LINE
  5
1D9
330
1C7
100
AcDbEntity
  8
0
  6
Continuous
 62
     7
370
    25
100
AcDbLine
 10
1.8075009843
 20
0.17
 30
0.0
 11
1.8075009843
 21
1.295
 31
0.0
  0
LINE
  5
1DA
330
1C7
100
AcDbEntity
  8
0
  6
Continuous
 62
     7
370
    25
100
AcDbLine
 10
1.7294539789
 20
0.17
 30
0.0
 11
1.8075009843
 21
0.17
 31
0.0
  0
LINE
  5
1DB
330
1C7
100
AcDbEntity
  8
0
  6
Continuous
 62
     7
370
    25
100
AcDbLine
 10
1.6919262114
 20
0.235
 30
0.0
 11
1.7294539789
 21
0.17
 31
0.0
  0
LINE
  5
1DC
330
1C7
100
AcDbEntity
  8
0
  6
Continuous
 62
     7
370
    25
100
AcDbLine
 10
0.6480757571
 20
0.235
 30
0.0
 11
1.6919262114
 21
0.235
 31
0.0
  0
LINE
  5
1DD
330
1C7
100
AcDbEntity
  8
0
  6
Continuous
 62
     7
370
    25
100
AcDbLine
 10
0.6105479896
 20
0.17
 30
0.0
 11
0.6480757571
 21
0.235
 31
0.0
  0
LINE
  5
1DE
330
1C7
100
AcDbEntity
  8
0
  6
Continuous
 62
     7
370
    25
100
AcDbLine
 10
0.1700009843
 20
0.17
 30
0.0
 11
0.6105479896
 21
0.17
 31
0.0
  0
LINE
  5
1DF
330
1C7
100
AcDbEntity
  8
0
  6
Continuous
 62
     7
370
    25
100
AcDbLine
 10
0.1700009843
 20
0.42
 30
0.0
 11
0.1700009843
 21
0.17
 31
0.0
  0
LINE
  5
1E0
330
1C7
100
AcDbEntity
  8
0
  6
Continuous
 62
     7
370
    25
100
AcDbLine
 10
0.4825009843
 20
0.42
 30
0.0
 11
0.1700009843
 21
0.42
 31
0.0
  0
LINE
  5
1E1
330
1C7
100
AcDbEntity
  8
0
  6
Continuous
 62
     7
370
    25
100
AcDbLine
 10
0.4825009843
 20
0.8545
 30
0.0
 11
0.4825009843
 21
0.42
 31
0.0
  0
LINE
  5
1E2
330
1C7
100
AcDbEntity
  8
0
  6
Continuous
 62
     7
370
    25
100
AcDbLine
 10
0.4200009843
 20
0.917
 30
0.0
 11
0.4825009843
 21
0.8545
 31
0.0
  0
LINE
  5
1E3
330
1C7
100
AcDbEntity
  8
0
  6
Continuous
 62
     7
370
    25
100
AcDbLine
 10
0.4200009843
 20
1.265
 30
0.0
 11
0.4200009843
 21
0.917
 31
0.0
  0
ARC
  5
1E4
330
1C7
100
AcDbEntity
  8
0
  6
Continuous
 62
     7
370
    25
100
AcDbCircle
 10
0.4500009843
 20
1.265
 30
0.0
 40
0.03
100
AcDbArc
 50
90.0
 51
180.0
  0
LINE
  5
1E5
330
1C7
100
AcDbEntity
  8
0
  6
Continuous
 62
     7
370
    25
100
AcDbLine
 10
0.4613395669
 20
1.295
 30
0.0
 11
0.4500009843
 21
1.295
 31
0.0
  0
LINE
  5
1E6
330
1C7
100
AcDbEntity
  8
0
  6
Continuous
 62
     7
370
    25
100
AcDbLine
 10
0.4613395669
 20
0.9012992126
 30
0.0
 11
0.4613395669
 21
1.295
 31
0.0
  0
LINE
  5
1E7
330
1C7
100
AcDbEntity
  8
0
  6
Continuous
 62
     7
370
    25
100
AcDbLine
 10
0.5400797244
 20
0.9012992126
 30
0.0
 11
0.4613395669
 21
0.9012992126
 31
0.0
  0
LINE
  5
1E8
330
1C7
100
AcDbEntity
  8
0
  6
Continuous
 62
     7
370
    25
100
AcDbLine
 10
0.5400797244
 20
1.295
 30
0.0
 11
0.5400797244
 21
0.9012992126
 31
0.0
  0
LINE
  5
1E9
330
1C7
100
AcDbEntity
  8
0
  6
Continuous
 62
     7
370
    25
100
AcDbLine
 10
0.8341253435
 20
1.295
 30
0.0
 11
0.5400797244
 21
1.295
 31
0.0
  0
LINE
  5
1EA
330
1C7
100
AcDbEntity
  8
0
  6
Continuous
 62
     7
370
    25
100
AcDbLine
 10
0.8780481792
 20
1.2189234168
 30
0.0
 11
0.8341253435
 21
1.295
 31
0.0
  0
LINE
  5
1EB
330
1C7
100
AcDbEntity
  8
0
  6
Continuous
 62
     7
370
    25
100
AcDbLine
 10
1.505876625
 20
1.295
 30
0.0
 11
1.4619537893
 21
1.2189234168
 31
0.0
  0
LINE
  5
1EC
330
1C7
100
AcDbEntity
  8
0
  6
Continuous
 62
     7
370
    25
100
AcDbLine
 10
2.1700009843
 20
0.17
 30
0.0
 11
2.1700009843
 21
0.42
 31
0.0
  0
LINE
  5
1ED
330
1C7
100
AcDbEntity
  8
0
  6
Continuous
 62
     7
370
    25
100
AcDbLine
 10
1.9325009843
 20
0.17
 30
0.0
 11
2.1700009843
 21
0.17
 31
0.0
  0
LINE
  5
1EE
330
1C7
100
AcDbEntity
  8
0
  6
Continuous
 62
     7
370
    25
100
AcDbLine
 10
1.9325009843
 20
0.42
 30
0.0
 11
1.9325009843
 21
0.17
 31
0.0
  0
LINE
  5
1EF
330
1C7
100
AcDbEntity
  8
0
  6
Continuous
 62
     7
370
    25
100
AcDbLine
 10
2.1700009843
 20
0.42
 30
0.0
 11
1.9325009843
 21
0.42
 31
0.0
  0
ARC
  5
1F0
330
1C7
100
AcDbEntity
  8
0
  6
Continuous
 62
     7
370
    25
100
AcDbCircle
 10
1.8274958857
 20
1.2649949015
 30
0.0
 40
0.0300050989387854
100
AcDbArc
 50
0.0097357738
 51
89.9902642262
  0
LINE
  5
1F1
330
1C7
100
AcDbEntity
  8
0
  6
Continuous
 62
     7
370
    25
100
AcDbLine
 10
1.8575009843
 20
1.265
 30
0.0
 11
1.8575009843
 21
0.42
 31
0.0
  0
LINE
  5
1F2
330
1C7
100
AcDbEntity
  8
0
  6
Continuous
 62
     7
370
    25
100
AcDbLine
 10
1.9325009843
 20
0.17
 30
0.0
 11
1.8075009843
 21
0.17
 31
0.0
  0
LINE
  5
1F3
330
1C7
100
AcDbEntity
  8
0
  6
Continuous
 62
     7
370
    25
100
AcDbLine
 10
1.9325009843
 20
0.42
 30
0.0
 11
1.8575009843
 21
0.42
 31
0.0
  0
LINE
  5
1F4
330
1C7
100
AcDbEntity
  8
0
  6
Continuous
 62
     7
370
    25
100
AcDbLine
 10
1.8075009843
 20
1.295
 30
0.0
 11
1.8275009843
 21
1.295
 31
0.0
  0
LINE
  5
1F5
330
1C7
100
AcDbEntity
  8
0
  6
Continuous
 62
     7
370
    25
100
AcDbLine
 10
0.8881754027
 20
1.2013825512
 30
0.0
 11
0.8884807551
 21
1.2008536653
 31
0.0
  0
LINE
  5
1F6
330
1C7
100
AcDbEntity
  8
0
  6
Continuous
 62
     7
370
    25
100
AcDbLine
 10
1.4515213559
 20
1.2008539121
 30
0.0
 11
1.4518265658
 21
1.2013825512
 31
0.0
  0
ARC
  5
1F7
330
1C7
100
AcDbEntity
  8
0
  6
Continuous
 62
     7
370
    25
100
AcDbCircle
 10
1.1700009843
 20
0.857
 30
0.0
 40
0.2514750000000001
100
AcDbArc
 50
128.4863566492
 51
51.5136433508
  0
LINE
  5
1F8
330
1C7
100
AcDbEntity
  8
0
  6
Continuous
 62
     7
370
    25
100
AcDbLine
 10
1.3265009843
 20
1.0538436578
 30
0.0
 11
1.3388869925
 21
1.0752968534
 31
0.0
  0
LINE
  5
1F9
330
1C7
100
AcDbEntity
  8
0
  6
Continuous
 62
     7
370
    25
100
AcDbLine
 10
1.001114976
 20
1.0752968534
 30
0.0
 11
1.0135009843
 21
1.0538436578
 31
0.0
  0
LINE
  5
1FA
330
1C7
100
AcDbEntity
  8
0
  6
Continuous
 62
     7
370
    25
100
AcDbLine
 10
0.9340170844
 20
1.1915138108
 30
0.0
 11
0.9200883807
 21
1.2156390333
 31
0.0
  0
ARC
  5
1FB
330
1C7
100
AcDbEntity
  8
0
  6
Continuous
 62
     7
370
    25
100
AcDbCircle
 10
1.1700009843
 20
0.857
 30
0.0
 40
0.4093749999999996
100
AcDbArc
 50
125.2011853317
 51
54.7988146683
  0
LINE
  5
1FC
330
1C7
100
AcDbEntity
  8
0
  6
Continuous
 62
     7
370
    25
100
AcDbLine
 10
1.4199135878
 20
1.2156390333
 30
0.0
 11
1.4059848841
 21
1.1915138108
 31
0.0
  0
ARC
  5
1FD
330
1C7
100
AcDbEntity
  8
0
  6
Continuous
 62
     7
370
    25
100
AcDbCircle
 10
1.1700009843
 20
0.857
 30
0.0
 40
0.437125
100
AcDbArc
 50
41.3921334401
 51
55.1298262243
  0
ARC
  5
1FE
330
1C7
100
AcDbEntity
  8
0
  6
Continuous
 62
     7
370
    25
100
AcDbCircle
 10
1.1700009843
 20
0.857
 30
0.0
 40
0.437125
100
AcDbArc
 50
124.8701737757
 51
138.6078665599
  0
ARC
  5
1FF
330
1C7
100
AcDbEntity
  8
0
  6
Continuous
 62
     7
370
    25
100
AcDbCircle
 10
1.1700009843
 20
0.857
 30
0.0
 40
0.276
100
AcDbArc
 50
127.7274346037
 51
52.2725653963
  0
LINE
  5
200
330
1C7
100
AcDbEntity
  8
0
  6
Continuous
 62
     7
370
    25
100
AcDbLine
 10
1.3388869925
 20
1.0752968534
 30
0.0
 11
1.4059848841
 21
1.1915138108
 31
0.0
  0
LINE
  5
201
330
1C7
100
AcDbEntity
  8
0
  6
Continuous
 62
     7
370
    25
100
AcDbLine
 10
0.9340170844
 20
1.1915138108
 30
0.0
 11
1.001114976
 21
1.0752968534
 31
0.0
  0
ENDBLK
  5
1CA
330
1C7
100
AcDbEntity
  8
0
100
AcDbBlockEnd
  0
ENDSEC
  0
SECTION
  2
ENTITIES
  0
LINE
  5
74
330
1F
100
AcDbEntity
  8
0
  6
Continuous
 62
     7
370
    25
100
AcDbLine
 10
0.9160376956
 20
1.2212798052
 30
0.0
 11
0.8881754027
 21
1.2013825512
 31
0.0
  0
LINE
  5
75
330
1F
100
AcDbEntity
  8
0
  6
Continuous
 62
     7
370
    25
100
AcDbLine
 10
1.4518265658
 20
1.2013825512
 30
0.0
 11
1.4243515388
 21
1.2219505695
 31
0.0
  0
LINE
  5
76
330
1F
100
AcDbEntity
  8
0
  6
Continuous
 62
     7
370
    25
100
AcDbLine
 10
1.4199135878
 20
1.2156390333
 30
0.0
 11
1.4243515388
 21
1.2219505695
 31
0.0
  0
LINE
  5
77
330
1F
100
AcDbEntity
  8
0
  6
Continuous
 62
     7
370
    25
100
AcDbLine
 10
0.9200883807
 20
1.2156390333
 30
0.0
 11
0.9160376956
 21
1.2212798052
 31
0.0
  0
ARC
  5
78
330
1F
100
AcDbEntity
  8
0
  6
Continuous
 62
     7
370
    25
100
AcDbCircle
 10
0.8491937894
 20
1.1168892508
 30
0.0
 40
0.03
100
AcDbArc
 50
48.6818340887
 51
125.2931629733
  0
ARC
  5
79
330
1F
100
AcDbEntity
  8
0
  6
Continuous
 62
     7
370
    25
100
AcDbCircle
 10
1.1700009843
 20
0.857
 30
0.0
 40
0.4127499999999998
100
AcDbArc
 50
136.823974133
 51
43.176025867
  0
ARC
  5
7A
330
1F
100
AcDbEntity
  8
0
  6
Continuous
 62
     7
370
    25
100
AcDbCircle
 10
1.4908081791
 20
1.1168892508
 30
0.0
 40
0.0300000000000001
100
AcDbArc
 50
54.7068370267
 51
131.3181659113
  0
LWPOLYLINE
  5
7B
330
1F
100
AcDbEntity
  8
0
  6
Continuous
 62
     7
370
    25
100
AcDbPolyline
 90
        3
 70
   128
 43
0.0
 10
0.8318609825
 20
1.141375447
 10
0.8254261159
 20
1.1371241078
 10
0.8318609825
 20
1.141375447
  0
LWPOLYLINE
  5
7C
330
1F
100
AcDbEntity
  8
0
  6
Continuous
 62
     7
370
    25
100
AcDbPolyline
 90
        3
 70
   128
 43
0.0
 10
1.508140986
 20
1.141375447
 10
1.5145758526
 20
1.1371241078
 10
1.508140986
 20
1.141375447
  0
LINE
  5
7D
330
1F
100
AcDbEntity
  8
0
  6
Continuous
 62
     7
370
    25
100
AcDbLine
 10
1.7999222441
 20
1.295
 30
0.0
 11
1.7999222441
 21
0.9012992126
 31
0.0
  0
LINE
  5
7E
330
1F
100
AcDbEntity
  8
0
  6
Continuous
 62
     7
370
    25
100
AcDbLine
 10
1.7999222441
 20
0.9012992126
 30
0.0
 11
1.8786624016
 21
0.9012992126
 31
0.0
  0
LINE
  5
7F
330
1F
100
AcDbEntity
  8
0
  6
Continuous
 62
     7
370
    25
100
AcDbLine
 10
1.8786624016
 20
0.9012992126
 30
0.0
 11
1.8786624016
 21
1.295
 31
0.0
  0
LINE
  5
80
330
1F
100
AcDbEntity
  8
0
  6
Continuous
 62
     7
370
    25
100
AcDbLine
 10
1.8900009843
 20
1.295
 30
0.0
 11
1.8786624016
 21
1.295
 31
0.0
  0
ARC
  5
81
330
1F
100
AcDbEntity
  8
0
  6
Continuous
 62
     7
370
    25
100
AcDbCircle
 10
1.8900009843
 20
1.265
 30
0.0
 40
0.03
100
AcDbArc
 50
0.0
 51
90.0
  0
LINE
  5
82
330
1F
100
AcDbEntity
  8
0
  6
Continuous
 62
     7
370
    25
100
AcDbLine
 10
1.9200009843
 20
0.917
 30
0.0
 11
1.9200009843
 21
1.265
 31
0.0
  0
LINE
  5
83
330
1F
100
AcDbEntity
  8
0
  6
Continuous
 62
     7
370
    25
100
AcDbLine
 10
1.8575009843
 20
0.8545
 30
0.0
 11
1.9200009843
 21
0.917
 31
0.0
  0
LINE
  5
84
330
1F
100
AcDbEntity
  8
0
  6
Continuous
 62
     7
370
    25
100
AcDbLine
 10
1.8575009843
 20
0.8545
 30
0.0
 11
1.8575009843
 21
0.42
 31
0.0
  0
LINE
  5
85
330
1F
100
AcDbEntity
  8
0
  6
Continuous
 62
     7
370
    25
100
AcDbLine
 10
2.1700009843
 20
0.42
 30
0.0
 11
1.8575009843
 21
0.42
 31
0.0
  0
LINE
  5
86
330
1F
100
AcDbEntity
  8
0
  6
Continuous
 62
     7
370
    25
100
AcDbLine
 10
2.1700009843
 20
0.17
 30
0.0
 11
2.1700009843
 21
0.42
 31
0.0
  0
LINE
  5
87
330
1F
100
AcDbEntity
  8
0
  6
Continuous
 62
     7
370
    25
100
AcDbLine
 10
2.1700009843
 20
0.17
 30
0.0
 11
1.7294539789
 21
0.17
 31
0.0
  0
LINE
  5
88
330
1F
100
AcDbEntity
  8
0
  6
Continuous
 62
     7
370
    25
100
AcDbLine
 10
1.7294539789
 20
0.17
 30
0.0
 11
1.6919262114
 21
0.235
 31
0.0
  0
LINE
  5
89
330
1F
100
AcDbEntity
  8
0
  6
Continuous
 62
     7
370
    25
100
AcDbLine
 10
1.6919262114
 20
0.235
 30
0.0
 11
0.6480757571
 21
0.235
 31
0.0
  0
LINE
  5
8A
330
1F
100
AcDbEntity
  8
0
  6
Continuous
 62
     7
370
    25
100
AcDbLine
 10
0.6480757571
 20
0.235
 30
0.0
 11
0.6105479896
 21
0.17
 31
0.0
  0
LINE
  5
8B
330
1F
100
AcDbEntity
  8
0
  6
Continuous
 62
     7
370
    25
100
AcDbLine
 10
0.6105479896
 20
0.17
 30
0.0
 11
0.1700009843
 21
0.17
 31
0.0
  0
LINE
  5
8C
330
1F
100
AcDbEntity
  8
0
  6
Continuous
 62
     7
370
    25
100
AcDbLine
 10
0.1700009843
 20
0.42
 30
0.0
 11
0.1700009843
 21
0.17
 31
0.0
  0
ARC
  5
8D
330
1F
100
AcDbEntity
  8
0
  6
Continuous
 62
     7
370
    25
100
AcDbCircle
 10
0.5125009843
 20
1.265
 30
0.0
 40
0.03
100
AcDbArc
 50
90.0
 51
180.0
  0
LINE
  5
8E
330
1F
100
AcDbEntity
  8
0
  6
Continuous
 62
     7
370
    25
100
AcDbLine
 10
0.5125009843
 20
1.295
 30
0.0
 11
0.8341253435
 21
1.295
 31
0.0
  0
LINE
  5
8F
330
1F
100
AcDbEntity
  8
0
  6
Continuous
 62
     7
370
    25
100
AcDbLine
 10
0.8341253435
 20
1.295
 30
0.0
 11
0.8780481792
 21
1.2189234168
 31
0.0
  0
ARC
  5
90
330
1F
100
AcDbEntity
  8
0
  6
Continuous
 62
     7
370
    25
100
AcDbCircle
 10
1.1700009843
 20
0.857
 30
0.0
 40
0.4650000000000001
100
AcDbArc
 50
128.8920814446
 51
51.1079185554
  0
LINE
  5
91
330
1F
100
AcDbEntity
  8
0
  6
Continuous
 62
     7
370
    25
100
AcDbLine
 10
1.4619537893
 20
1.2189234168
 30
0.0
 11
1.505876625
 21
1.295
 31
0.0
  0
LINE
  5
92
330
1F
100
AcDbEntity
  8
0
  6
Continuous
 62
     7
370
    25
100
AcDbLine
 10
1.505876625
 20
1.295
 30
0.0
 11
1.7999222441
 21
1.295
 31
0.0
  0
LINE
  5
93
330
1F
100
AcDbEntity
  8
0
  6
Continuous
 62
     7
370
    25
100
AcDbLine
 10
0.4825009843
 20
0.42
 30
0.0
 11
0.4825009843
 21
1.265
 31
0.0
  0
LINE
  5
94
330
1F
100
AcDbEntity
  8
0
  6
Continuous
 62
     7
370
    25
100
AcDbLine
 10
0.4825009843
 20
0.42
 30
0.0
 11
0.1700009843
 21
0.42
 31
0.0
  0
ARC
  5
95
330
1F
100
AcDbEntity
  8
0
  6
Continuous
 62
     7
370
    25
100
AcDbCircle
 10
1.1700009843
 20
0.857
 30
0.0
 40
0.445
100
AcDbArc
 50
129.295190543
 51
50.704809457
  0
LINE
  5
96
330
1F
100
AcDbEntity
  8
0
  6
Continuous
 62
     7
370
    25
100
AcDbLine
 10
1.4518265658
 20
1.2013825512
 30
0.0
 11
1.4619537893
 21
1.2189234168
 31
0.0
  0
LINE
  5
97
330
1F
100
AcDbEntity
  8
0
  6
Continuous
 62
     7
370
    25
100
AcDbLine
 10
0.8780481792
 20
1.2189234168
 30
0.0
 11
0.8881754027
 21
1.2013825512
 31
0.0
  0
LINE
  5
98
330
1F
100
AcDbEntity
  8
0
  6
Continuous
 62
     7
370
    25
100
AcDbLine
 10
1.4518265658
 20
1.2013825512
 30
0.0
 11
1.4518265658
 21
1.2013825512
 31
0.0
  0
LINE
  5
99
330
1F
100
AcDbEntity
  8
0
  6
Continuous
 62
     7
370
    25
100
AcDbLine
 10
0.8881754027
 20
1.2013825512
 30
0.0
 11
0.8884253761
 21
1.2009495845
 31
0.0
  0
ARC
  5
9A
330
1F
100
AcDbEntity
  8
0
  6
Continuous
 62
     7
370
    25
100
AcDbCircle
 10
1.1700009843
 20
0.857
 30
0.0
 40
0.2514750000000001
100
AcDbArc
 50
128.4863566492
 51
51.5136433508
  0
LINE
  5
9B
330
1F
100
AcDbEntity
  8
0
  6
Continuous
 62
     7
370
    25
100
AcDbLine
 10
1.0135009843
 20
1.0538436578
 30
0.0
 11
1.001114976
 21
1.0752968534
 31
0.0
  0
LINE
  5
9C
330
1F
100
AcDbEntity
  8
0
  6
Continuous
 62
     7
370
    25
100
AcDbLine
 10
1.3388869925
 20
1.0752968534
 30
0.0
 11
1.3265009843
 21
1.0538436578
 31
0.0
  0
ARC
  5
9D
330
1F
100
AcDbEntity
  8
0
  6
Continuous
 62
     7
370
    25
100
AcDbCircle
 10
1.1700009843
 20
0.857
 30
0.0
 40
0.4093749999999995
100
AcDbArc
 50
125.2011853317
 51
54.7988146683
  0
LINE
  5
9E
330
1F
100
AcDbEntity
  8
0
  6
Continuous
 62
     7
370
    25
100
AcDbLine
 10
1.4199135878
 20
1.2156390333
 30
0.0
 11
1.4059848841
 21
1.1915138108
 31
0.0
  0
ARC
  5
9F
330
1F
100
AcDbEntity
  8
0
  6
Continuous
 62
     7
370
    25
100
AcDbCircle
 10
1.1849927861
 20
0.8470057703
 30
0.0
 40
0.4371250000000001
100
AcDbArc
 50
42.3317440685
 51
57.4916523119
  0
ARC
  5
A0
330
1F
100
AcDbEntity
  8
0
  6
Continuous
 62
     7
370
    25
100
AcDbCircle
 10
1.1550091824
 20
0.8470057703
 30
0.0
 40
0.4371250000000001
100
AcDbArc
 50
122.5083476881
 51
137.6682559315
  0
LINE
  5
A1
330
1F
100
AcDbEntity
  8
0
  6
Continuous
 62
     7
370
    25
100
AcDbLine
 10
0.9340170844
 20
1.1915138108
 30
0.0
 11
0.9200883807
 21
1.2156390333
 31
0.0
  0
ARC
  5
A2
330
1F
100
AcDbEntity
  8
0
  6
Continuous
 62
     7
370
    25
100
AcDbCircle
 10
1.1700009843
 20
0.857
 30
0.0
 40
0.276
100
AcDbArc
 50
127.7274346037
 51
52.2725653963
  0
LINE
  5
A3
330
1F
100
AcDbEntity
  8
0
  6
Continuous
 62
     7
370
    25
100
AcDbLine
 10
1.4059848841
 20
1.1915138108
 30
0.0
 11
1.3388869925
 21
1.0752968534
 31
0.0
  0
LINE
  5
A4
330
1F
100
AcDbEntity
  8
0
  6
Continuous
 62
     7
370
    25
100
AcDbLine
 10
1.001114976
 20
1.0752968534
 30
0.0
 11
0.9340170844
 21
1.1915138108
 31
0.0
  0
LINE
  5
A5
330
1B
100
AcDbEntity
 67
     1
  8
0
  6
Continuous
 62
     7
370
    25
100
AcDbLine
 10
0.7822066929
 20
0.7678122203
 30
0.0
 11
0.7822066929
 21
0.9461877797
 31
0.0
  0
ARC
  5
A6
330
1B
100
AcDbEntity
 67
     1
  8
0
  6
Continuous
 62
     7
370
    25
100
AcDbCircle
 10
0.9200019685
 20
0.732
 30
0.0
 40
0.0360625000000001
100
AcDbArc
 50
4.5825265681
 51
355.4174734319
  0
LINE
  5
A7
330
1B
100
AcDbEntity
 67
     1
  8
0
  6
Continuous
 62
     7
370
    25
100
AcDbLine
 10
0.9559491872
 20
0.7291187889
 30
0.0
 11
0.958958066
 21
0.7291187889
 31
0.0
  0
ARC
  5
A8
330
1B
100
AcDbEntity
 67
     1
  8
0
  6
Continuous
 62
     7
370
    25
100
AcDbCircle
 10
0.9200019685
 20
0.732
 30
0.0
 40
0.0390625000000004
100
AcDbArc
 50
4.2299209107
 51
355.7700790893
  0
LINE
  5
A9
330
1B
100
AcDbEntity
 67
     1
  8
0
  6
Continuous
 62
     7
370
    25
100
AcDbLine
 10
0.958958066
 20
0.7348812111
 30
0.0
 11
0.9559491872
 21
0.7348812111
 31
0.0
  0
ARC
  5
AA
330
1B
100
AcDbEntity
 67
     1
  8
0
  6
Continuous
 62
     7
370
    25
100
AcDbCircle
 10
0.9200019685
 20
0.732
 30
0.0
 40
0.0270625000000003
100
AcDbArc
 50
6.1115822941
 51
353.8884177059
  0
LINE
  5
AB
330
1B
100
AcDbEntity
 67
     1
  8
0
  6
Continuous
 62
     7
370
    25
100
AcDbLine
 10
0.9559491872
 20
0.7291187889
 30
0.0
 11
0.9469106572
 21
0.7291187889
 31
0.0
  0
LINE
  5
AC
330
1B
100
AcDbEntity
 67
     1
  8
0
  6
Continuous
 62
     7
370
    25
100
AcDbLine
 10
0.9469106572
 20
0.7348812111
 30
0.0
 11
0.9559491872
 21
0.7348812111
 31
0.0
  0
LINE
  5
AD
330
1B
100
AcDbEntity
 67
     1
  8
0
  6
Continuous
 62
     7
370
    25
100
AcDbLine
 10
1.6700019685
 20
0.17
 30
0.0
 11
0.1700019685
 21
0.17
 31
0.0
  0
LINE
  5
AE
330
1B
100
AcDbEntity
 67
     1
  8
0
  6
Continuous
 62
     7
370
    25
100
AcDbLine
 10
1.6700019685
 20
0.42
 30
0.0
 11
1.6700019685
 21
0.17
 31
0.0
  0
LINE
  5
AF
330
1B
100
AcDbEntity
 67
     1
  8
0
  6
Continuous
 62
     7
370
    25
100
AcDbLine
 10
1.6700019685
 20
0.42
 30
0.0
 11
0.1700019685
 21
0.42
 31
0.0
  0
LINE
  5
B0
330
1B
100
AcDbEntity
 67
     1
  8
0
  6
Continuous
 62
     7
370
    25
100
AcDbLine
 10
0.1700019685
 20
0.17
 30
0.0
 11
0.1700019685
 21
0.42
 31
0.0
  0
LINE
  5
B1
330
1B
100
AcDbEntity
 67
     1
  8
0
  6
Continuous
 62
     7
370
    25
100
AcDbLine
 10
1.6700019685
 20
0.917
 30
0.0
 11
0.8119920248
 21
0.917
 31
0.0
  0
LINE
  5
B2
330
1B
100
AcDbEntity
 67
     1
  8
0
  6
Continuous
 62
     7
370
    25
100
AcDbLine
 10
1.6700019685
 20
0.8545
 30
0.0
 11
0.8304726217
 21
0.8545
 31
0.0
  0
ARC
  5
B3
330
1B
100
AcDbEntity
 67
     1
  8
0
  6
Continuous
 62
     7
370
    25
100
AcDbCircle
 10
0.7240019685
 20
0.857
 30
0.0
 40
0.1065000000000002
100
AcDbArc
 50
358.6549050978
 51
34.2898906152
  0
LINE
  5
B4
330
1B
100
AcDbEntity
 67
     1
  8
0
  6
Continuous
 62
     7
370
    25
100
AcDbLine
 10
1.6700019685
 20
0.917
 30
0.0
 11
1.6700019685
 21
0.8545
 31
0.0
  0
LINE
  5
B5
330
1B
100
AcDbEntity
 67
     1
  8
0
  6
Continuous
 62
     7
370
    25
100
AcDbLine
 10
0.6175313153
 20
0.8545
 30
0.0
 11
0.1700019685
 21
0.8545
 31
0.0
  0
LINE
  5
B6
330
1B
100
AcDbEntity
 67
     1
  8
0
  6
Continuous
 62
     7
370
    25
100
AcDbLine
 10
0.6360119122
 20
0.917
 30
0.0
 11
0.1700019685
 21
0.917
 31
0.0
  0
ARC
  5
B7
330
1B
100
AcDbEntity
 67
     1
  8
0
  6
Continuous
 62
     7
370
    25
100
AcDbCircle
 10
0.7240019685
 20
0.857
 30
0.0
 40
0.1065000000000001
100
AcDbArc
 50
145.7101093848
 51
181.3450949022
  0
LINE
  5
B8
330
1B
100
AcDbEntity
 67
     1
  8
0
  6
Continuous
 62
     7
370
    25
100
AcDbLine
 10
0.1700019685
 20
0.8545
 30
0.0
 11
0.1700019685
 21
0.917
 31
0.0
  0
LINE
  5
B9
330
1B
100
AcDbEntity
 67
     1
  8
0
  6
Continuous
 62
     7
370
    25
100
AcDbLine
 10
0.9524981221
 20
1.295
 30
0.0
 11
1.6700019685
 21
1.295
 31
0.0
  0
LINE
  5
BA
330
1B
100
AcDbEntity
 67
     1
  8
0
  6
Continuous
 62
     7
370
    25
100
AcDbLine
 10
1.6700019685
 20
1.265
 30
0.0
 11
0.9693578192
 21
1.265
 31
0.0
  0
ARC
  5
BB
330
1B
100
AcDbEntity
 67
     1
  8
0
  6
Continuous
 62
     7
370
    25
100
AcDbCircle
 10
0.9200008183
 20
1.2569993536
 30
0.0
 40
0.0500012388659892
100
AcDbArc
 50
9.2074165256
 51
49.4636775844
  0
LINE
  5
BC
330
1B
100
AcDbEntity
 67
     1
  8
0
  6
Continuous
 62
     7
370
    25
100
AcDbLine
 10
1.6700019685
 20
1.295
 30
0.0
 11
1.6700019685
 21
1.265
 31
0.0
  0
LINE
  5
BD
330
1B
100
AcDbEntity
 67
     1
  8
0
  6
Continuous
 62
     7
370
    25
100
AcDbLine
 10
0.8706461178
 20
1.265
 30
0.0
 11
0.1700019685
 21
1.265
 31
0.0
  0
LINE
  5
BE
330
1B
100
AcDbEntity
 67
     1
  8
0
  6
Continuous
 62
     7
370
    25
100
AcDbLine
 10
0.1700019685
 20
1.295
 30
0.0
 11
0.8875058149
 21
1.295
 31
0.0
  0
ARC
  5
BF
330
1B
100
AcDbEntity
 67
     1
  8
0
  6
Continuous
 62
     7
370
    25
100
AcDbCircle
 10
0.9200039259
 20
1.2569989
 30
0.0
 40
0.0500021081781739
100
AcDbArc
 50
130.5366874967
 51
170.7922183933
  0
LINE
  5
C0
330
1B
100
AcDbEntity
 67
     1
  8
0
  6
Continuous
 62
     7
370
    25
100
AcDbLine
 10
0.1700019685
 20
1.265
 30
0.0
 11
0.1700019685
 21
1.295
 31
0.0
  0
ARC
  5
C1
330
1B
100
AcDbEntity
 67
     1
  8
0
  6
Continuous
 62
     7
370
    25
100
AcDbCircle
 10
0.7240019685
 20
0.857
 30
0.0
 40
0.1065
100
AcDbArc
 50
34.2898906152
 51
145.7101093848
  0
ARC
  5
C2
330
1B
100
AcDbEntity
 67
     1
  8
0
  6
Continuous
 62
     7
370
    25
100
AcDbCircle
 10
0.9200019685
 20
1.257
 30
0.0
 40
0.0500000000000004
100
AcDbArc
 50
170.7931037787
 51
9.2068962213
  0
LINE
  5
C3
330
1B
100
AcDbEntity
 67
     1
  8
0
  6
Continuous
 62
     7
370
    25
100
AcDbLine
 10
1.6700019685
 20
1.265
 30
0.0
 11
1.6700019685
 21
0.917
 31
0.0
  0
LINE
  5
C4
330
1B
100
AcDbEntity
 67
     1
  8
0
  6
Continuous
 62
     7
370
    25
100
AcDbLine
 10
0.1700019685
 20
0.917
 30
0.0
 11
0.1700019685
 21
1.265
 31
0.0
  0
CIRCLE
  5
C5
330
1B
100
AcDbEntity
 67
     1
  8
0
  6
Continuous
 62
     7
370
    25
100
AcDbCircle
 10
0.9200019685
 20
0.732
 30
0.0
 40
0.0395000000000005
  0
ARC
  5
C6
330
1B
100
AcDbEntity
 67
     1
  8
0
  6
Continuous
 62
     7
370
    25
100
AcDbCircle
 10
0.7240019685
 20
0.857
 30
0.0
 40
0.1065000000000002
100
AcDbArc
 50
181.3450949022
 51
358.6549050978
  0
LINE
  5
C7
330
1B
100
AcDbEntity
 67
     1
  8
0
  6
Continuous
 62
     7
370
    25
100
AcDbLine
 10
1.6700019685
 20
0.8545
 30
0.0
 11
1.6700019685
 21
0.42
 31
0.0
  0
LINE
  5
C8
330
1B
100
AcDbEntity
 67
     1
  8
0
  6
Continuous
 62
     7
370
    25
100
AcDbLine
 10
0.1700019685
 20
0.8545
 30
0.0
 11
0.1700019685
 21
0.42
 31
0.0
  0
LINE
  5
C9
330
1B
100
AcDbEntity
 67
     1
  8
0
  6
Continuous
 62
     7
370
    25
100
AcDbLine
 10
0.8875058149
 20
1.295
 30
0.0
 11
0.9524981221
 21
1.295
 31
0.0
  0
LINE
  5
CA
330
1B
100
AcDbEntity
 67
     1
  8
0
  6
Continuous
 62
     7
370
    25
100
AcDbLine
 10
0.7935019685
 20
0.776303036
 30
0.0
 11
0.7935019685
 21
0.937696964
 31
0.0
  0
LINE
  5
CB
330
1B
100
AcDbEntity
 67
     1
  8
0
  6
Continuous
 62
     7
370
    25
100
AcDbLine
 10
0.8040019685
 20
0.786698862
 30
0.0
 11
0.8040019685
 21
0.927301138
 31
0.0
  0
LINE
  5
CC
330
1B
100
AcDbEntity
 67
     1
  8
0
  6
Continuous
 62
     7
370
    25
100
AcDbLine
 10
0.6580019685
 20
0.9405837903
 30
0.0
 11
0.6580019685
 21
0.7734162097
 31
0.0
  0
LINE
  5
CD
330
1B
100
AcDbEntity
 67
     1
  8
0
  6
Continuous
 62
     7
370
    25
100
AcDbLine
 10
0.6685019685
 20
0.9478955444
 30
0.0
 11
0.6685019685
 21
0.7661044556
 31
0.0
  0
ENDSEC
  0
SECTION
  2
OBJECTS
  0
DICTIONARY
  5
C
330
0
100
AcDbDictionary
281
     1
  3
ACAD_DETAILVIEWSTYLE
350
209
  3
ACAD_GROUP
350
D
  3
ACAD_LAYOUT
350
1A
  3
ACAD_MATERIAL
350
43
  3
ACAD_MLEADERSTYLE
350
6B
  3
ACAD_MLINESTYLE
350
17
  3
ACAD_PLOTSETTINGS
350
19
  3
ACAD_PLOTSTYLENAME
350
E
  3
ACAD_SCALELIST
350
47
  3
ACAD_SECTIONVIEWSTYLE
350
20A
  3
ACAD_TABLESTYLE
350
69
  3
ACAD_VISUALSTYLE
350
2A
  3
ACDB_RECOMPOSE_DATA
350
206
  3
AcDbVariableDictionary
350
202
  0
SUN
  5
6D
330
29
100
AcDbSun
 90
        1
290
     0
 63
     7
421
 16777215
 40
1.0
291
     1
 91
  2455826
 92
 54000000
292
     0
 70
     2
 71
   256
280
     1
  0
DICTIONARY
  5
209
102
{ACAD_REACTORS
330
C
102
}
330
C
100
AcDbDictionary
281
     1
  0
DICTIONARY
  5
D
102
{ACAD_REACTORS
330
C
102
}
330
C
100
AcDbDictionary
281
     1
  0
DICTIONARY
  5
1A
102
{ACAD_REACTORS
330
C
102
}
330
C
100
AcDbDictionary
281
     1
  3
Back
350
1C8
  3
Left
350
26
  3
Model
350
22
  3
Right
350
1E
  3
Top
350
DC
  0
DICTIONARY
  5
43
102
{ACAD_REACTORS
330
C
102
}
330
C
100
AcDbDictionary
281
     1
  3
ByBlock
350
45
  3
ByLayer
350
44
  3
Global
350
46
  0
DICTIONARY
  5
6B
102
{ACAD_REACTORS
330
C
102
}
330
C
100
AcDbDictionary
281
     1
  3
Standard
350
6C
  0
DICTIONARY
  5
17
102
{ACAD_REACTORS
330
C
102
}
330
C
100
AcDbDictionary
281
     1
  3
Standard
350
18
  0
DICTIONARY
  5
19
102
{ACAD_REACTORS
330
C
102
}
330
C
100
AcDbDictionary
281
     1
  0
ACDBDICTIONARYWDFLT
  5
E
102
{ACAD_REACTORS
330
C
102
}
330
C
100
AcDbDictionary
281
     1
  3
Normal
350
F
100
AcDbDictionaryWithDefault
340
F
  0
DICTIONARY
  5
47
102
{ACAD_REACTORS
330
C
102
}
330
C
100
AcDbDictionary
281
     1
  3
A0
350
48
  3
A1
350
49
  3
A2
350
4A
  3
A3
350
4B
  3
A4
350
4C
  3
A5
350
4D
  3
A6
350
4E
  3
A7
350
4F
  3
A8
350
50
  3
A9
350
51
  3
B0
350
52
  3
B1
350
53
  3
B2
350
54
  3
B3
350
55
  3
B4
350
56
  3
B5
350
57
  3
B6
350
58
  3
B7
350
59
  3
B8
350
5A
  3
B9
350
5B
  3
C0
350
5C
  3
C1
350
5D
  3
C2
350
5E
  3
C3
350
5F
  3
C4
350
60
  3
C5
350
61
  3
C6
350
62
  3
C7
350
63
  3
C8
350
64
  3
C9
350
65
  3
D0
350
66
  3
D1
350
67
  3
D2
350
68
  0
DICTIONARY
  5
20A
102
{ACAD_REACTORS
330
C
102
}
330
C
100
AcDbDictionary
281
     1
  0
DICTIONARY
  5
69
102
{ACAD_REACTORS
330
C
102
}
330
C
100
AcDbDictionary
281
     1
  3
Standard
350
6A
  0
DICTIONARY
  5
2A
102
{ACAD_REACTORS
330
C
102
}
330
C
100
AcDbDictionary
281
     1
  3
2dWireframe
350
2F
  3
Basic
350
32
  3
Brighten
350
36
  3
ColorChange
350
3A
  3
Conceptual
350
34
  3
Dim
350
35
  3
EdgeColorOff
350
3D
  3
Facepattern
350
39
  3
Flat
350
2B
  3
FlatWithEdges
350
2C
  3
Gouraud
350
2D
  3
GouraudWithEdges
350
2E
  3
Hidden
350
31
  3
JitterOff
350
3B
  3
Linepattern
350
38
  3
OverhangOff
350
3C
  3
Realistic
350
33
  3
Shaded
350
42
  3
Shaded with edges
350
41
  3
Shades of Gray
350
3E
  3
Sketchy
350
3F
  3
Thicken
350
37
  3
Wireframe
350
30
  3
X-Ray
350
40
  0
XRECORD
  5
206
102
{ACAD_REACTORS
330
C
102
}
330
C
100
AcDbXrecord
280
     1
 90
        1
330
6A
  0
DICTIONARY
  5
202
102
{ACAD_REACTORS
330
C
102
}
330
C
100
AcDbDictionary
281
     1
  3
CANNOSCALE
350
203
  3
CMLEADERSTYLE
350
208
  3
CTABLESTYLE
350
207
  0
LAYOUT
  5
1C8
102
{ACAD_REACTORS
330
1A
102
}
330
1A
100
AcDbPlotSettings
  1

  2
none_device
  4
ANSI_A_(11.00_x_8.50_Inches)
  6

 40
6.35
 41
19.05
 42
6.35000508
 43
19.05000254
 44
279.4
 45
215.9
 46
0.0
 47
0.0
 48
0.0
 49
0.0
140
0.0
141
0.0
142
1.0
143
1.0
 70
  4832
 72
     0
 73
     0
 74
     1
  7

 75
    16
 76
     0
 77
     2
 78
   300
147
1.0
148
0.0
149
0.0
100
AcDbLayout
  1
Back
 70
     1
 71
     4
 10
0.0
 20
0.0
 11
11.0
 21
8.5
 12
0.0
 22
0.0
 32
0.0
 14
0.0
 24
0.0
 34
0.0
 15
11.0
 25
8.5
 35
0.0
146
0.0
 13
0.0
 23
0.0
 33
0.0
 16
1.0
 26
0.0
 36
0.0
 17
0.0
 27
1.0
 37
0.0
 76
     0
330
1C7
  0
LAYOUT
  5
26
102
{ACAD_REACTORS
330
1A
102
}
330
1A
100
AcDbPlotSettings
  1

  2
none_device
  4
ANSI_A_(11.00_x_8.50_Inches)
  6

 40
6.35
 41
19.05
 42
6.35000508
 43
19.05000254
 44
279.4
 45
215.9
 46
0.0
 47
0.0
 48
0.0
 49
0.0
140
0.0
141
0.0
142
1.0
143
1.0
 70
  4832
 72
     0
 73
     0
 74
     1
  7

 75
    16
 76
     0
 77
     2
 78
   300
147
1.0
148
0.0
149
0.0
100
AcDbLayout
  1
Left
 70
     1
 71
     2
 10
0.0
 20
0.0
 11
11.0
 21
8.5
 12
0.0
 22
0.0
 32
0.0
 14
0.0
 24
0.0
 34
0.0
 15
11.0
 25
8.5
 35
0.0
146
0.0
 13
0.0
 23
0.0
 33
0.0
 16
1.0
 26
0.0
 36
0.0
 17
0.0
 27
1.0
 37
0.0
 76
     0
330
23
  0
LAYOUT
  5
22
102
{ACAD_REACTORS
330
1A
102
}
330
1A
100
AcDbPlotSettings
  1

  2
none_device
  4
Letter_(8.50_x_11.00_Inches)
  6

 40
6.35
 41
6.35
 42
6.35000508
 43
6.35000508
 44
215.9
 45
279.4
 46
0.0
 47
0.0
 48
0.0
 49
0.0
140
0.0
141
0.0
142
1.0
143
1.0
 70
  1712
 72
     0
 73
     0
 74
     0
  7

 75
     0
 76
     0
 77
     2
 78
   300
147
1.0
148
0.0
149
0.0
100
AcDbLayout
  1
Model
 70
     1
 71
     0
 10
0.0
 20
0.0
 11
11.0
 21
8.5
 12
0.0
 22
0.0
 32
0.0
 14
0.0
 24
0.0
 34
0.0
 15
11.0
 25
8.5
 35
0.0
146
0.0
 13
0.0
 23
0.0
 33
0.0
 16
1.0
 26
0.0
 36
0.0
 17
0.0
 27
1.0
 37
0.0
 76
     0
330
1F
331
29
  0
LAYOUT
  5
1E
102
{ACAD_REACTORS
330
1A
102
}
330
1A
100
AcDbPlotSettings
  1

  2
none_device
  4
ANSI_A_(11.00_x_8.50_Inches)
  6

 40
6.35
 41
19.05
 42
6.35000508
 43
19.05000254
 44
279.4
 45
215.9
 46
0.0
 47
0.0
 48
0.0
 49
0.0
140
0.0
141
0.0
142
1.0
143
1.0
 70
  4832
 72
     0
 73
     0
 74
     1
  7

 75
     0
 76
     0
 77
     2
 78
   300
147
1.0
148
0.0
149
0.0
100
AcDbLayout
  1
Right
 70
     1
 71
     1
 10
0.0
 20
0.0
 11
11.0
 21
8.5
 12
0.0
 22
0.0
 32
0.0
 14
0.0
 24
0.0
 34
0.0
 15
11.0
 25
8.5
 35
0.0
146
0.0
 13
0.0
 23
0.0
 33
0.0
 16
1.0
 26
0.0
 36
0.0
 17
0.0
 27
1.0
 37
0.0
 76
     0
330
1B
  0
LAYOUT
  5
DC
102
{ACAD_REACTORS
330
1A
102
}
330
1A
100
AcDbPlotSettings
  1

  2
none_device
  4
ANSI_A_(11.00_x_8.50_Inches)
  6

 40
6.35
 41
19.05
 42
6.35000508
 43
19.05000254
 44
279.4
 45
215.9
 46
0.0
 47
0.0
 48
0.0
 49
0.0
140
0.0
141
0.0
142
1.0
143
1.0
 70
  4832
 72
     0
 73
     0
 74
     1
  7

 75
    16
 76
     0
 77
     2
 78
   300
147
1.0
148
0.0
149
0.0
100
AcDbLayout
  1
Top
 70
     1
 71
     3
 10
0.0
 20
0.0
 11
11.0
 21
8.5
 12
0.0
 22
0.0
 32
0.0
 14
0.0
 24
0.0
 34
0.0
 15
11.0
 25
8.5
 35
0.0
146
0.0
 13
0.0
 23
0.0
 33
0.0
 16
1.0
 26
0.0
 36
0.0
 17
0.0
 27
1.0
 37
0.0
 76
     0
330
DB
  0
MATERIAL
  5
45
102
{ACAD_REACTORS
330
43
102
}
330
43
100
AcDbMaterial
  1
ByBlock
 72
     1
 94
      127
  0
MATERIAL
  5
44
102
{ACAD_REACTORS
330
43
102
}
330
43
100
AcDbMaterial
  1
ByLayer
 72
     1
 94
      127
  0
MATERIAL
  5
46
102
{ACAD_REACTORS
330
43
102
}
330
43
100
AcDbMaterial
  1
Global
 72
     1
 94
      127
  0
MLEADERSTYLE
  5
6C
102
{ACAD_REACTORS
330
6B
102
}
330
6B
100
AcDbMLeaderStyle
179
     2
170
     2
171
     1
172
     0
 90
        2
 40
0.0
 41
0.0
173
     1
 91
-1056964608
340
14
 92
       -2
290
     1
 42
0.09
291
     1
 43
0.36
  3
Standard
341
0
 44
0.18
300

342
11
174
     1
178
     6
175
     1
176
     0
 93
-1056964608
 45
0.18
292
     0
297
     0
 46
0.18
343
0
 94
-1056964608
 47
1.0
 49
1.0
140
1.0
293
     1
141
0.0
294
     1
177
     0
142
1.0
295
     0
296
     0
143
0.125
271
     0
272
     9
273
     9
298
     0
  0
MLINESTYLE
  5
18
102
{ACAD_REACTORS
330
17
102
}
330
17
100
AcDbMlineStyle
  2
Standard
 70
     0
  3

 62
   256
 51
90.0
 52
90.0
 71
     2
 49
0.5
 62
   256
  6
BYLAYER
 49
-0.5
 62
   256
  6
BYLAYER
  0
ACDBPLACEHOLDER
  5
F
102
{ACAD_REACTORS
330
E
102
}
330
E
  0
SCALE
  5
48
102
{ACAD_REACTORS
330
47
102
}
330
47
100
AcDbScale
 70
     0
300
1:1
140
1.0
141
1.0
290
     1
  0
SCALE
  5
49
102
{ACAD_REACTORS
330
47
102
}
330
47
100
AcDbScale
 70
     0
300
1:2
140
1.0
141
2.0
290
     0
  0
SCALE
  5
4A
102
{ACAD_REACTORS
330
47
102
}
330
47
100
AcDbScale
 70
     0
300
1:4
140
1.0
141
4.0
290
     0
  0
SCALE
  5
4B
102
{ACAD_REACTORS
330
47
102
}
330
47
100
AcDbScale
 70
     0
300
1:5
140
1.0
141
5.0
290
     0
  0
SCALE
  5
4C
102
{ACAD_REACTORS
330
47
102
}
330
47
100
AcDbScale
 70
     0
300
1:8
140
1.0
141
8.0
290
     0
  0
SCALE
  5
4D
102
{ACAD_REACTORS
330
47
102
}
330
47
100
AcDbScale
 70
     0
300
1:10
140
1.0
141
10.0
290
     0
  0
SCALE
  5
4E
102
{ACAD_REACTORS
330
47
102
}
330
47
100
AcDbScale
 70
     0
300
1:16
140
1.0
141
16.0
290
     0
  0
SCALE
  5
4F
102
{ACAD_REACTORS
330
47
102
}
330
47
100
AcDbScale
 70
     0
300
1:20
140
1.0
141
20.0
290
     0
  0
SCALE
  5
50
102
{ACAD_REACTORS
330
47
102
}
330
47
100
AcDbScale
 70
     0
300
1:30
140
1.0
141
30.0
290
     0
  0
SCALE
  5
51
102
{ACAD_REACTORS
330
47
102
}
330
47
100
AcDbScale
 70
     0
300
1:40
140
1.0
141
40.0
290
     0
  0
SCALE
  5
52
102
{ACAD_REACTORS
330
47
102
}
330
47
100
AcDbScale
 70
     0
300
1:50
140
1.0
141
50.0
290
     0
  0
SCALE
  5
53
102
{ACAD_REACTORS
330
47
102
}
330
47
100
AcDbScale
 70
     0
300
1:100
140
1.0
141
100.0
290
     0
  0
SCALE
  5
54
102
{ACAD_REACTORS
330
47
102
}
330
47
100
AcDbScale
 70
     0
300
2:1
140
2.0
141
1.0
290
     0
  0
SCALE
  5
55
102
{ACAD_REACTORS
330
47
102
}
330
47
100
AcDbScale
 70
     0
300
4:1
140
4.0
141
1.0
290
     0
  0
SCALE
  5
56
102
{ACAD_REACTORS
330
47
102
}
330
47
100
AcDbScale
 70
     0
300
8:1
140
8.0
141
1.0
290
     0
  0
SCALE
  5
57
102
{ACAD_REACTORS
330
47
102
}
330
47
100
AcDbScale
 70
     0
300
10:1
140
10.0
141
1.0
290
     0
  0
SCALE
  5
58
102
{ACAD_REACTORS
330
47
102
}
330
47
100
AcDbScale
 70
     0
300
100:1
140
100.0
141
1.0
290
     0
  0
SCALE
  5
59
102
{ACAD_REACTORS
330
47
102
}
330
47
100
AcDbScale
 70
     0
300
1/128" = 1'-0"
140
0.0078125
141
12.0
290
     0
  0
SCALE
  5
5A
102
{ACAD_REACTORS
330
47
102
}
330
47
100
AcDbScale
 70
     0
300
1/64" = 1'-0"
140
0.015625
141
12.0
290
     0
  0
SCALE
  5
5B
102
{ACAD_REACTORS
330
47
102
}
330
47
100
AcDbScale
 70
     0
300
1/32" = 1'-0"
140
0.03125
141
12.0
290
     0
  0
SCALE
  5
5C
102
{ACAD_REACTORS
330
47
102
}
330
47
100
AcDbScale
 70
     0
300
1/16" = 1'-0"
140
0.0625
141
12.0
290
     0
  0
SCALE
  5
5D
102
{ACAD_REACTORS
330
47
102
}
330
47
100
AcDbScale
 70
     0
300
3/32" = 1'-0"
140
0.09375
141
12.0
290
     0
  0
SCALE
  5
5E
102
{ACAD_REACTORS
330
47
102
}
330
47
100
AcDbScale
 70
     0
300
1/8" = 1'-0"
140
0.125
141
12.0
290
     0
  0
SCALE
  5
5F
102
{ACAD_REACTORS
330
47
102
}
330
47
100
AcDbScale
 70
     0
300
3/16" = 1'-0"
140
0.1875
141
12.0
290
     0
  0
SCALE
  5
60
102
{ACAD_REACTORS
330
47
102
}
330
47
100
AcDbScale
 70
     0
300
1/4" = 1'-0"
140
0.25
141
12.0
290
     0
  0
SCALE
  5
61
102
{ACAD_REACTORS
330
47
102
}
330
47
100
AcDbScale
 70
     0
300
3/8" = 1'-0"
140
0.375
141
12.0
290
     0
  0
SCALE
  5
62
102
{ACAD_REACTORS
330
47
102
}
330
47
100
AcDbScale
 70
     0
300
1/2" = 1'-0"
140
0.5
141
12.0
290
     0
  0
SCALE
  5
63
102
{ACAD_REACTORS
330
47
102
}
330
47
100
AcDbScale
 70
     0
300
3/4" = 1'-0"
140
0.75
141
12.0
290
     0
  0
SCALE
  5
64
102
{ACAD_REACTORS
330
47
102
}
330
47
100
AcDbScale
 70
     0
300
1" = 1'-0"
140
1.0
141
12.0
290
     0
  0
SCALE
  5
65
102
{ACAD_REACTORS
330
47
102
}
330
47
100
AcDbScale
 70
     0
300
1-1/2" = 1'-0"
140
1.5
141
12.0
290
     0
  0
SCALE
  5
66
102
{ACAD_REACTORS
330
47
102
}
330
47
100
AcDbScale
 70
     0
300
3" = 1'-0"
140
3.0
141
12.0
290
     0
  0
SCALE
  5
67
102
{ACAD_REACTORS
330
47
102
}
330
47
100
AcDbScale
 70
     0
300
6" = 1'-0"
140
6.0
141
12.0
290
     0
  0
SCALE
  5
68
102
{ACAD_REACTORS
330
47
102
}
330
47
100
AcDbScale
 70
     0
300
1'-0" = 1'-0"
140
12.0
141
12.0
290
     0
  0
TABLESTYLE
  5
6A
102
{ACAD_REACTORS
330
69
102
}
102
{ACAD_XDICTIONARY
360
204
102
}
330
69
100
AcDbTableStyle
  3
Standard
 70
     0
 71
     0
 40
0.06
 41
0.06
280
     0
281
     0
  7
Standard
140
0.18
170
     2
 62
     0
 63
   257
283
     0
 90
        4
 91
        0
  1

274
    -2
284
     1
 64
     0
275
    -2
285
     1
 65
     0
276
    -2
286
     1
 66
     0
277
    -2
287
     1
 67
     0
278
    -2
288
     1
 68
     0
279
    -2
289
     1
 69
     0
  7
Standard
140
0.25
170
     5
 62
     0
 63
   257
283
     0
 90
        4
 91
        0
  1

274
    -2
284
     1
 64
     0
275
    -2
285
     1
 65
     0
276
    -2
286
     1
 66
     0
277
    -2
287
     1
 67
     0
278
    -2
288
     1
 68
     0
279
    -2
289
     1
 69
     0
  7
Standard
140
0.18
170
     5
 62
     0
 63
   257
283
     0
 90
        4
 91
        0
  1

274
    -2
284
     1
 64
     0
275
    -2
285
     1
 65
     0
276
    -2
286
     1
 66
     0
277
    -2
287
     1
 67
     0
278
    -2
288
     1
 68
     0
279
    -2
289
     1
 69
     0
  0
VISUALSTYLE
  5
2F
102
{ACAD_REACTORS
330
2A
102
}
330
2A
100
AcDbVisualStyle
  2
2dWireframe
 70
     4
177
     3
291
     0
 70
    58
 90
        0
176
     1
 90
        2
176
     1
 90
        0
176
     1
 90
        0
176
     1
 40
0.6
176
     1
 40
30.0
176
     1
 62
     7
420
 16777215
176
     1
 90
        1
176
     1
 90
        4
176
     1
 62
     7
176
     1
 62
   257
176
     1
 90
        1
176
     1
 90
        1
176
     1
 40
1.0
176
     1
 90
        0
176
     1
 62
   257
176
     1
 40
1.0
176
     1
 90
        1
176
     1
 90
        6
176
     1
 90
        2
176
     1
 62
     7
176
     1
 90
        5
176
     1
 90
        0
176
     1
 90
        0
176
     1
290
     0
176
     1
 90
        1
176
     1
 40
0.0
176
     1
 90
        0
176
     1
290
     1
176
     1
290
     1
176
     1
290
     0
176
     1
290
     0
176
     1
290
     0
176
     1
290
     0
176
     1
290
     0
176
     1
290
     0
176
     1
290
     0
176
     1
 90
       50
176
     1
 40
0.0
176
     1
 40
1.0
176
     1
 90
        0
176
     1
 62
    18
420
        0
176
     1
 90
       50
176
     1
 90
        3
176
     1
 62
     5
420
      255
176
     1
290
     0
176
     1
 90
       50
176
     1
 90
       50
176
     1
 90
       50
176
     1
290
     0
176
     1
 90
       50
176
     1
 62
   256
176
     0
 40
1.0
176
     0
 90
        2
176
     1
  1
strokes_ogs.tif
176
     1
290
     0
176
     1
 40
1.0
176
     1
 40
1.0
176
     1
  0
VISUALSTYLE
  5
32
102
{ACAD_REACTORS
330
2A
102
}
330
2A
100
AcDbVisualStyle
  2
Basic
 70
     7
177
     3
291
     1
 70
    58
 90
        1
176
     1
 90
        0
176
     1
 90
        1
176
     1
 90
        0
176
     1
 40
0.6
176
     1
 40
30.0
176
     1
 62
     7
420
 16777215
176
     1
 90
        0
176
     1
 90
        4
176
     1
 62
     7
176
     1
 62
   257
176
     1
 90
        1
176
     1
 90
        1
176
     1
 40
1.0
176
     1
 90
        8
176
     1
 62
     7
176
     1
 40
1.0
176
     1
 90
        1
176
     1
 90
        6
176
     1
 90
        2
176
     1
 62
     7
176
     1
 90
        5
176
     1
 90
        0
176
     1
 90
        0
176
     1
290
     0
176
     1
 90
        1
176
     1
 40
0.0
176
     1
 90
        0
176
     1
290
     0
176
     1
290
     1
176
     1
290
     1
176
     1
290
     0
176
     1
290
     0
176
     1
290
     0
176
     1
290
     0
176
     1
290
     0
176
     1
290
     0
176
     1
 90
       50
176
     1
 40
0.0
176
     1
 40
1.0
176
     1
 90
        0
176
     1
 62
    18
420
        0
176
     1
 90
       50
176
     1
 90
        3
176
     1
 62
     5
420
      255
176
     1
290
     0
176
     1
 90
       50
176
     1
 90
       50
176
     1
 90
       50
176
     1
290
     0
176
     1
 90
       50
176
     1
 62
   256
176
     0
 40
1.0
176
     0
 90
        2
176
     1
  1
strokes_ogs.tif
176
     1
290
     0
176
     1
 40
1.0
176
     1
 40
1.0
176
     1
  0
VISUALSTYLE
  5
36
102
{ACAD_REACTORS
330
2A
102
}
330
2A
100
AcDbVisualStyle
  2
Brighten
 70
    12
177
     3
291
     1
 70
    58
 90
        2
176
     1
 90
        2
176
     1
 90
        0
176
     1
 90
        0
176
     1
 40
0.6
176
     1
 40
30.0
176
     1
 62
     7
420
 16777215
176
     1
 90
        1
176
     1
 90
        4
176
     1
 62
     7
176
     1
 62
   257
176
     1
 90
        1
176
     1
 90
        1
176
     1
 40
1.0
176
     1
 90
        8
176
     1
 62
     7
176
     1
 40
1.0
176
     1
 90
        1
176
     1
 90
        6
176
     1
 90
        2
176
     1
 62
     7
176
     1
 90
        5
176
     1
 90
        0
176
     1
 90
        0
176
     1
290
     0
176
     1
 90
        1
176
     1
 40
50.0
176
     1
 90
        0
176
     1
290
     0
176
     1
290
     1
176
     1
290
     1
176
     1
290
     0
176
     1
290
     0
176
     1
290
     0
176
     1
290
     0
176
     1
290
     0
176
     1
290
     0
176
     1
 90
       50
176
     1
 40
0.0
176
     1
 40
1.0
176
     1
 90
        0
176
     1
 62
    18
420
        0
176
     1
 90
       50
176
     1
 90
        3
176
     1
 62
     5
420
      255
176
     1
290
     0
176
     1
 90
       50
176
     1
 90
       50
176
     1
 90
       50
176
     1
290
     0
176
     1
 90
       50
176
     1
 62
   256
176
     0
 40
1.0
176
     0
 90
        2
176
     1
  1
strokes_ogs.tif
176
     1
290
     0
176
     1
 40
1.0
176
     1
 40
1.0
176
     1
  0
VISUALSTYLE
  5
3A
102
{ACAD_REACTORS
330
2A
102
}
330
2A
100
AcDbVisualStyle
  2
ColorChange
 70
    16
177
     3
291
     1
 70
    58
 90
        2
176
     1
 90
        2
176
     1
 90
        3
176
     1
 90
        0
176
     1
 40
0.6
176
     1
 40
30.0
176
     1
 62
     8
420
  8421504
176
     1
 90
        1
176
     1
 90
        4
176
     1
 62
     7
176
     1
 62
   257
176
     1
 90
        1
176
     1
 90
        1
176
     1
 40
1.0
176
     1
 90
        8
176
     1
 62
     8
420
  8421504
176
     1
 40
1.0
176
     1
 90
        1
176
     1
 90
        6
176
     1
 90
        2
176
     1
 62
     7
176
     1
 90
        5
176
     1
 90
        0
176
     1
 90
        0
176
     1
290
     0
176
     1
 90
        1
176
     1
 40
0.0
176
     1
 90
        0
176
     1
290
     0
176
     1
290
     1
176
     1
290
     1
176
     1
290
     0
176
     1
290
     0
176
     1
290
     0
176
     1
290
     0
176
     1
290
     0
176
     1
290
     0
176
     1
 90
       50
176
     1
 40
0.0
176
     1
 40
1.0
176
     1
 90
        0
176
     1
 62
    18
420
        0
176
     1
 90
       50
176
     1
 90
        3
176
     1
 62
     5
420
      255
176
     1
290
     0
176
     1
 90
       50
176
     1
 90
       50
176
     1
 90
       50
176
     1
290
     0
176
     1
 90
       50
176
     1
 62
   256
176
     0
 40
1.0
176
     0
 90
        2
176
     1
  1
strokes_ogs.tif
176
     1
290
     0
176
     1
 40
1.0
176
     1
 40
1.0
176
     1
  0
VISUALSTYLE
  5
34
102
{ACAD_REACTORS
330
2A
102
}
330
2A
100
AcDbVisualStyle
  2
Conceptual
 70
     9
177
     3
291
     0
 70
    58
 90
        3
176
     1
 90
        2
176
     1
 90
        0
176
     1
 90
        0
176
     1
 40
0.6
176
     1
 40
30.0
176
     1
 62
     7
420
 16777215
176
     1
 90
        2
176
     1
 90
        2
176
     1
 62
     7
176
     1
 62
   257
176
     1
 90
        1
176
     1
 90
        1
176
     1
 40
179.0
176
     1
 90
        8
176
     1
 62
     7
176
     1
 40
1.0
176
     1
 90
        1
176
     1
 90
        6
176
     1
 90
        2
176
     1
 62
     7
176
     1
 90
        3
176
     1
 90
        0
176
     1
 90
        0
176
     1
290
     0
176
     1
 90
        1
176
     1
 40
0.0
176
     1
 90
        0
176
     1
290
     0
176
     1
290
     1
176
     1
290
     1
176
     1
290
     0
176
     1
290
     0
176
     1
290
     0
176
     1
290
     0
176
     1
290
     0
176
     1
290
     0
176
     1
 90
       50
176
     1
 40
0.0
176
     1
 40
1.0
176
     1
 90
        0
176
     1
 62
    18
420
        0
176
     1
 90
       50
176
     1
 90
        3
176
     1
 62
     5
420
      255
176
     1
290
     0
176
     1
 90
       50
176
     1
 90
       50
176
     1
 90
       50
176
     1
290
     0
176
     1
 90
       50
176
     1
 62
   256
176
     0
 40
1.0
176
     0
 90
        2
176
     1
  1
strokes_ogs.tif
176
     1
290
     0
176
     1
 40
1.0
176
     1
 40
1.0
176
     1
  0
VISUALSTYLE
  5
35
102
{ACAD_REACTORS
330
2A
102
}
330
2A
100
AcDbVisualStyle
  2
Dim
 70
    11
177
     3
291
     1
 70
    58
 90
        2
176
     1
 90
        2
176
     1
 90
        0
176
     1
 90
        0
176
     1
 40
0.6
176
     1
 40
30.0
176
     1
 62
     7
420
 16777215
176
     1
 90
        1
176
     1
 90
        4
176
     1
 62
     7
176
     1
 62
   257
176
     1
 90
        1
176
     1
 90
        1
176
     1
 40
1.0
176
     1
 90
        8
176
     1
 62
     7
176
     1
 40
1.0
176
     1
 90
        1
176
     1
 90
        6
176
     1
 90
        2
176
     1
 62
     7
176
     1
 90
        5
176
     1
 90
        0
176
     1
 90
        0
176
     1
290
     0
176
     1
 90
        1
176
     1
 40
-50.0
176
     1
 90
        0
176
     1
290
     0
176
     1
290
     1
176
     1
290
     1
176
     1
290
     0
176
     1
290
     0
176
     1
290
     0
176
     1
290
     0
176
     1
290
     0
176
     1
290
     0
176
     1
 90
       50
176
     1
 40
0.0
176
     1
 40
1.0
176
     1
 90
        0
176
     1
 62
    18
420
        0
176
     1
 90
       50
176
     1
 90
        3
176
     1
 62
     5
420
      255
176
     1
290
     0
176
     1
 90
       50
176
     1
 90
       50
176
     1
 90
       50
176
     1
290
     0
176
     1
 90
       50
176
     1
 62
   256
176
     0
 40
1.0
176
     0
 90
        2
176
     1
  1
strokes_ogs.tif
176
     1
290
     0
176
     1
 40
1.0
176
     1
 40
1.0
176
     1
  0
VISUALSTYLE
  5
3D
102
{ACAD_REACTORS
330
2A
102
}
330
2A
100
AcDbVisualStyle
  2
EdgeColorOff
 70
    22
177
     3
291
     1
 70
    58
 90
        2
176
     0
 90
        2
176
     0
 90
        0
176
     0
 90
        0
176
     0
 40
0.6
176
     0
 40
30.0
176
     0
 62
     7
420
 16777215
176
     0
 90
        1
176
     0
 90
        4
176
     0
 62
     7
176
     0
 62
   257
176
     0
 90
        1
176
     0
 90
        1
176
     0
 40
1.0
176
     0
 90
        8
176
     2
 62
     7
176
     0
 40
1.0
176
     0
 90
        1
176
     0
 90
        6
176
     0
 90
        2
176
     0
 62
     7
176
     0
 90
        5
176
     0
 90
        0
176
     0
 90
        0
176
     0
290
     0
176
     0
 90
        1
176
     0
 40
0.0
176
     0
 90
        0
176
     0
290
     0
176
     0
290
     1
176
     0
290
     1
176
     0
290
     0
176
     0
290
     0
176
     0
290
     0
176
     0
290
     0
176
     0
290
     0
176
     0
290
     0
176
     0
 90
       50
176
     0
 40
0.0
176
     0
 40
1.0
176
     0
 90
        0
176
     0
 62
    18
420
        0
176
     0
 90
       50
176
     0
 90
        3
176
     0
 62
     5
420
      255
176
     0
290
     0
176
     0
 90
       50
176
     0
 90
       50
176
     0
 90
       50
176
     0
290
     0
176
     0
 90
       50
176
     0
 62
   256
176
     0
 40
1.0
176
     0
 90
        2
176
     0
  1
strokes_ogs.tif
176
     0
290
     0
176
     0
 40
1.0
176
     0
 40
1.0
176
     0
  0
VISUALSTYLE
  5
39
102
{ACAD_REACTORS
330
2A
102
}
330
2A
100
AcDbVisualStyle
  2
Facepattern
 70
    15
177
     3
291
     1
 70
    58
 90
        2
176
     1
 90
        2
176
     1
 90
        0
176
     1
 90
        0
176
     1
 40
0.6
176
     1
 40
30.0
176
     1
 62
     7
420
 16777215
176
     1
 90
        1
176
     1
 90
        4
176
     1
 62
     7
176
     1
 62
   257
176
     1
 90
        1
176
     1
 90
        1
176
     1
 40
1.0
176
     1
 90
        8
176
     1
 62
     7
176
     1
 40
1.0
176
     1
 90
        1
176
     1
 90
        6
176
     1
 90
        2
176
     1
 62
     7
176
     1
 90
        5
176
     1
 90
        0
176
     1
 90
        0
176
     1
290
     0
176
     1
 90
        1
176
     1
 40
0.0
176
     1
 90
        0
176
     1
290
     0
176
     1
290
     1
176
     1
290
     1
176
     1
290
     0
176
     1
290
     0
176
     1
290
     0
176
     1
290
     0
176
     1
290
     0
176
     1
290
     0
176
     1
 90
       50
176
     1
 40
0.0
176
     1
 40
1.0
176
     1
 90
        0
176
     1
 62
    18
420
        0
176
     1
 90
       50
176
     1
 90
        3
176
     1
 62
     5
420
      255
176
     1
290
     0
176
     1
 90
       50
176
     1
 90
       50
176
     1
 90
       50
176
     1
290
     0
176
     1
 90
       50
176
     1
 62
   256
176
     0
 40
1.0
176
     0
 90
        2
176
     1
  1
strokes_ogs.tif
176
     1
290
     0
176
     1
 40
1.0
176
     1
 40
1.0
176
     1
  0
VISUALSTYLE
  5
2B
102
{ACAD_REACTORS
330
2A
102
}
330
2A
100
AcDbVisualStyle
  2
Flat
 70
     0
177
     3
291
     1
 70
    58
 90
        2
176
     1
 90
        1
176
     1
 90
        1
176
     1
 90
        2
176
     1
 40
0.6
176
     1
 40
30.0
176
     1
 62
     7
420
 16777215
176
     1
 90
        0
176
     1
 90
        0
176
     1
 62
     7
176
     1
 62
   257
176
     1
 90
        1
176
     1
 90
        1
176
     1
 40
1.0
176
     1
 90
        8
176
     1
 62
     7
176
     1
 40
1.0
176
     1
 90
        1
176
     1
 90
        6
176
     1
 90
        2
176
     1
 62
     7
176
     1
 90
        5
176
     1
 90
        0
176
     1
 90
        0
176
     1
290
     0
176
     1
 90
       13
176
     1
 40
0.0
176
     1
 90
        0
176
     1
290
     0
176
     1
290
     1
176
     1
290
     1
176
     1
290
     0
176
     1
290
     0
176
     1
290
     0
176
     1
290
     0
176
     1
290
     0
176
     1
290
     0
176
     1
 90
       50
176
     1
 40
0.0
176
     1
 40
1.0
176
     1
 90
        0
176
     1
 62
    18
420
        0
176
     1
 90
       50
176
     1
 90
        3
176
     1
 62
     5
420
      255
176
     1
290
     0
176
     1
 90
       50
176
     1
 90
       50
176
     1
 90
       50
176
     1
290
     0
176
     1
 90
       50
176
     1
 62
   256
176
     0
 40
1.0
176
     0
 90
        2
176
     1
  1
strokes_ogs.tif
176
     1
290
     0
176
     1
 40
1.0
176
     1
 40
1.0
176
     1
  0
VISUALSTYLE
  5
2C
102
{ACAD_REACTORS
330
2A
102
}
330
2A
100
AcDbVisualStyle
  2
FlatWithEdges
 70
     1
177
     3
291
     1
 70
    58
 90
        2
176
     1
 90
        1
176
     1
 90
        1
176
     1
 90
        2
176
     1
 40
0.6
176
     1
 40
30.0
176
     1
 62
     7
420
 16777215
176
     1
 90
        1
176
     1
 90
        0
176
     1
 62
     7
176
     1
 62
   257
176
     1
 90
        1
176
     1
 90
        1
176
     1
 40
1.0
176
     1
 90
        0
176
     1
 62
   257
176
     1
 40
1.0
176
     1
 90
        1
176
     1
 90
        6
176
     1
 90
        2
176
     1
 62
     7
176
     1
 90
        5
176
     1
 90
        0
176
     1
 90
        0
176
     1
290
     0
176
     1
 90
       13
176
     1
 40
0.0
176
     1
 90
        0
176
     1
290
     0
176
     1
290
     1
176
     1
290
     1
176
     1
290
     0
176
     1
290
     0
176
     1
290
     0
176
     1
290
     0
176
     1
290
     0
176
     1
290
     0
176
     1
 90
       50
176
     1
 40
0.0
176
     1
 40
1.0
176
     1
 90
        0
176
     1
 62
    18
420
        0
176
     1
 90
       50
176
     1
 90
        3
176
     1
 62
     5
420
      255
176
     1
290
     0
176
     1
 90
       50
176
     1
 90
       50
176
     1
 90
       50
176
     1
290
     0
176
     1
 90
       50
176
     1
 62
   256
176
     0
 40
1.0
176
     0
 90
        2
176
     1
  1
strokes_ogs.tif
176
     1
290
     0
176
     1
 40
1.0
176
     1
 40
1.0
176
     1
  0
VISUALSTYLE
  5
2D
102
{ACAD_REACTORS
330
2A
102
}
330
2A
100
AcDbVisualStyle
  2
Gouraud
 70
     2
177
     3
291
     1
 70
    58
 90
        2
176
     1
 90
        2
176
     1
 90
        1
176
     1
 90
        2
176
     1
 40
0.6
176
     1
 40
30.0
176
     1
 62
     7
420
 16777215
176
     1
 90
        0
176
     1
 90
        0
176
     1
 62
     7
176
     1
 62
   257
176
     1
 90
        1
176
     1
 90
        1
176
     1
 40
1.0
176
     1
 90
        0
176
     1
 62
     7
176
     1
 40
1.0
176
     1
 90
        1
176
     1
 90
        6
176
     1
 90
        2
176
     1
 62
     7
176
     1
 90
        5
176
     1
 90
        0
176
     1
 90
        0
176
     1
290
     0
176
     1
 90
       13
176
     1
 40
0.0
176
     1
 90
        0
176
     1
290
     0
176
     1
290
     1
176
     1
290
     1
176
     1
290
     0
176
     1
290
     0
176
     1
290
     0
176
     1
290
     0
176
     1
290
     0
176
     1
290
     0
176
     1
 90
       50
176
     1
 40
0.0
176
     1
 40
1.0
176
     1
 90
        0
176
     1
 62
    18
420
        0
176
     1
 90
       50
176
     1
 90
        3
176
     1
 62
     5
420
      255
176
     1
290
     0
176
     1
 90
       50
176
     1
 90
       50
176
     1
 90
       50
176
     1
290
     0
176
     1
 90
       50
176
     1
 62
   256
176
     0
 40
1.0
176
     0
 90
        2
176
     1
  1
strokes_ogs.tif
176
     1
290
     0
176
     1
 40
1.0
176
     1
 40
1.0
176
     1
  0
VISUALSTYLE
  5
2E
102
{ACAD_REACTORS
330
2A
102
}
330
2A
100
AcDbVisualStyle
  2
GouraudWithEdges
 70
     3
177
     3
291
     1
 70
    58
 90
        2
176
     1
 90
        2
176
     1
 90
        1
176
     1
 90
        2
176
     1
 40
0.6
176
     1
 40
30.0
176
     1
 62
     7
420
 16777215
176
     1
 90
        1
176
     1
 90
        0
176
     1
 62
     7
176
     1
 62
   257
176
     1
 90
        1
176
     1
 90
        1
176
     1
 40
1.0
176
     1
 90
        0
176
     1
 62
   257
176
     1
 40
1.0
176
     1
 90
        1
176
     1
 90
        6
176
     1
 90
        2
176
     1
 62
     7
176
     1
 90
        5
176
     1
 90
        0
176
     1
 90
        0
176
     1
290
     0
176
     1
 90
       13
176
     1
 40
0.0
176
     1
 90
        0
176
     1
290
     0
176
     1
290
     1
176
     1
290
     1
176
     1
290
     0
176
     1
290
     0
176
     1
290
     0
176
     1
290
     0
176
     1
290
     0
176
     1
290
     0
176
     1
 90
       50
176
     1
 40
0.0
176
     1
 40
1.0
176
     1
 90
        0
176
     1
 62
    18
420
        0
176
     1
 90
       50
176
     1
 90
        3
176
     1
 62
     5
420
      255
176
     1
290
     0
176
     1
 90
       50
176
     1
 90
       50
176
     1
 90
       50
176
     1
290
     0
176
     1
 90
       50
176
     1
 62
   256
176
     0
 40
1.0
176
     0
 90
        2
176
     1
  1
strokes_ogs.tif
176
     1
290
     0
176
     1
 40
1.0
176
     1
 40
1.0
176
     1
  0
VISUALSTYLE
  5
31
102
{ACAD_REACTORS
330
2A
102
}
330
2A
100
AcDbVisualStyle
  2
Hidden
 70
     6
177
     3
291
     0
 70
    58
 90
        1
176
     1
 90
        2
176
     1
 90
        2
176
     1
 90
        0
176
     1
 40
0.6
176
     1
 40
30.0
176
     1
 62
     7
420
 16777215
176
     1
 90
        2
176
     1
 90
        2
176
     1
 62
     7
176
     1
 62
   257
176
     1
 90
        2
176
     1
 90
        1
176
     1
 40
40.0
176
     1
 90
        0
176
     1
 62
   257
176
     1
 40
1.0
176
     1
 90
        1
176
     1
 90
        6
176
     1
 90
        2
176
     1
 62
     7
176
     1
 90
        3
176
     1
 90
        0
176
     1
 90
        0
176
     1
290
     0
176
     1
 90
        1
176
     1
 40
0.0
176
     1
 90
        0
176
     1
290
     0
176
     1
290
     1
176
     1
290
     1
176
     1
290
     0
176
     1
290
     0
176
     1
290
     0
176
     1
290
     0
176
     1
290
     0
176
     1
290
     0
176
     1
 90
       50
176
     1
 40
0.0
176
     1
 40
1.0
176
     1
 90
        0
176
     1
 62
    18
420
        0
176
     1
 90
       50
176
     1
 90
        3
176
     1
 62
     5
420
      255
176
     1
290
     0
176
     1
 90
       50
176
     1
 90
       50
176
     1
 90
       50
176
     1
290
     0
176
     1
 90
       50
176
     1
 62
   256
176
     0
 40
1.0
176
     0
 90
        2
176
     1
  1
strokes_ogs.tif
176
     1
290
     0
176
     1
 40
1.0
176
     1
 40
1.0
176
     1
  0
VISUALSTYLE
  5
3B
102
{ACAD_REACTORS
330
2A
102
}
330
2A
100
AcDbVisualStyle
  2
JitterOff
 70
    20
177
     3
291
     1
 70
    58
 90
        2
176
     0
 90
        2
176
     0
 90
        0
176
     0
 90
        0
176
     0
 40
0.6
176
     0
 40
30.0
176
     0
 62
     7
420
 16777215
176
     0
 90
        1
176
     0
 90
        4
176
     0
 62
     7
176
     0
 62
   257
176
     0
 90
        1
176
     0
 90
        1
176
     0
 40
1.0
176
     0
 90
       10
176
     2
 62
     7
176
     0
 40
1.0
176
     0
 90
        1
176
     0
 90
        6
176
     0
 90
        2
176
     0
 62
     7
176
     0
 90
        5
176
     0
 90
        0
176
     0
 90
        0
176
     0
290
     0
176
     0
 90
        1
176
     0
 40
0.0
176
     0
 90
        0
176
     0
290
     0
176
     0
290
     1
176
     0
290
     1
176
     0
290
     0
176
     0
290
     0
176
     0
290
     0
176
     0
290
     0
176
     0
290
     0
176
     0
290
     0
176
     0
 90
       50
176
     0
 40
0.0
176
     0
 40
1.0
176
     0
 90
        0
176
     0
 62
    18
420
        0
176
     0
 90
       50
176
     0
 90
        3
176
     0
 62
     5
420
      255
176
     0
290
     0
176
     0
 90
       50
176
     0
 90
       50
176
     0
 90
       50
176
     0
290
     0
176
     0
 90
       50
176
     0
 62
   256
176
     0
 40
1.0
176
     0
 90
        2
176
     0
  1
strokes_ogs.tif
176
     0
290
     0
176
     0
 40
1.0
176
     0
 40
1.0
176
     0
  0
VISUALSTYLE
  5
38
102
{ACAD_REACTORS
330
2A
102
}
330
2A
100
AcDbVisualStyle
  2
Linepattern
 70
    14
177
     3
291
     1
 70
    58
 90
        2
176
     1
 90
        2
176
     1
 90
        0
176
     1
 90
        0
176
     1
 40
0.6
176
     1
 40
30.0
176
     1
 62
     7
420
 16777215
176
     1
 90
        1
176
     1
 90
        4
176
     1
 62
     7
176
     1
 62
   257
176
     1
 90
        7
176
     1
 90
        7
176
     1
 40
1.0
176
     1
 90
        8
176
     1
 62
     7
176
     1
 40
1.0
176
     1
 90
        1
176
     1
 90
        6
176
     1
 90
        2
176
     1
 62
     7
176
     1
 90
        5
176
     1
 90
        0
176
     1
 90
        0
176
     1
290
     0
176
     1
 90
        1
176
     1
 40
0.0
176
     1
 90
        0
176
     1
290
     0
176
     1
290
     1
176
     1
290
     1
176
     1
290
     0
176
     1
290
     0
176
     1
290
     0
176
     1
290
     0
176
     1
290
     0
176
     1
290
     0
176
     1
 90
       50
176
     1
 40
0.0
176
     1
 40
1.0
176
     1
 90
        0
176
     1
 62
    18
420
        0
176
     1
 90
       50
176
     1
 90
        3
176
     1
 62
     5
420
      255
176
     1
290
     0
176
     1
 90
       50
176
     1
 90
       50
176
     1
 90
       50
176
     1
290
     0
176
     1
 90
       50
176
     1
 62
   256
176
     0
 40
1.0
176
     0
 90
        2
176
     1
  1
strokes_ogs.tif
176
     1
290
     0
176
     1
 40
1.0
176
     1
 40
1.0
176
     1
  0
VISUALSTYLE
  5
3C
102
{ACAD_REACTORS
330
2A
102
}
330
2A
100
AcDbVisualStyle
  2
OverhangOff
 70
    21
177
     3
291
     1
 70
    58
 90
        2
176
     0
 90
        2
176
     0
 90
        0
176
     0
 90
        0
176
     0
 40
0.6
176
     0
 40
30.0
176
     0
 62
     7
420
 16777215
176
     0
 90
        1
176
     0
 90
        4
176
     0
 62
     7
176
     0
 62
   257
176
     0
 90
        1
176
     0
 90
        1
176
     0
 40
1.0
176
     0
 90
        9
176
     2
 62
     7
176
     0
 40
1.0
176
     0
 90
        1
176
     0
 90
        6
176
     0
 90
        2
176
     0
 62
     7
176
     0
 90
        5
176
     0
 90
        0
176
     0
 90
        0
176
     0
290
     0
176
     0
 90
        1
176
     0
 40
0.0
176
     0
 90
        0
176
     0
290
     0
176
     0
290
     1
176
     0
290
     1
176
     0
290
     0
176
     0
290
     0
176
     0
290
     0
176
     0
290
     0
176
     0
290
     0
176
     0
290
     0
176
     0
 90
       50
176
     0
 40
0.0
176
     0
 40
1.0
176
     0
 90
        0
176
     0
 62
    18
420
        0
176
     0
 90
       50
176
     0
 90
        3
176
     0
 62
     5
420
      255
176
     0
290
     0
176
     0
 90
       50
176
     0
 90
       50
176
     0
 90
       50
176
     0
290
     0
176
     0
 90
       50
176
     0
 62
   256
176
     0
 40
1.0
176
     0
 90
        2
176
     0
  1
strokes_ogs.tif
176
     0
290
     0
176
     0
 40
1.0
176
     0
 40
1.0
176
     0
  0
VISUALSTYLE
  5
33
102
{ACAD_REACTORS
330
2A
102
}
330
2A
100
AcDbVisualStyle
  2
Realistic
 70
     8
177
     3
291
     0
 70
    58
 90
        2
176
     1
 90
        3
176
     1
 90
        0
176
     1
 90
        2
176
     1
 40
0.6
176
     1
 40
30.0
176
     1
 62
     7
420
 16777215
176
     1
 90
        0
176
     1
 90
        0
176
     1
 62
     7
176
     1
 62
   257
176
     1
 90
        1
176
     1
 90
        1
176
     1
 40
1.0
176
     1
 90
        8
176
     1
 62
   257
176
     1
 40
1.0
176
     1
 90
        1
176
     1
 90
        6
176
     1
 90
        2
176
     1
 62
     7
176
     1
 90
        3
176
     1
 90
        0
176
     1
 90
        0
176
     1
290
     0
176
     1
 90
       13
176
     1
 40
0.0
176
     1
 90
        0
176
     1
290
     0
176
     1
290
     1
176
     1
290
     1
176
     1
290
     0
176
     1
290
     0
176
     1
290
     0
176
     1
290
     0
176
     1
290
     0
176
     1
290
     0
176
     1
 90
       50
176
     1
 40
0.0
176
     1
 40
1.0
176
     1
 90
        0
176
     1
 62
    18
420
        0
176
     1
 90
       50
176
     1
 90
        3
176
     1
 62
     5
420
      255
176
     1
290
     0
176
     1
 90
       50
176
     1
 90
       50
176
     1
 90
       50
176
     1
290
     0
176
     1
 90
       50
176
     1
 62
   256
176
     0
 40
1.0
176
     0
 90
        2
176
     1
  1
strokes_ogs.tif
176
     1
290
     0
176
     1
 40
1.0
176
     1
 40
1.0
176
     1
  0
VISUALSTYLE
  5
42
102
{ACAD_REACTORS
330
2A
102
}
330
2A
100
AcDbVisualStyle
  2
Shaded
 70
    27
177
     3
291
     0
 70
    58
 90
        2
176
     1
 90
        2
176
     1
 90
        1
176
     1
 90
        2
176
     1
 40
0.6
176
     1
 40
30.0
176
     1
 62
     7
420
 16777215
176
     1
 90
        0
176
     1
 90
        4
176
     1
 62
     7
176
     1
 62
   257
176
     1
 90
        1
176
     1
 90
        1
176
     1
 40
1.0
176
     1
 90
        8
176
     1
 62
   257
176
     1
 40
1.0
176
     1
 90
        1
176
     1
 90
        6
176
     1
 90
        2
176
     1
 62
     8
420
  7895160
176
     1
 90
        3
176
     1
 90
        0
176
     1
 90
        0
176
     1
290
     0
176
     1
 90
        5
176
     1
 40
0.0
176
     1
 90
        0
176
     1
290
     0
176
     1
290
     1
176
     1
290
     1
176
     1
290
     0
176
     1
290
     0
176
     1
290
     0
176
     1
290
     0
176
     1
290
     0
176
     1
290
     0
176
     1
 90
       50
176
     1
 40
0.0
176
     1
 40
1.0
176
     1
 90
        0
176
     1
 62
    18
420
        0
176
     1
 90
       50
176
     1
 90
        3
176
     1
 62
     5
420
      255
176
     1
290
     0
176
     1
 90
       50
176
     1
 90
       50
176
     1
 90
       50
176
     1
290
     0
176
     1
 90
       50
176
     1
 62
   256
176
     0
 40
1.0
176
     0
 90
        2
176
     1
  1
strokes_ogs.tif
176
     1
290
     0
176
     1
 40
1.0
176
     1
 40
1.0
176
     1
  0
VISUALSTYLE
  5
41
102
{ACAD_REACTORS
330
2A
102
}
330
2A
100
AcDbVisualStyle
  2
Shaded with edges
 70
    26
177
     3
291
     0
 70
    58
 90
        2
176
     1
 90
        2
176
     1
 90
        1
176
     1
 90
        2
176
     1
 40
0.6
176
     1
 40
30.0
176
     1
 62
     7
420
 16777215
176
     1
 90
        1
176
     1
 90
       10
176
     1
 62
     7
176
     1
 62
   257
176
     1
 90
        2
176
     1
 90
        1
176
     1
 40
1.0
176
     1
 90
        8
176
     1
 62
   257
176
     1
 40
1.0
176
     1
 90
        1
176
     1
 90
        6
176
     1
 90
        2
176
     1
 62
     7
176
     1
 90
        3
176
     1
 90
        0
176
     1
 90
        0
176
     1
290
     0
176
     1
 90
        5
176
     1
 40
0.0
176
     1
 90
        0
176
     1
290
     0
176
     1
290
     1
176
     1
290
     1
176
     1
290
     0
176
     1
290
     0
176
     1
290
     0
176
     1
290
     0
176
     1
290
     0
176
     1
290
     0
176
     1
 90
       50
176
     1
 40
0.0
176
     1
 40
1.0
176
     1
 90
        0
176
     1
 62
    18
420
        0
176
     1
 90
       50
176
     1
 90
        3
176
     1
 62
     5
420
      255
176
     1
290
     0
176
     1
 90
       50
176
     1
 90
       50
176
     1
 90
       50
176
     1
290
     0
176
     1
 90
       50
176
     1
 62
   256
176
     0
 40
1.0
176
     0
 90
        2
176
     1
  1
strokes_ogs.tif
176
     1
290
     0
176
     1
 40
1.0
176
     1
 40
1.0
176
     1
  0
VISUALSTYLE
  5
3E
102
{ACAD_REACTORS
330
2A
102
}
330
2A
100
AcDbVisualStyle
  2
Shades of Gray
 70
    23
177
     3
291
     0
 70
    58
 90
        2
176
     1
 90
        2
176
     1
 90
        3
176
     1
 90
        0
176
     1
 40
0.6
176
     1
 40
30.0
176
     1
 62
     7
420
 16777215
176
     1
 90
        2
176
     1
 90
        2
176
     1
 62
     7
176
     1
 62
     7
176
     1
 90
        1
176
     1
 90
        1
176
     1
 40
40.0
176
     1
 90
        8
176
     1
 62
     7
176
     1
 40
1.0
176
     1
 90
        1
176
     1
 90
        6
176
     1
 90
        2
176
     1
 62
     7
176
     1
 90
        3
176
     1
 90
        0
176
     1
 90
        0
176
     1
290
     0
176
     1
 90
        1
176
     1
 40
0.0
176
     1
 90
        0
176
     1
290
     0
176
     1
290
     1
176
     1
290
     1
176
     1
290
     0
176
     1
290
     0
176
     1
290
     0
176
     1
290
     0
176
     1
290
     0
176
     1
290
     0
176
     1
 90
       50
176
     1
 40
0.0
176
     1
 40
1.0
176
     1
 90
        0
176
     1
 62
    18
420
        0
176
     1
 90
       50
176
     1
 90
        3
176
     1
 62
     5
420
      255
176
     1
290
     0
176
     1
 90
       50
176
     1
 90
       50
176
     1
 90
       50
176
     1
290
     0
176
     1
 90
       50
176
     1
 62
   256
176
     0
 40
1.0
176
     0
 90
        2
176
     1
  1
strokes_ogs.tif
176
     1
290
     0
176
     1
 40
1.0
176
     1
 40
1.0
176
     1
  0
VISUALSTYLE
  5
3F
102
{ACAD_REACTORS
330
2A
102
}
330
2A
100
AcDbVisualStyle
  2
Sketchy
 70
    24
177
     3
291
     0
 70
    58
 90
        1
176
     1
 90
        2
176
     1
 90
        2
176
     1
 90
        0
176
     1
 40
0.6
176
     1
 40
30.0
176
     1
 62
     7
420
 16777215
176
     1
 90
        2
176
     1
 90
        2
176
     1
 62
     7
176
     1
 62
     7
176
     1
 90
        1
176
     1
 90
        1
176
     1
 40
40.0
176
     1
 90
       11
176
     1
 62
     7
176
     1
 40
1.0
176
     1
 90
        1
176
     1
 90
        6
176
     1
 90
        2
176
     1
 62
     7
176
     1
 90
        6
176
     1
 90
        0
176
     1
 90
        0
176
     1
290
     0
176
     1
 90
        1
176
     1
 40
0.0
176
     1
 90
        0
176
     1
290
     0
176
     1
290
     1
176
     1
290
     1
176
     1
290
     0
176
     1
290
     0
176
     1
290
     0
176
     1
290
     0
176
     1
290
     0
176
     1
290
     0
176
     1
 90
       50
176
     1
 40
0.0
176
     1
 40
1.0
176
     1
 90
        0
176
     1
 62
    18
420
        0
176
     1
 90
       50
176
     1
 90
        3
176
     1
 62
     5
420
      255
176
     1
290
     0
176
     1
 90
       50
176
     1
 90
       50
176
     1
 90
       50
176
     1
290
     0
176
     1
 90
       50
176
     1
 62
   256
176
     0
 40
1.0
176
     0
 90
        2
176
     1
  1
strokes_ogs.tif
176
     1
290
     0
176
     1
 40
1.0
176
     1
 40
1.0
176
     1
  0
VISUALSTYLE
  5
37
102
{ACAD_REACTORS
330
2A
102
}
330
2A
100
AcDbVisualStyle
  2
Thicken
 70
    13
177
     3
291
     1
 70
    58
 90
        2
176
     1
 90
        2
176
     1
 90
        0
176
     1
 90
        0
176
     1
 40
0.6
176
     1
 40
30.0
176
     1
 62
     7
420
 16777215
176
     1
 90
        1
176
     1
 90
        4
176
     1
 62
     7
176
     1
 62
   257
176
     1
 90
        1
176
     1
 90
        1
176
     1
 40
1.0
176
     1
 90
       12
176
     1
 62
     7
176
     1
 40
1.0
176
     1
 90
        1
176
     1
 90
        6
176
     1
 90
        2
176
     1
 62
     7
176
     1
 90
        5
176
     1
 90
        0
176
     1
 90
        0
176
     1
290
     0
176
     1
 90
        1
176
     1
 40
0.0
176
     1
 90
        0
176
     1
290
     0
176
     1
290
     1
176
     1
290
     1
176
     1
290
     0
176
     1
290
     0
176
     1
290
     0
176
     1
290
     0
176
     1
290
     0
176
     1
290
     0
176
     1
 90
       50
176
     1
 40
0.0
176
     1
 40
1.0
176
     1
 90
        0
176
     1
 62
    18
420
        0
176
     1
 90
       50
176
     1
 90
        3
176
     1
 62
     5
420
      255
176
     1
290
     0
176
     1
 90
       50
176
     1
 90
       50
176
     1
 90
       50
176
     1
290
     0
176
     1
 90
       50
176
     1
 62
   256
176
     0
 40
1.0
176
     0
 90
        2
176
     1
  1
strokes_ogs.tif
176
     1
290
     0
176
     1
 40
1.0
176
     1
 40
1.0
176
     1
  0
VISUALSTYLE
  5
30
102
{ACAD_REACTORS
330
2A
102
}
330
2A
100
AcDbVisualStyle
  2
Wireframe
 70
     5
177
     3
291
     0
 70
    58
 90
        0
176
     1
 90
        2
176
     1
 90
        0
176
     1
 90
        0
176
     1
 40
0.6
176
     1
 40
30.0
176
     1
 62
     7
420
 16777215
176
     1
 90
        1
176
     1
 90
        4
176
     1
 62
     7
176
     1
 62
   257
176
     1
 90
        1
176
     1
 90
        1
176
     1
 40
1.0
176
     1
 90
        0
176
     1
 62
   257
176
     1
 40
1.0
176
     1
 90
        1
176
     1
 90
        6
176
     1
 90
        2
176
     1
 62
     7
176
     1
 90
        3
176
     1
 90
        0
176
     1
 90
        0
176
     1
290
     0
176
     1
 90
        1
176
     1
 40
0.0
176
     1
 90
        0
176
     1
290
     0
176
     1
290
     1
176
     1
290
     1
176
     1
290
     0
176
     1
290
     0
176
     1
290
     0
176
     1
290
     0
176
     1
290
     0
176
     1
290
     0
176
     1
 90
       50
176
     1
 40
0.0
176
     1
 40
1.0
176
     1
 90
        0
176
     1
 62
    18
420
        0
176
     1
 90
       50
176
     1
 90
        3
176
     1
 62
     5
420
      255
176
     1
290
     0
176
     1
 90
       50
176
     1
 90
       50
176
     1
 90
       50
176
     1
290
     0
176
     1
 90
       50
176
     1
 62
   256
176
     0
 40
1.0
176
     0
 90
        2
176
     1
  1
strokes_ogs.tif
176
     1
290
     0
176
     1
 40
1.0
176
     1
 40
1.0
176
     1
  0
VISUALSTYLE
  5
40
102
{ACAD_REACTORS
330
2A
102
}
330
2A
100
AcDbVisualStyle
  2
X-Ray
 70
    25
177
     3
291
     0
 70
    58
 90
        2
176
     1
 90
        2
176
     1
 90
        1
176
     1
 90
        1
176
     1
 40
0.5
176
     1
 40
30.0
176
     1
 62
     7
420
 16777215
176
     1
 90
        1
176
     1
 90
        0
176
     1
 62
     7
176
     1
 62
   257
176
     1
 90
        1
176
     1
 90
        1
176
     1
 40
1.0
176
     1
 90
        8
176
     1
 62
     7
176
     1
 40
1.0
176
     1
 90
        1
176
     1
 90
        6
176
     1
 90
        2
176
     1
 62
     7
176
     1
 90
        3
176
     1
 90
        0
176
     1
 90
        0
176
     1
290
     0
176
     1
 90
       13
176
     1
 40
0.0
176
     1
 90
        0
176
     1
290
     0
176
     1
290
     1
176
     1
290
     1
176
     1
290
     0
176
     1
290
     0
176
     1
290
     0
176
     1
290
     0
176
     1
290
     0
176
     1
290
     0
176
     1
 90
       50
176
     1
 40
0.0
176
     1
 40
1.0
176
     1
 90
        0
176
     1
 62
    18
420
        0
176
     1
 90
       50
176
     1
 90
        3
176
     1
 62
     5
420
      255
176
     1
290
     0
176
     1
 90
       50
176
     1
 90
       50
176
     1
 90
       50
176
     1
290
     0
176
     1
 90
       50
176
     1
 62
   256
176
     0
 40
1.0
176
     0
 90
        2
176
     1
  1
strokes_ogs.tif
176
     1
290
     0
176
     1
 40
1.0
176
     1
 40
1.0
176
     1
  0
DICTIONARYVAR
  5
203
102
{ACAD_REACTORS
330
202
102
}
330
202
100
DictionaryVariables
280
     0
  1
1:1
  0
DICTIONARYVAR
  5
208
102
{ACAD_REACTORS
330
202
102
}
330
202
100
DictionaryVariables
280
     0
  1
Standard
  0
DICTIONARYVAR
  5
207
102
{ACAD_REACTORS
330
202
102
}
330
202
100
DictionaryVariables
280
     0
  1
Standard
  0
DICTIONARY
  5
204
330
6A
100
AcDbDictionary
280
     1
281
     1
  3
ACAD_ROUNDTRIP_2008_TABLESTYLE_CELLSTYLEMAP
360
205
  0
CELLSTYLEMAP
  5
205
102
{ACAD_REACTORS
330
204
102
}
330
204
100
AcDbCellStyleMap
 90
        3
300
CELLSTYLE
  1
TABLEFORMAT_BEGIN
 90
        5
170
     1
 91
        0
 92
    32768
 62
   257
 93
        1
300
CONTENTFORMAT
  1
CONTENTFORMAT_BEGIN
 90
        0
 91
        0
 92
        4
 93
        0
300

 40
0.0
140
1.0
 94
        5
 62
     0
340
11
144
0.25
309
CONTENTFORMAT_END
171
     1
301
MARGIN
  1
CELLMARGIN_BEGIN
 40
0.06
 40
0.06
 40
0.06
 40
0.06
 40
0.06
 40
0.06
309
CELLMARGIN_END
 94
        6
 95
        1
302
GRIDFORMAT
  1
GRIDFORMAT_BEGIN
 90
        0
 91
        1
 62
     0
 92
       -2
340
14
 93
        0
 40
0.045
309
GRIDFORMAT_END
 95
        2
302
GRIDFORMAT
  1
GRIDFORMAT_BEGIN
 90
        0
 91
        1
 62
     0
 92
       -2
340
14
 93
        0
 40
0.045
309
GRIDFORMAT_END
 95
        4
302
GRIDFORMAT
  1
GRIDFORMAT_BEGIN
 90
        0
 91
        1
 62
     0
 92
       -2
340
14
 93
        0
 40
0.045
309
GRIDFORMAT_END
 95
        8
302
GRIDFORMAT
  1
GRIDFORMAT_BEGIN
 90
        0
 91
        1
 62
     0
 92
       -2
340
14
 93
        0
 40
0.045
309
GRIDFORMAT_END
 95
       16
302
GRIDFORMAT
  1
GRIDFORMAT_BEGIN
 90
        0
 91
        1
 62
     0
 92
       -2
340
14
 93
        0
 40
0.045
309
GRIDFORMAT_END
 95
       32
302
GRIDFORMAT
  1
GRIDFORMAT_BEGIN
 90
        0
 91
        1
 62
     0
 92
       -2
340
14
 93
        0
 40
0.045
309
GRIDFORMAT_END
309
TABLEFORMAT_END
  1
CELLSTYLE_BEGIN
 90
        1
 91
        1
300
_TITLE
309
CELLSTYLE_END
300
CELLSTYLE
  1
TABLEFORMAT_BEGIN
 90
        5
170
     1
 91
        0
 92
        0
 62
   257
 93
        1
300
CONTENTFORMAT
  1
CONTENTFORMAT_BEGIN
 90
        0
 91
        0
 92
        4
 93
        0
300

 40
0.0
140
1.0
 94
        5
 62
     0
340
11
144
0.18
309
CONTENTFORMAT_END
171
     1
301
MARGIN
  1
CELLMARGIN_BEGIN
 40
0.06
 40
0.06
 40
0.06
 40
0.06
 40
0.06
 40
0.06
309
CELLMARGIN_END
 94
        6
 95
        1
302
GRIDFORMAT
  1
GRIDFORMAT_BEGIN
 90
        0
 91
        1
 62
     0
 92
       -2
340
14
 93
        0
 40
0.045
309
GRIDFORMAT_END
 95
        2
302
GRIDFORMAT
  1
GRIDFORMAT_BEGIN
 90
        0
 91
        1
 62
     0
 92
       -2
340
14
 93
        0
 40
0.045
309
GRIDFORMAT_END
 95
        4
302
GRIDFORMAT
  1
GRIDFORMAT_BEGIN
 90
        0
 91
        1
 62
     0
 92
       -2
340
14
 93
        0
 40
0.045
309
GRIDFORMAT_END
 95
        8
302
GRIDFORMAT
  1
GRIDFORMAT_BEGIN
 90
        0
 91
        1
 62
     0
 92
       -2
340
14
 93
        0
 40
0.045
309
GRIDFORMAT_END
 95
       16
302
GRIDFORMAT
  1
GRIDFORMAT_BEGIN
 90
        0
 91
        1
 62
     0
 92
       -2
340
14
 93
        0
 40
0.045
309
GRIDFORMAT_END
 95
       32
302
GRIDFORMAT
  1
GRIDFORMAT_BEGIN
 90
        0
 91
        1
 62
     0
 92
       -2
340
14
 93
        0
 40
0.045
309
GRIDFORMAT_END
309
TABLEFORMAT_END
  1
CELLSTYLE_BEGIN
 90
        2
 91
        1
300
_HEADER
309
CELLSTYLE_END
300
CELLSTYLE
  1
TABLEFORMAT_BEGIN
 90
        5
170
     1
 91
        0
 92
        0
 62
   257
 93
        1
300
CONTENTFORMAT
  1
CONTENTFORMAT_BEGIN
 90
        0
 91
        0
 92
        4
 93
        0
300

 40
0.0
140
1.0
 94
        2
 62
     0
340
11
144
0.18
309
CONTENTFORMAT_END
171
     1
301
MARGIN
  1
CELLMARGIN_BEGIN
 40
0.06
 40
0.06
 40
0.06
 40
0.06
 40
0.06
 40
0.06
309
CELLMARGIN_END
 94
        6
 95
        1
302
GRIDFORMAT
  1
GRIDFORMAT_BEGIN
 90
        0
 91
        1
 62
     0
 92
       -2
340
14
 93
        0
 40
0.045
309
GRIDFORMAT_END
 95
        2
302
GRIDFORMAT
  1
GRIDFORMAT_BEGIN
 90
        0
 91
        1
 62
     0
 92
       -2
340
14
 93
        0
 40
0.045
309
GRIDFORMAT_END
 95
        4
302
GRIDFORMAT
  1
GRIDFORMAT_BEGIN
 90
        0
 91
        1
 62
     0
 92
       -2
340
14
 93
        0
 40
0.045
309
GRIDFORMAT_END
 95
        8
302
GRIDFORMAT
  1
GRIDFORMAT_BEGIN
 90
        0
 91
        1
 62
     0
 92
       -2
340
14
 93
        0
 40
0.045
309
GRIDFORMAT_END
 95
       16
302
GRIDFORMAT
  1
GRIDFORMAT_BEGIN
 90
        0
 91
        1
 62
     0
 92
       -2
340
14
 93
        0
 40
0.045
309
GRIDFORMAT_END
 95
       32
302
GRIDFORMAT
  1
GRIDFORMAT_BEGIN
 90
        0
 91
        1
 62
     0
 92
       -2
340
14
 93
        0
 40
0.045
309
GRIDFORMAT_END
309
TABLEFORMAT_END
  1
CELLSTYLE_BEGIN
 90
        3
 91
        2
300
_DATA
309
CELLSTYLE_END
  0
ENDSEC
  0
EOF
