  0
SECTION
  2
HEADER
  9
$ACADVER
  1
AC1027
  9
$ACADMAINTVER
 70
   105
  9
$DWGCODEPAGE
  3
ANSI_1252
  9
$REQUIREDVERSIONS
160
                 0
  9
$INSBASE
 10
0.0
 20
0.0
 30
0.0
  9
$EXTMIN
 10
0.0
 20
0.0
 30
0.0
  9
$EXTMAX
 10
11.0
 20
8.5
 30
0.0
  9
$LIMMIN
 10
0.0
 20
0.0
  9
$LIMMAX
 10
11.0
 20
8.5
  9
$ORTHOMODE
 70
     0
  9
$REGENMODE
 70
     1
  9
$FILLMODE
 70
     1
  9
$QTEXTMODE
 70
     0
  9
$MIRRTEXT
 70
     1
  9
$LTSCALE
 40
1.0
  9
$ATTMODE
 70
     1
  9
$TEXTSIZE
 40
0.1377952756
  9
$TRACEWID
 40
0.05
  9
$TEXTSTYLE
  7
Standard
  9
$CLAYER
  8
0
  9
$CELTYPE
  6
ByLayer
  9
$CECOLOR
 62
   256
  9
$CELTSCALE
 40
1.0
  9
$DISPSILH
 70
     0
  9
$DIMSCALE
 40
1.0
  9
$DIMASZ
 40
0.13
  9
$DIMEXO
 40
0.0393700787
  9
$DIMDLI
 40
0.38
  9
$DIMRND
 40
0.0
  9
$DIMDLE
 40
0.0
  9
$DIMEXE
 40
0.0393700787
  9
$DIMTP
 40
0.0
  9
$DIMTM
 40
0.0
  9
$DIMTXT
 40
0.1377952756
  9
$DIMCEN
 40
0.09
  9
$DIMTSZ
 40
0.0
  9
$DIMTOL
 70
     0
  9
$DIMLIM
 70
     0
  9
$DIMTIH
 70
     1
  9
$DIMTOH
 70
     1
  9
$DIMSE1
 70
     0
  9
$DIMSE2
 70
     0
  9
$DIMTAD
 70
     1
  9
$DIMZIN
 70
     0
  9
$DIMBLK
  1

  9
$DIMASO
 70
     1
  9
$DIMSHO
 70
     1
  9
$DIMPOST
  1

  9
$DIMAPOST
  1

  9
$DIMALT
 70
     0
  9
$DIMALTD
 70
     2
  9
$DIMALTF
 40
25.4
  9
$DIMLFAC
 40
1.0
  9
$DIMTOFL
 70
     0
  9
$DIMTVP
 40
0.0
  9
$DIMTIX
 70
     0
  9
$DIMSOXD
 70
     0
  9
$DIMSAH
 70
     0
  9
$DIMBLK1
  1

  9
$DIMBLK2
  1

  9
$DIMSTYLE
  2
Standard
  9
$DIMCLRD
 70
     0
  9
$DIMCLRE
 70
     0
  9
$DIMCLRT
 70
     0
  9
$DIMTFAC
 40
1.0
  9
$DIMGAP
 40
0.06
  9
$DIMJUST
 70
     0
  9
$DIMSD1
 70
     0
  9
$DIMSD2
 70
     0
  9
$DIMTOLJ
 70
     1
  9
$DIMTZIN
 70
     0
  9
$DIMALTZ
 70
     0
  9
$DIMALTTZ
 70
     0
  9
$DIMUPT
 70
     0
  9
$DIMDEC
 70
     2
  9
$DIMTDEC
 70
     2
  9
$DIMALTU
 70
     2
  9
$DIMALTTD
 70
     2
  9
$DIMTXSTY
  7
Standard
  9
$DIMAUNIT
 70
     0
  9
$DIMADEC
 70
     2
  9
$DIMALTRND
 40
0.0
  9
$DIMAZIN
 70
     0
  9
$DIMDSEP
 70
    46
  9
$DIMATFIT
 70
     3
  9
$DIMFRAC
 70
     0
  9
$DIMLDRBLK
  1

  9
$DIMLUNIT
 70
     2
  9
$DIMLWD
 70
    -2
  9
$DIMLWE
 70
    -2
  9
$DIMTMOVE
 70
     0
  9
$DIMFXL
 40
1.0
  9
$DIMFXLON
 70
     0
  9
$DIMJOGANG
 40
0.7853981634
  9
$DIMTFILL
 70
     0
  9
$DIMTFILLCLR
 70
     0
  9
$DIMARCSYM
 70
     0
  9
$DIMLTYPE
  6

  9
$DIMLTEX1
  6

  9
$DIMLTEX2
  6

  9
$DIMTXTDIRECTION
 70
     0
  9
$LUNITS
 70
     2
  9
$LUPREC
 70
     2
  9
$SKETCHINC
 40
0.1
  9
$FILLETRAD
 40
0.5
  9
$AUNITS
 70
     0
  9
$AUPREC
 70
     2
  9
$MENU
  1
.
  9
$ELEVATION
 40
0.0
  9
$PELEVATION
 40
0.0
  9
$THICKNESS
 40
0.0
  9
$LIMCHECK
 70
     0
  9
$CHAMFERA
 40
0.0
  9
$CHAMFERB
 40
0.0
  9
$CHAMFERC
 40
0.0
  9
$CHAMFERD
 40
0.0
  9
$SKPOLY
 70
     0
  9
$TDCREATE
 40
2460003.521888692
  9
$TDUCREATE
 40
2460003.771888692
  9
$TDUPDATE
 40
2460003.521893738
  9
$TDUUPDATE
 40
2460003.771893738
  9
$TDINDWG
 40
0.0000000116
  9
$TDUSRTIMER
 40
0.0000000116
  9
$USRTIMER
 70
     1
  9
$ANGBASE
 50
0.0
  9
$ANGDIR
 70
     0
  9
$PDMODE
 70
     0
  9
$PDSIZE
 40
-1.0
  9
$PLINEWID
 40
0.0
  9
$SPLFRAME
 70
     0
  9
$SPLINETYPE
 70
     6
  9
$SPLINESEGS
 70
     8
  9
$HANDSEED
  5
1FC
  9
$SURFTAB1
 70
     6
  9
$SURFTAB2
 70
     6
  9
$SURFTYPE
 70
     6
  9
$SURFU
 70
     6
  9
$SURFV
 70
     6
  9
$UCSBASE
  2

  9
$UCSNAME
  2

  9
$UCSORG
 10
0.0
 20
0.0
 30
0.0
  9
$UCSXDIR
 10
1.0
 20
0.0
 30
0.0
  9
$UCSYDIR
 10
0.0
 20
1.0
 30
0.0
  9
$UCSORTHOREF
  2

  9
$UCSORTHOVIEW
 70
     0
  9
$UCSORGTOP
 10
0.0
 20
0.0
 30
0.0
  9
$UCSORGBOTTOM
 10
0.0
 20
0.0
 30
0.0
  9
$UCSORGLEFT
 10
0.0
 20
0.0
 30
0.0
  9
$UCSORGRIGHT
 10
0.0
 20
0.0
 30
0.0
  9
$UCSORGFRONT
 10
0.0
 20
0.0
 30
0.0
  9
$UCSORGBACK
 10
0.0
 20
0.0
 30
0.0
  9
$PUCSBASE
  2

  9
$PUCSNAME
  2

  9
$PUCSORG
 10
0.0
 20
0.0
 30
0.0
  9
$PUCSXDIR
 10
1.0
 20
0.0
 30
0.0
  9
$PUCSYDIR
 10
0.0
 20
1.0
 30
0.0
  9
$PUCSORTHOREF
  2

  9
$PUCSORTHOVIEW
 70
     0
  9
$PUCSORGTOP
 10
0.0
 20
0.0
 30
0.0
  9
$PUCSORGBOTTOM
 10
0.0
 20
0.0
 30
0.0
  9
$PUCSORGLEFT
 10
0.0
 20
0.0
 30
0.0
  9
$PUCSORGRIGHT
 10
0.0
 20
0.0
 30
0.0
  9
$PUCSORGFRONT
 10
0.0
 20
0.0
 30
0.0
  9
$PUCSORGBACK
 10
0.0
 20
0.0
 30
0.0
  9
$USERI1
 70
     0
  9
$USERI2
 70
     0
  9
$USERI3
 70
     0
  9
$USERI4
 70
     0
  9
$USERI5
 70
     0
  9
$USERR1
 40
0.0
  9
$USERR2
 40
0.0
  9
$USERR3
 40
0.0
  9
$USERR4
 40
0.0
  9
$USERR5
 40
0.0
  9
$WORLDVIEW
 70
     1
  9
$SHADEDGE
 70
     3
  9
$SHADEDIF
 70
    70
  9
$TILEMODE
 70
     1
  9
$MAXACTVP
 70
    64
  9
$PINSBASE
 10
0.0
 20
0.0
 30
0.0
  9
$PLIMCHECK
 70
     0
  9
$PEXTMIN
 10
0.0
 20
0.0
 30
0.0
  9
$PEXTMAX
 10
11.0
 20
8.5
 30
0.0
  9
$PLIMMIN
 10
0.0
 20
0.0
  9
$PLIMMAX
 10
11.0
 20
8.5
  9
$UNITMODE
 70
     0
  9
$VISRETAIN
 70
     1
  9
$PLINEGEN
 70
     0
  9
$PSLTSCALE
 70
     1
  9
$TREEDEPTH
 70
  3020
  9
$CMLSTYLE
  2
Standard
  9
$CMLJUST
 70
     0
  9
$CMLSCALE
 40
1.0
  9
$PROXYGRAPHICS
 70
     1
  9
$MEASUREMENT
 70
     0
  9
$CELWEIGHT
370
    -1
  9
$ENDCAPS
280
     0
  9
$JOINSTYLE
280
     0
  9
$LWDISPLAY
290
     1
  9
$INSUNITS
 70
     1
  9
$HYPERLINKBASE
  1

  9
$STYLESHEET
  1

  9
$XEDIT
290
     1
  9
$CEPSNTYPE
380
     0
  9
$PSTYLEMODE
290
     1
  9
$FINGERPRINTGUID
  2
{22e3988b-40c2-4889-a03d-7738e1ec4892}
  9
$VERSIONGUID
  2
{FAEB1C32-E019-11D5-929B-00C0DF256EC4}
  9
$EXTNAMES
290
     1
  9
$PSVPSCALE
 40
0.0
  9
$OLESTARTUP
290
     0
  9
$SORTENTS
280
   127
  9
$INDEXCTL
280
     0
  9
$HIDETEXT
280
     1
  9
$XCLIPFRAME
280
     2
  9
$HALOGAP
280
     0
  9
$OBSCOLOR
 70
   257
  9
$OBSLTYPE
280
     0
  9
$INTERSECTIONDISPLAY
280
     0
  9
$INTERSECTIONCOLOR
 70
   257
  9
$DIMASSOC
280
     2
  9
$PROJECTNAME
  1

  9
$CAMERADISPLAY
290
     0
  9
$LENSLENGTH
 40
50.0
  9
$CAMERAHEIGHT
 40
0.0
  9
$STEPSPERSEC
 40
2.0
  9
$STEPSIZE
 40
6.0
  9
$3DDWFPREC
 40
2.0
  9
$PSOLWIDTH
 40
0.25
  9
$PSOLHEIGHT
 40
4.0
  9
$LOFTANG1
 40
1.5707963268
  9
$LOFTANG2
 40
1.5707963268
  9
$LOFTMAG1
 40
0.0
  9
$LOFTMAG2
 40
0.0
  9
$LOFTPARAM
 70
     7
  9
$LOFTNORMALS
280
     1
  9
$LATITUDE
 40
37.795
  9
$LONGITUDE
 40
-122.394
  9
$NORTHDIRECTION
 40
0.0
  9
$TIMEZONE
 70
 -8000
  9
$LIGHTGLYPHDISPLAY
280
     1
  9
$TILEMODELIGHTSYNCH
280
     1
  9
$CMATERIAL
347
44
  9
$SOLIDHIST
280
     0
  9
$SHOWHIST
280
     1
  9
$DWFFRAME
280
     2
  9
$DGNFRAME
280
     2
  9
$REALWORLDSCALE
290
     1
  9
$INTERFERECOLOR
 62
   256
  9
$CSHADOW
280
     0
  9
$SHADOWPLANELOCATION
 40
0.0
  0
ENDSEC
  0
SECTION
  2
CLASSES
  0
CLASS
  1
ACDBDICTIONARYWDFLT
  2
AcDbDictionaryWithDefault
  3
ObjectDBX Classes
 90
        0
 91
        3
280
     0
281
     0
  0
CLASS
  1
VISUALSTYLE
  2
AcDbVisualStyle
  3
ObjectDBX Classes
 90
     4095
 91
        3
280
     0
281
     0
  0
CLASS
  1
MATERIAL
  2
AcDbMaterial
  3
ObjectDBX Classes
 90
     1153
 91
        3
280
     0
281
     0
  0
CLASS
  1
SCALE
  2
AcDbScale
  3
ObjectDBX Classes
 90
     1153
 91
        3
280
     0
281
     0
  0
CLASS
  1
TABLESTYLE
  2
AcDbTableStyle
  3
ObjectDBX Classes
 90
     4095
 91
        3
280
     0
281
     0
  0
CLASS
  1
MLEADERSTYLE
  2
AcDbMLeaderStyle
  3
ACDB_MLEADERSTYLE_CLASS
 90
     4095
 91
        3
280
     0
281
     0
  0
CLASS
  1
SUN
  2
AcDbSun
  3
SCENEOE
 90
     1153
 91
        3
280
     0
281
     0
  0
CLASS
  1
DICTIONARYVAR
  2
AcDbDictionaryVar
  3
ObjectDBX Classes
 90
        0
 91
        3
280
     0
281
     0
  0
CLASS
  1
CELLSTYLEMAP
  2
AcDbCellStyleMap
  3
ObjectDBX Classes
 90
     1152
 91
        3
280
     0
281
     0
  0
ENDSEC
  0
SECTION
  2
TABLES
  0
TABLE
  2
VPORT
  5
8
330
0
100
AcDbSymbolTable
 70
     1
  0
VPORT
  5
29
330
8
100
AcDbSymbolTableRecord
100
AcDbViewportTableRecord
  2
*Active
 70
     0
 10
0.0
 20
0.0
 11
1.0
 21
1.0
 12
5.5
 22
4.25
 13
0.0
 23
0.0
 14
0.5
 24
0.5
 15
0.5
 25
0.5
 16
0.0
 26
0.0
 36
1.0
 17
0.0
 27
0.0
 37
0.0
 40
8.5
 41
1.2941176471
 42
50.0
 43
0.0
 44
0.0
 50
0.0
 51
0.0
 71
     0
 72
  2000
 73
     1
 74
     3
 75
     0
 76
     0
 77
     0
 78
     0
281
     0
 65
     1
110
0.0
120
0.0
130
0.0
111
1.0
121
0.0
131
0.0
112
0.0
122
1.0
132
0.0
 79
     0
146
0.0
348
2F
 60
     3
 61
     5
292
     1
282
     1
141
0.0
142
0.0
 63
   250
361
6D
  0
ENDTAB
  0
TABLE
  2
LTYPE
  5
5
330
0
100
AcDbSymbolTable
 70
     6
  0
LTYPE
  5
14
330
5
100
AcDbSymbolTableRecord
100
AcDbLinetypeTableRecord
  2
ByBlock
 70
     0
  3

 72
    65
 73
     0
 40
0.0
  0
LTYPE
  5
15
330
5
100
AcDbSymbolTableRecord
100
AcDbLinetypeTableRecord
  2
ByLayer
 70
     0
  3

 72
    65
 73
     0
 40
0.0
  0
LTYPE
  5
16
330
5
100
AcDbSymbolTableRecord
100
AcDbLinetypeTableRecord
  2
Continuous
 70
     0
  3
Solid line
 72
    65
 73
     0
 40
0.0
  0
LTYPE
  5
6E
330
5
100
AcDbSymbolTableRecord
100
AcDbLinetypeTableRecord
  2
HIDDEN
 70
     0
  3
Hidden __ __ __ __ __ __ __ __ __ __ __ __ __ __
 72
    65
 73
     2
 40
0.075
 49
0.05
 74
     0
 49
-0.025
 74
     0
  0
LTYPE
  5
6F
330
5
100
AcDbSymbolTableRecord
100
AcDbLinetypeTableRecord
  2
PHANTOM
 70
     0
  3
Phantom ______  __  __  ______  __  __  ______
 72
    65
 73
     6
 40
0.5
 49
0.25
 74
     0
 49
-0.05
 74
     0
 49
0.05
 74
     0
 49
-0.05
 74
     0
 49
0.05
 74
     0
 49
-0.05
 74
     0
  0
LTYPE
  5
70
330
5
100
AcDbSymbolTableRecord
100
AcDbLinetypeTableRecord
  2
CENTER
 70
     0
  3
Center ____ _ ____ _ ____ _ ____ _ ____ _ ____
 72
    65
 73
     4
 40
0.4
 49
0.25
 74
     0
 49
-0.05
 74
     0
 49
0.05
 74
     0
 49
-0.05
 74
     0
  0
LTYPE
  5
71
330
5
100
AcDbSymbolTableRecord
100
AcDbLinetypeTableRecord
  2
CENTERX2
 70
     0
  3
Center (2x) ________  __  ________  __  _____
 72
    65
 73
     4
 40
0.8
 49
0.5
 74
     0
 49
-0.1
 74
     0
 49
0.1
 74
     0
 49
-0.1
 74
     0
  0
LTYPE
  5
72
330
5
100
AcDbSymbolTableRecord
100
AcDbLinetypeTableRecord
  2
DOT2
 70
     0
  3
Dot (.5x) ........................................
 72
    65
 73
     2
 40
0.025
 49
0.0
 74
     0
 49
-0.025
 74
     0
  0
ENDTAB
  0
TABLE
  2
LAYER
  5
2
330
0
100
AcDbSymbolTable
 70
     2
  0
LAYER
  5
10
330
2
100
AcDbSymbolTableRecord
100
AcDbLayerTableRecord
  2
0
 70
     0
 62
     7
  6
Continuous
370
    -3
390
F
347
46
348
0
  0
LAYER
  5
73
330
2
100
AcDbSymbolTableRecord
100
AcDbLayerTableRecord
  2
FORMAT
 70
     0
 62
     7
  6
Continuous
370
    -3
390
F
347
46
348
0
  0
ENDTAB
  0
TABLE
  2
STYLE
  5
3
330
0
100
AcDbSymbolTable
 70
     1
  0
STYLE
  5
11
330
3
100
AcDbSymbolTableRecord
100
AcDbTextStyleTableRecord
  2
Standard
 70
     0
 40
0.0
 41
1.0
 50
0.0
 71
     0
 42
0.1377952756
  3
txt
  4

  0
ENDTAB
  0
TABLE
  2
VIEW
  5
6
330
0
100
AcDbSymbolTable
 70
     0
  0
ENDTAB
  0
TABLE
  2
UCS
  5
7
330
0
100
AcDbSymbolTable
 70
     0
  0
ENDTAB
  0
TABLE
  2
APPID
  5
9
330
0
100
AcDbSymbolTable
 70
     1
  0
APPID
  5
12
330
9
100
AcDbSymbolTableRecord
100
AcDbRegAppTableRecord
  2
ACAD
 70
     0
  0
ENDTAB
  0
TABLE
  2
DIMSTYLE
  5
A
330
0
100
AcDbSymbolTable
 70
     1
100
AcDbDimStyleTable
  0
DIMSTYLE
105
27
330
A
100
AcDbSymbolTableRecord
100
AcDbDimStyleTableRecord
  2
Standard
 70
     0
178
     0
340
11
  0
ENDTAB
  0
TABLE
  2
BLOCK_RECORD
  5
1
330
0
100
AcDbSymbolTable
 70
     3
  0
BLOCK_RECORD
  5
1F
330
1
100
AcDbSymbolTableRecord
100
AcDbBlockTableRecord
  2
*Model_Space
340
22
 70
     0
280
     1
281
     0
  0
BLOCK_RECORD
  5
1B
330
1
100
AcDbSymbolTableRecord
100
AcDbBlockTableRecord
  2
*Paper_Space
340
1E
 70
     0
280
     1
281
     0
  0
BLOCK_RECORD
  5
23
330
1
100
AcDbSymbolTableRecord
100
AcDbBlockTableRecord
  2
*Paper_Space0
340
26
 70
     0
280
     1
281
     0
  0
BLOCK_RECORD
  5
DC
330
1
100
AcDbSymbolTableRecord
100
AcDbBlockTableRecord
  2
*Paper_Space1
340
DD
 70
     0
280
     1
281
     0
  0
BLOCK_RECORD
  5
1B8
330
1
100
AcDbSymbolTableRecord
100
AcDbBlockTableRecord
  2
*Paper_Space2
340
1B9
 70
     0
280
     1
281
     0
  0
ENDTAB
  0
ENDSEC
  0
SECTION
  2
BLOCKS
  0
BLOCK
  5
20
330
1F
100
AcDbEntity
  8
0
100
AcDbBlockBegin
  2
*Model_Space
 70
     0
 10
0.0
 20
0.0
 30
0.0
  3
*Model_Space
  1

  0
ENDBLK
  5
21
330
1F
100
AcDbEntity
  8
0
100
AcDbBlockEnd
  0
BLOCK
  5
1C
330
1B
100
AcDbEntity
 67
     1
  8
0
100
AcDbBlockBegin
  2
*Paper_Space
 70
     0
 10
0.0
 20
0.0
 30
0.0
  3
*Paper_Space
  1

  0
ENDBLK
  5
1D
330
1B
100
AcDbEntity
 67
     1
  8
0
100
AcDbBlockEnd
  0
BLOCK
  5
24
330
23
100
AcDbEntity
  8
0
100
AcDbBlockBegin
  2
*Paper_Space0
 70
     0
 10
0.0
 20
0.0
 30
0.0
  3
*Paper_Space0
  1

  0
LINE
  5
CE
330
23
100
AcDbEntity
  8
0
  6
Continuous
 62
     7
370
    25
100
AcDbLine
 10
1.9200306313
 20
0.17
 30
0.0
 11
0.1700306313
 21
0.17
 31
0.0
  0
LINE
  5
CF
330
23
100
AcDbEntity
  8
0
  6
Continuous
 62
     7
370
    25
100
AcDbLine
 10
0.1700306313
 20
0.451
 30
0.0
 11
1.9200306313
 21
0.451
 31
0.0
  0
LINE
  5
D0
330
23
100
AcDbEntity
  8
0
  6
Continuous
 62
     7
370
    25
100
AcDbLine
 10
1.9200306313
 20
0.451
 30
0.0
 11
1.9200306313
 21
0.17
 31
0.0
  0
LINE
  5
D1
330
23
100
AcDbEntity
  8
0
  6
Continuous
 62
     7
370
    25
100
AcDbLine
 10
0.1700306313
 20
0.17
 30
0.0
 11
0.1700306313
 21
0.451
 31
0.0
  0
LINE
  5
D2
330
23
100
AcDbEntity
  8
0
  6
Continuous
 62
     7
370
    25
100
AcDbLine
 10
1.9200306313
 20
1.547
 30
0.0
 11
0.1700306313
 21
1.547
 31
0.0
  0
ELLIPSE
  5
D3
330
23
100
AcDbEntity
  8
0
  6
Continuous
 62
     7
370
    25
100
AcDbEllipse
 10
1.6662806313
 20
0.8105444566
 30
0.0
 11
0.0
 21
0.1552914270615132
 31
0.0
210
0.0
220
0.0
230
1.0
 40
0.9659258263
 41
0.0
 42
6.283185307179586
  0
LINE
  5
D4
330
23
100
AcDbEntity
  8
0
  6
Continuous
 62
     7
370
    25
100
AcDbLine
 10
1.9200306313
 20
0.451
 30
0.0
 11
1.9200306313
 21
1.547
 31
0.0
  0
LINE
  5
D5
330
23
100
AcDbEntity
  8
0
  6
Continuous
 62
     7
370
    25
100
AcDbLine
 10
0.1700306313
 20
0.451
 30
0.0
 11
0.1700306313
 21
1.547
 31
0.0
  0
LINE
  5
D6
330
23
100
AcDbEntity
  8
0
  6
Continuous
 62
     7
370
    25
100
AcDbLine
 10
0.1700306313
 20
1.607
 30
0.0
 11
1.9200306313
 21
1.607
 31
0.0
  0
LINE
  5
D7
330
23
100
AcDbEntity
  8
0
  6
Continuous
 62
     7
370
    25
100
AcDbLine
 10
1.9200306313
 20
1.607
 30
0.0
 11
1.9200306313
 21
1.547
 31
0.0
  0
LINE
  5
D8
330
23
100
AcDbEntity
  8
0
  6
Continuous
 62
     7
370
    25
100
AcDbLine
 10
0.1700306313
 20
1.547
 30
0.0
 11
0.1700306313
 21
1.607
 31
0.0
  0
ARC
  5
D9
330
23
100
AcDbEntity
  8
0
  6
Continuous
 62
     7
370
    25
100
AcDbCircle
 10
1.6662806313
 20
0.8426841093
 30
0.0
 40
0.1504502000264081
100
AcDbArc
 50
186.857850216
 51
353.142149784
  0
LWPOLYLINE
  5
DA
330
23
100
AcDbEntity
  8
0
  6
Continuous
 62
     7
370
    25
100
AcDbPolyline
 90
       99
 70
   128
 43
0.0
 10
1.6662806313
 20
0.8760988341
 10
1.6637498576
 20
0.8760204424
 10
1.6612294834
 20
0.8757855897
 10
1.6587298654
 20
0.8753952408
 10
1.6562612752
 20
0.874851
 10
1.6538338567
 20
0.8741551035
 10
1.6514575846
 20
0.8733104109
 10
1.6491422236
 20
0.8723203933
 10
1.646897288
 20
0.8711891189
 10
1.6447320027
 20
0.8699212363
 10
1.6426552653
 20
0.8685219555
 10
1.6406756097
 20
0.8669970264
 10
1.6388011705
 20
0.8653527154
 10
1.6370396504
 20
0.8635957792
 10
1.6353982877
 20
0.8617334375
 10
1.6338838272
 20
0.8597733431
 10
1.6325024921
 20
0.8577235503
 10
1.6312599587
 20
0.8555924823
 10
1.6301613327
 20
0.853388896
 10
1.6292111286
 20
0.8511218464
 10
1.6284132511
 20
0.8488006494
 10
1.6277709787
 20
0.8464348432
 10
1.6272869508
 20
0.8440341495
 10
1.6269631563
 20
0.8416084332
 10
1.6268009257
 20
0.8391676621
 10
1.6268009257
 20
0.8367218658
 10
1.6269631563
 20
0.8342810947
 10
1.6272869508
 20
0.8318553783
 10
1.6277709787
 20
0.8294546846
 10
1.6284132511
 20
0.8270888784
 10
1.6292111286
 20
0.8247676814
 10
1.6301613327
 20
0.8225006319
 10
1.6312599587
 20
0.8202970456
 10
1.6325024921
 20
0.8181659775
 10
1.6338838272
 20
0.8161161847
 10
1.6353982877
 20
0.8141560903
 10
1.6370396504
 20
0.8122937486
 10
1.6388011705
 20
0.8105368124
 10
1.6406756097
 20
0.8088925014
 10
1.6426552653
 20
0.8073675724
 10
1.6447320027
 20
0.8059682916
 10
1.646897288
 20
0.804700409
 10
1.6491422236
 20
0.8035691345
 10
1.6514575846
 20
0.8025791169
 10
1.6538338567
 20
0.8017344244
 10
1.6562612752
 20
0.8010385279
 10
1.6587298654
 20
0.800494287
 10
1.6612294834
 20
0.8001039382
 10
1.6637498576
 20
0.7998690854
 10
1.6662806313
 20
0.7997906938
 10
1.668811405
 20
0.7998690854
 10
1.6713317792
 20
0.8001039382
 10
1.6738313971
 20
0.800494287
 10
1.6762999873
 20
0.8010385279
 10
1.6787274059
 20
0.8017344244
 10
1.681103678
 20
0.8025791169
 10
1.683419039
 20
0.8035691345
 10
1.6856639746
 20
0.804700409
 10
1.6878292599
 20
0.8059682916
 10
1.6899059972
 20
0.8073675724
 10
1.6918856529
 20
0.8088925014
 10
1.693760092
 20
0.8105368124
 10
1.6955216122
 20
0.8122937486
 10
1.6971629748
 20
0.8141560903
 10
1.6986774353
 20
0.8161161847
 10
1.7000587704
 20
0.8181659775
 10
1.7013013039
 20
0.8202970456
 10
1.7023999299
 20
0.8225006319
 10
1.7033501339
 20
0.8247676814
 10
1.7041480115
 20
0.8270888784
 10
1.7047902838
 20
0.8294546846
 10
1.7052743117
 20
0.8318553783
 10
1.7055981062
 20
0.8342810947
 10
1.7057603368
 20
0.8367218658
 10
1.7057603368
 20
0.8391676621
 10
1.7055981062
 20
0.8416084332
 10
1.7052743117
 20
0.8440341495
 10
1.7047902838
 20
0.8464348432
 10
1.7041480115
 20
0.8488006494
 10
1.7033501339
 20
0.8511218464
 10
1.7023999299
 20
0.853388896
 10
1.7013013039
 20
0.8555924823
 10
1.7000587704
 20
0.8577235503
 10
1.6986774353
 20
0.8597733431
 10
1.6971629748
 20
0.8617334375
 10
1.6955216122
 20
0.8635957792
 10
1.693760092
 20
0.8653527154
 10
1.6918856529
 20
0.8669970264
 10
1.6899059972
 20
0.8685219555
 10
1.6878292599
 20
0.8699212363
 10
1.6856639746
 20
0.8711891189
 10
1.683419039
 20
0.8723203933
 10
1.681103678
 20
0.8733104109
 10
1.6787274059
 20
0.8741551035
 10
1.6762999873
 20
0.874851
 10
1.6738313971
 20
0.8753952408
 10
1.6713317792
 20
0.8757855897
 10
1.668811405
 20
0.8760204424
 10
1.6662806313
 20
0.8760988341
  0
ARC
  5
DB
330
23
100
AcDbEntity
  8
0
  6
Continuous
 62
     7
370
    25
100
AcDbCircle
 10
1.6662792065
 20
0.9003854757
 30
0.0
 40
0.0408732824425808
100
AcDbArc
 50
233.0302332285
 51
307.0529439409
  0
ENDBLK
  5
25
330
23
100
AcDbEntity
  8
0
100
AcDbBlockEnd
  0
BLOCK
  5
DE
330
DC
100
AcDbEntity
  8
0
100
AcDbBlockBegin
  2
*Paper_Space1
 70
     0
 10
0.0
 20
0.0
 30
0.0
  3
*Paper_Space1
  1

  0
LINE
  5
E0
330
DC
100
AcDbEntity
  8
0
  6
Continuous
 62
     7
370
    25
100
AcDbLine
 10
1.1256269785
 20
1.3077972441
 30
0.0
 11
1.0808702905
 21
1.3077972441
 31
0.0
  0
LINE
  5
E1
330
DC
100
AcDbEntity
  8
0
  6
Continuous
 62
     7
370
    25
100
AcDbLine
 10
1.759131678
 20
1.3077972441
 30
0.0
 11
1.7143757851
 21
1.3077972441
 31
0.0
  0
LINE
  5
E2
330
DC
100
AcDbEntity
  8
0
  6
Continuous
 62
     7
370
    25
100
AcDbLine
 10
1.71437499
 20
0.7822066929
 30
0.0
 11
1.759131678
 21
0.7822066929
 31
0.0
  0
LINE
  5
E3
330
DC
100
AcDbEntity
  8
0
  6
Continuous
 62
     7
370
    25
100
AcDbLine
 10
1.0808702905
 20
0.7822066929
 30
0.0
 11
1.1256261835
 21
0.7822066929
 31
0.0
  0
LINE
  5
E4
330
DC
100
AcDbEntity
  8
0
  6
Continuous
 62
     7
370
    25
100
AcDbLine
 10
1.0667847079
 20
1.8487519685
 30
0.0
 11
1.7732172606
 21
1.8487519685
 31
0.0
  0
LINE
  5
E5
330
DC
100
AcDbEntity
  8
0
  6
Continuous
 62
     7
370
    25
100
AcDbLine
 10
1.0758387688
 20
1.7987519685
 30
0.0
 11
1.7642060639
 21
1.7987519685
 31
0.0
  0
LWPOLYLINE
  5
E6
330
DC
100
AcDbEntity
  8
0
  6
Continuous
 62
     7
370
    25
100
AcDbPolyline
 90
       62
 70
   128
 43
0.0
 10
1.6985693496
 20
1.2010019685
 10
1.6981292091
 20
1.2021937405
 10
1.696677903
 20
1.2068828157
 10
1.6954161607
 20
1.2118785903
 10
1.6943530494
 20
1.2170966332
 10
1.6934804576
 20
1.2225317395
 10
1.6926847277
 20
1.2293169425
 10
1.6921718123
 20
1.2363135693
 10
1.6919488896
 20
1.2434203517
 10
1.6920209358
 20
1.2506406435
 10
1.692378768
 20
1.2576127676
 10
1.693029913
 20
1.2645487423
 10
1.693477882
 20
1.2680444003
 10
1.6940066276
 20
1.2715024965
 10
1.694621281
 20
1.2749291979
 10
1.6953222004
 20
1.278298679
 10
1.6963354651
 20
1.2824552039
 10
1.6975057469
 20
1.2865004926
 10
1.6988355538
 20
1.2903763869
 10
1.7003423948
 20
1.2940611642
 10
1.7015679711
 20
1.296611869
 10
1.7028997979
 20
1.2990017176
 10
1.7043320145
 20
1.3011842426
 10
1.7058743552
 20
1.3031361434
 10
1.707157936
 20
1.3044743661
 10
1.708507365
 20
1.3056212532
 10
1.7099093103
 20
1.3065462304
 10
1.7113669521
 20
1.3072327427
 10
1.7128002335
 20
1.3076430341
 10
1.7142701922
 20
1.3077965617
 10
1.7157534345
 20
1.3076791193
 10
1.7172501566
 20
1.3072816697
 10
1.7185623929
 20
1.3066984748
 10
1.7198636171
 20
1.3058971565
 10
1.7211374537
 20
1.3048889505
 10
1.7223845302
 20
1.3036763783
 10
1.7236400682
 20
1.3022156056
 10
1.7248518679
 20
1.3005595255
 10
1.7260092306
 20
1.2987311842
 10
1.7271144914
 20
1.2967362547
 10
1.7286712879
 20
1.2934541825
 10
1.7301004606
 20
1.2898601406
 10
1.7313882109
 20
1.2860207485
 10
1.7325421807
 20
1.2819452932
 10
1.7338326906
 20
1.2763766885
 10
1.7348944204
 20
1.2705209783
 10
1.7357203577
 20
1.2644713178
 10
1.7363163831
 20
1.2582291122
 10
1.736673291
 20
1.2519741183
 10
1.7368013199
 20
1.2456143432
 10
1.7366953029
 20
1.2392184809
 10
1.7363477094
 20
1.2327853662
 10
1.7356791035
 20
1.2257700225
 10
1.7352270353
 20
1.2222897047
 10
1.7346946769
 20
1.2188472834
 10
1.7340645961
 20
1.2153737649
 10
1.7333454281
 20
1.2119599628
 10
1.7325293384
 20
1.2085997977
 10
1.7316166766
 20
1.2053270279
 10
1.7305147762
 20
1.2019001041
 10
1.7292826011
 20
1.1986021065
 10
1.7289389252
 20
1.197815165
  0
LWPOLYLINE
  5
E7
330
DC
100
AcDbEntity
  8
0
  6
Continuous
 62
     7
370
    25
100
AcDbPolyline
 90
       62
 70
   128
 43
0.0
 10
1.1110647775
 20
1.1978179222
 10
1.11062822
 20
1.1988293537
 10
1.1093897586
 20
1.2021833226
 10
1.1079389583
 20
1.2068716508
 10
1.1066777058
 20
1.2118665941
 10
1.1056150169
 20
1.217083683
 10
1.1047427362
 20
1.2225176765
 10
1.1039465776
 20
1.2293075377
 10
1.1034334439
 20
1.2363089597
 10
1.1032104703
 20
1.243420578
 10
1.103282614
 20
1.2506457495
 10
1.1036407183
 20
1.2576229617
 10
1.1042923565
 20
1.2645639936
 10
1.1047406879
 20
1.2680622194
 10
1.1052698867
 20
1.2715228392
 10
1.1058851059
 20
1.274952026
 10
1.106586719
 20
1.2783238985
 10
1.1075991582
 20
1.2824760216
 10
1.1087683404
 20
1.2865170458
 10
1.1100967947
 20
1.2903889149
 10
1.111602019
 20
1.2940699161
 10
1.1128266511
 20
1.2966188486
 10
1.1141574672
 20
1.2990070409
 10
1.1155886137
 20
1.3011880471
 10
1.1171298189
 20
1.3031385815
 10
1.1184127407
 20
1.3044761293
 10
1.1197614926
 20
1.3056224019
 10
1.1211627393
 20
1.3065468522
 10
1.1226196541
 20
1.3072329609
 10
1.1240522024
 20
1.3076430283
 10
1.1255213872
 20
1.3077965519
 10
1.1270038427
 20
1.30767939
 10
1.1284997651
 20
1.3072825695
 10
1.1298120304
 20
1.3066998759
 10
1.131113303
 20
1.3058991517
 10
1.1323872234
 20
1.3048916384
 10
1.1336344214
 20
1.3036798724
 10
1.1348907519
 20
1.3022192725
 10
1.1361033611
 20
1.3005632768
 10
1.1372615449
 20
1.2987349307
 10
1.1383676372
 20
1.2967399074
 10
1.1399255655
 20
1.2934578085
 10
1.1413558879
 20
1.2898635524
 10
1.142644771
 20
1.2860237366
 10
1.1437998356
 20
1.2819476258
 10
1.1450908374
 20
1.2763817803
 10
1.146153196
 20
1.2705287835
 10
1.1469798334
 20
1.2644817076
 10
1.147576585
 20
1.2582419378
 10
1.1479341549
 20
1.2519900971
 10
1.148062876
 20
1.2456333416
 10
1.1479575701
 20
1.2392403834
 10
1.1476107218
 20
1.2328100552
 10
1.1469433123
 20
1.2258002289
 10
1.1464919849
 20
1.2223225991
 10
1.1459604798
 20
1.2188827789
 10
1.1453314313
 20
1.2154119255
 10
1.1446134615
 20
1.2120006265
 10
1.1437987819
 20
1.2086428087
 10
1.1428877561
 20
1.2053720967
 10
1.1417850366
 20
1.2019386305
 10
1.1414354494
 20
1.2010019685
  0
LWPOLYLINE
  5
E8
330
DC
100
AcDbEntity
  8
0
  6
Continuous
 62
     7
370
    25
100
AcDbPolyline
 90
       62
 70
   128
 43
0.0
 10
1.1414326189
 20
0.8890019685
 10
1.1418727594
 20
0.8878101965
 10
1.1433240655
 20
0.8831211213
 10
1.1445858078
 20
0.8781253467
 10
1.1456489191
 20
0.8729073038
 10
1.1465215109
 20
0.8674721975
 10
1.1473172408
 20
0.8606869945
 10
1.1478301562
 20
0.8536903677
 10
1.1480530789
 20
0.8465835853
 10
1.1479810327
 20
0.8393632935
 10
1.1476232005
 20
0.8323911694
 10
1.1469720555
 20
0.8254551947
 10
1.1465240865
 20
0.8219595367
 10
1.1459953409
 20
0.8185014405
 10
1.1453806875
 20
0.8150747391
 10
1.1446797681
 20
0.811705258
 10
1.1436665034
 20
0.8075487331
 10
1.1424962216
 20
0.8035034444
 10
1.1411664147
 20
0.7996275501
 10
1.1396595737
 20
0.7959427728
 10
1.1384339974
 20
0.793392068
 10
1.1371021706
 20
0.7910022194
 10
1.135669954
 20
0.7888196944
 10
1.1341276133
 20
0.7868677936
 10
1.1328440325
 20
0.7855295709
 10
1.1314946035
 20
0.7843826839
 10
1.1300926582
 20
0.7834577066
 10
1.1286350164
 20
0.7827711943
 10
1.127201735
 20
0.7823609029
 10
1.1257317763
 20
0.7822073753
 10
1.124248534
 20
0.7823248177
 10
1.1227518119
 20
0.7827222673
 10
1.1214395756
 20
0.7833054622
 10
1.1201383514
 20
0.7841067805
 10
1.1188645148
 20
0.7851149865
 10
1.1176174383
 20
0.7863275587
 10
1.1163619003
 20
0.7877883314
 10
1.1151501006
 20
0.7894444115
 10
1.1139927379
 20
0.7912727528
 10
1.1128874771
 20
0.7932676824
 10
1.1113306806
 20
0.7965497545
 10
1.1099015079
 20
0.8001437964
 10
1.1086137576
 20
0.8039831885
 10
1.1074597878
 20
0.8080586438
 10
1.1061692779
 20
0.8136272485
 10
1.1051075481
 20
0.8194829588
 10
1.1042816108
 20
0.8255326192
 10
1.1036855854
 20
0.8317748248
 10
1.1033286775
 20
0.8380298187
 10
1.1032006486
 20
0.8443895938
 10
1.1033066656
 20
0.8507854561
 10
1.1036542591
 20
0.8572185709
 10
1.104322865
 20
0.8642339145
 10
1.1047749332
 20
0.8677142323
 10
1.1053072916
 20
0.8711566536
 10
1.1059373724
 20
0.8746301721
 10
1.1066565404
 20
0.8780439742
 10
1.1074726301
 20
0.8814041393
 10
1.1083852919
 20
0.8846769091
 10
1.1094871923
 20
0.8881038329
 10
1.1107193674
 20
0.8914018305
 10
1.1110630433
 20
0.892188772
  0
LWPOLYLINE
  5
E9
330
DC
100
AcDbEntity
  8
0
  6
Continuous
 62
     7
370
    25
100
AcDbPolyline
 90
       62
 70
   128
 43
0.0
 10
1.728937191
 20
0.8921860148
 10
1.7293737485
 20
0.8911745833
 10
1.7306122099
 20
0.8878206144
 10
1.7320630102
 20
0.8831322862
 10
1.7333242627
 20
0.8781373429
 10
1.7343869516
 20
0.872920254
 10
1.7352592323
 20
0.8674862605
 10
1.7360553909
 20
0.8606963993
 10
1.7365685246
 20
0.8536949773
 10
1.7367914982
 20
0.846583359
 10
1.7367193545
 20
0.8393581875
 10
1.7363612502
 20
0.8323809753
 10
1.735709612
 20
0.8254399434
 10
1.7352612806
 20
0.8219417176
 10
1.7347320818
 20
0.8184810978
 10
1.7341168626
 20
0.8150519111
 10
1.7334152495
 20
0.8116800385
 10
1.7324028104
 20
0.8075279155
 10
1.7312336281
 20
0.8034868912
 10
1.7299051738
 20
0.7996150221
 10
1.7283999495
 20
0.7959340209
 10
1.7271753174
 20
0.7933850884
 10
1.7258445013
 20
0.7909968961
 10
1.7244133548
 20
0.7888158899
 10
1.7228721496
 20
0.7868653555
 10
1.7215892278
 20
0.7855278077
 10
1.7202404759
 20
0.7843815351
 10
1.7188392292
 20
0.7834570848
 10
1.7173823144
 20
0.7827709761
 10
1.7159497661
 20
0.7823609087
 10
1.7144805813
 20
0.7822073852
 10
1.7129981258
 20
0.782324547
 10
1.7115022034
 20
0.7827213675
 10
1.7101899381
 20
0.7833040611
 10
1.7088886655
 20
0.7841047853
 10
1.7076147451
 20
0.7851122986
 10
1.7063675471
 20
0.7863240646
 10
1.7051112166
 20
0.7877846645
 10
1.7038986074
 20
0.7894406602
 10
1.7027404236
 20
0.7912690063
 10
1.7016343313
 20
0.7932640296
 10
1.700076403
 20
0.7965461285
 10
1.6986460806
 20
0.8001403846
 10
1.6973571975
 20
0.8039802004
 10
1.6962021329
 20
0.8080563112
 10
1.6949111311
 20
0.8136221567
 10
1.6938487725
 20
0.8194751535
 10
1.6930221351
 20
0.8255222294
 10
1.6924253835
 20
0.8317619992
 10
1.6920678136
 20
0.8380138399
 10
1.6919390925
 20
0.8443705954
 10
1.6920443984
 20
0.8507635536
 10
1.6923912467
 20
0.8571938819
 10
1.6930586562
 20
0.8642037081
 10
1.6935099837
 20
0.8676813379
 10
1.6940414887
 20
0.8711211581
 10
1.6946705372
 20
0.8745920115
 10
1.695388507
 20
0.8780033105
 10
1.6962031866
 20
0.8813611283
 10
1.6971142125
 20
0.8846318403
 10
1.6982169319
 20
0.8880653065
 10
1.6985665191
 20
0.8890019685
  0
LINE
  5
EA
330
DC
100
AcDbEntity
  8
0
  6
Continuous
 62
     7
370
    25
100
AcDbLine
 10
1.7732172606
 20
0.2412519685
 30
0.0
 11
1.0667847079
 21
0.2412519685
 31
0.0
  0
LINE
  5
EB
330
DC
100
AcDbEntity
  8
0
  6
Continuous
 62
     7
370
    25
100
AcDbLine
 10
1.7642052043
 20
0.2912519685
 30
0.0
 11
1.0758387688
 21
0.2912519685
 31
0.0
  0
LINE
  5
EC
330
DC
100
AcDbEntity
  8
0
  6
Continuous
 62
     7
370
    25
100
AcDbLine
 10
0.6050009843
 20
0.1700019685
 30
0.0
 11
1.0212645764
 21
0.1700019685
 31
0.0
  0
LINE
  5
ED
330
DC
100
AcDbEntity
  8
0
  6
Continuous
 62
     7
370
    25
100
AcDbLine
 10
0.6050009843
 20
1.9200019685
 30
0.0
 11
0.6050009843
 21
0.1700019685
 31
0.0
  0
LINE
  5
EE
330
DC
100
AcDbEntity
  8
0
  6
Continuous
 62
     7
370
    25
100
AcDbLine
 10
0.6050009843
 20
1.9200019685
 30
0.0
 11
1.0212645764
 21
1.9200019685
 31
0.0
  0
LINE
  5
EF
330
DC
100
AcDbEntity
  8
0
  6
Continuous
 62
     7
370
    25
100
AcDbLine
 10
1.0212645764
 20
1.9200019685
 30
0.0
 11
1.0212645764
 21
0.1700019685
 31
0.0
  0
LWPOLYLINE
  5
F0
330
DC
100
AcDbEntity
  8
0
  6
Continuous
 62
     7
370
    25
100
AcDbPolyline
 90
        3
 70
   128
 43
0.0
 10
0.8443754324
 20
0.6778863751
 10
0.8450009843
 20
0.6700019685
 10
0.8443754324
 20
0.6621175619
  0
ARC
  5
F1
330
DC
100
AcDbEntity
  8
0
  6
Continuous
 62
     7
370
    25
100
AcDbCircle
 10
0.7950009843
 20
0.6700019685
 30
0.0
 40
0.0500000000000001
100
AcDbArc
 50
9.0727325084
 51
350.9272674916
  0
LINE
  5
F2
330
DC
100
AcDbEntity
  8
0
  6
Continuous
 62
     7
370
    25
100
AcDbLine
 10
1.7691936441
 20
1.9200019685
 30
0.0
 11
1.8187373921
 21
1.9200019685
 31
0.0
  0
LINE
  5
F3
330
DC
100
AcDbEntity
  8
0
  6
Continuous
 62
     7
370
    25
100
AcDbLine
 10
1.8187373921
 20
1.9200019685
 30
0.0
 11
1.8187373921
 21
0.1700019685
 31
0.0
  0
LINE
  5
F4
330
DC
100
AcDbEntity
  8
0
  6
Continuous
 62
     7
370
    25
100
AcDbLine
 10
1.7691936441
 20
0.1700019685
 30
0.0
 11
1.8187373921
 21
0.1700019685
 31
0.0
  0
LINE
  5
F5
330
DC
100
AcDbEntity
  8
0
  6
Continuous
 62
     7
370
    25
100
AcDbLine
 10
1.759131678
 20
0.1900019685
 30
0.0
 11
1.7691936441
 21
0.1700019685
 31
0.0
  0
LINE
  5
F6
330
DC
100
AcDbEntity
  8
0
  6
Continuous
 62
     7
370
    25
100
AcDbLine
 10
1.759131678
 20
0.1900019685
 30
0.0
 11
1.759131678
 21
0.2262498931
 31
0.0
  0
LINE
  5
F7
330
DC
100
AcDbEntity
  8
0
  6
Continuous
 62
     7
370
    25
100
AcDbLine
 10
1.7641631997
 20
0.2332519685
 30
0.0
 11
1.759131678
 21
0.2262498931
 31
0.0
  0
LINE
  5
F8
330
DC
100
AcDbEntity
  8
0
  6
Continuous
 62
     7
370
    25
100
AcDbLine
 10
1.7641631997
 20
0.2332519685
 30
0.0
 11
1.7732172606
 21
0.2332519685
 31
0.0
  0
LINE
  5
F9
330
DC
100
AcDbEntity
  8
0
  6
Continuous
 62
     7
370
    25
100
AcDbLine
 10
1.7732172606
 20
0.2332519685
 30
0.0
 11
1.7732172606
 21
0.2912519685
 31
0.0
  0
LINE
  5
FA
330
DC
100
AcDbEntity
  8
0
  6
Continuous
 62
     7
370
    25
100
AcDbLine
 10
1.7641631997
 20
0.2912519685
 30
0.0
 11
1.7732172606
 21
0.2912519685
 31
0.0
  0
LINE
  5
FB
330
DC
100
AcDbEntity
  8
0
  6
Continuous
 62
     7
370
    25
100
AcDbLine
 10
1.759131678
 20
0.2982540439
 30
0.0
 11
1.7641631997
 21
0.2912519685
 31
0.0
  0
LINE
  5
FC
330
DC
100
AcDbEntity
  8
0
  6
Continuous
 62
     7
370
    25
100
AcDbLine
 10
1.759131678
 20
0.2982540439
 30
0.0
 11
1.759131678
 21
0.8159959642
 31
0.0
  0
LINE
  5
FD
330
DC
100
AcDbEntity
  8
0
  6
Continuous
 62
     7
370
    25
100
AcDbLine
 10
1.759131678
 20
1.2740079728
 30
0.0
 11
1.7586586378
 21
1.2583688109
 31
0.0
  0
ARC
  5
FE
330
DC
100
AcDbEntity
  8
0
  6
Continuous
 62
     7
370
    25
100
AcDbCircle
 10
8.6013250415
 20
1.0450022217
 30
0.0
 40
6.845979137990185
100
AcDbArc
 50
178.5111250702
 51
181.4888791942
  0
LINE
  5
FF
330
DC
100
AcDbEntity
  8
0
  6
Continuous
 62
     7
370
    25
100
AcDbLine
 10
1.7586588712
 20
0.8316351528
 30
0.0
 11
1.759131678
 21
0.8159959642
 31
0.0
  0
LINE
  5
100
330
DC
100
AcDbEntity
  8
0
  6
Continuous
 62
     7
370
    25
100
AcDbLine
 10
1.759131678
 20
1.2740079728
 30
0.0
 11
1.759131678
 21
1.7917498931
 31
0.0
  0
LINE
  5
101
330
DC
100
AcDbEntity
  8
0
  6
Continuous
 62
     7
370
    25
100
AcDbLine
 10
1.7641631997
 20
1.7987519685
 30
0.0
 11
1.759131678
 21
1.7917498931
 31
0.0
  0
LINE
  5
102
330
DC
100
AcDbEntity
  8
0
  6
Continuous
 62
     7
370
    25
100
AcDbLine
 10
1.7732172606
 20
1.7987519685
 30
0.0
 11
1.7641631997
 21
1.7987519685
 31
0.0
  0
LINE
  5
103
330
DC
100
AcDbEntity
  8
0
  6
Continuous
 62
     7
370
    25
100
AcDbLine
 10
1.7732172606
 20
1.8567519685
 30
0.0
 11
1.7732172606
 21
1.7987519685
 31
0.0
  0
LINE
  5
104
330
DC
100
AcDbEntity
  8
0
  6
Continuous
 62
     7
370
    25
100
AcDbLine
 10
1.7732172606
 20
1.8567519685
 30
0.0
 11
1.7641631997
 21
1.8567519685
 31
0.0
  0
LINE
  5
105
330
DC
100
AcDbEntity
  8
0
  6
Continuous
 62
     7
370
    25
100
AcDbLine
 10
1.759131678
 20
1.8637540439
 30
0.0
 11
1.7641631997
 21
1.8567519685
 31
0.0
  0
LINE
  5
106
330
DC
100
AcDbEntity
  8
0
  6
Continuous
 62
     7
370
    25
100
AcDbLine
 10
1.759131678
 20
1.8637540439
 30
0.0
 11
1.759131678
 21
1.9000019685
 31
0.0
  0
LINE
  5
107
330
DC
100
AcDbEntity
  8
0
  6
Continuous
 62
     7
370
    25
100
AcDbLine
 10
1.7691946343
 20
1.920003937
 30
0.0
 11
1.759131678
 21
1.9000019685
 31
0.0
  0
LINE
  5
108
330
DC
100
AcDbEntity
  8
0
  6
Continuous
 62
     7
370
    25
100
AcDbLine
 10
1.0808702905
 20
1.9000019685
 30
0.0
 11
1.0708073342
 21
1.920003937
 31
0.0
  0
LINE
  5
109
330
DC
100
AcDbEntity
  8
0
  6
Continuous
 62
     7
370
    25
100
AcDbLine
 10
1.0808702905
 20
1.9000019685
 30
0.0
 11
1.0808702905
 21
1.8637540439
 31
0.0
  0
LINE
  5
10A
330
DC
100
AcDbEntity
  8
0
  6
Continuous
 62
     7
370
    25
100
AcDbLine
 10
1.0758387688
 20
1.8567519685
 30
0.0
 11
1.0808702905
 21
1.8637540439
 31
0.0
  0
LINE
  5
10B
330
DC
100
AcDbEntity
  8
0
  6
Continuous
 62
     7
370
    25
100
AcDbLine
 10
1.0758387688
 20
1.8567519685
 30
0.0
 11
1.0667847079
 21
1.8567519685
 31
0.0
  0
LINE
  5
10C
330
DC
100
AcDbEntity
  8
0
  6
Continuous
 62
     7
370
    25
100
AcDbLine
 10
1.0667847079
 20
1.7987519685
 30
0.0
 11
1.0667847079
 21
1.8567519685
 31
0.0
  0
LINE
  5
10D
330
DC
100
AcDbEntity
  8
0
  6
Continuous
 62
     7
370
    25
100
AcDbLine
 10
1.0758387688
 20
1.7987519685
 30
0.0
 11
1.0667847079
 21
1.7987519685
 31
0.0
  0
LINE
  5
10E
330
DC
100
AcDbEntity
  8
0
  6
Continuous
 62
     7
370
    25
100
AcDbLine
 10
1.0808702905
 20
1.7917498931
 30
0.0
 11
1.0758387688
 21
1.7987519685
 31
0.0
  0
LINE
  5
10F
330
DC
100
AcDbEntity
  8
0
  6
Continuous
 62
     7
370
    25
100
AcDbLine
 10
1.0808702905
 20
1.7917498931
 30
0.0
 11
1.0808702905
 21
1.2740079728
 31
0.0
  0
LINE
  5
110
330
DC
100
AcDbEntity
  8
0
  6
Continuous
 62
     7
370
    25
100
AcDbLine
 10
1.0808702905
 20
0.8159959642
 30
0.0
 11
1.0813433307
 21
0.8316351261
 31
0.0
  0
ARC
  5
111
330
DC
100
AcDbEntity
  8
0
  6
Continuous
 62
     7
370
    25
100
AcDbCircle
 10
-5.761323073
 20
1.0450017153
 30
0.0
 40
6.845979137989122
100
AcDbArc
 50
358.5111250701
 51
1.4888791941
  0
LINE
  5
112
330
DC
100
AcDbEntity
  8
0
  6
Continuous
 62
     7
370
    25
100
AcDbLine
 10
1.0813430973
 20
1.2583687842
 30
0.0
 11
1.0808702905
 21
1.2740079728
 31
0.0
  0
LINE
  5
113
330
DC
100
AcDbEntity
  8
0
  6
Continuous
 62
     7
370
    25
100
AcDbLine
 10
1.0808702905
 20
0.8159959642
 30
0.0
 11
1.0808702905
 21
0.2982540439
 31
0.0
  0
LINE
  5
114
330
DC
100
AcDbEntity
  8
0
  6
Continuous
 62
     7
370
    25
100
AcDbLine
 10
1.0758387688
 20
0.2912519685
 30
0.0
 11
1.0808702905
 21
0.2982540439
 31
0.0
  0
LINE
  5
115
330
DC
100
AcDbEntity
  8
0
  6
Continuous
 62
     7
370
    25
100
AcDbLine
 10
1.0667847079
 20
0.2912519685
 30
0.0
 11
1.0758387688
 21
0.2912519685
 31
0.0
  0
LINE
  5
116
330
DC
100
AcDbEntity
  8
0
  6
Continuous
 62
     7
370
    25
100
AcDbLine
 10
1.0667847079
 20
0.2912519685
 30
0.0
 11
1.0667847079
 21
0.2332519685
 31
0.0
  0
LINE
  5
117
330
DC
100
AcDbEntity
  8
0
  6
Continuous
 62
     7
370
    25
100
AcDbLine
 10
1.0667847079
 20
0.2332519685
 30
0.0
 11
1.0758387688
 21
0.2332519685
 31
0.0
  0
LINE
  5
118
330
DC
100
AcDbEntity
  8
0
  6
Continuous
 62
     7
370
    25
100
AcDbLine
 10
1.0808702905
 20
0.2262498931
 30
0.0
 11
1.0758387688
 21
0.2332519685
 31
0.0
  0
LINE
  5
119
330
DC
100
AcDbEntity
  8
0
  6
Continuous
 62
     7
370
    25
100
AcDbLine
 10
1.0808702905
 20
0.2262498931
 30
0.0
 11
1.0808702905
 21
0.1900019685
 31
0.0
  0
LINE
  5
11A
330
DC
100
AcDbEntity
  8
0
  6
Continuous
 62
     7
370
    25
100
AcDbLine
 10
1.0708083244
 20
0.1700019685
 30
0.0
 11
1.0808702905
 21
0.1900019685
 31
0.0
  0
LINE
  5
11B
330
DC
100
AcDbEntity
  8
0
  6
Continuous
 62
     7
370
    25
100
AcDbLine
 10
1.0212645764
 20
0.1700019685
 30
0.0
 11
1.0708083244
 21
0.1700019685
 31
0.0
  0
LINE
  5
11C
330
DC
100
AcDbEntity
  8
0
  6
Continuous
 62
     7
370
    25
100
AcDbLine
 10
1.0212645764
 20
1.9200019685
 30
0.0
 11
1.0708083244
 21
1.9200019685
 31
0.0
  0
LINE
  5
11D
330
DC
100
AcDbEntity
  8
0
  6
Continuous
 62
     7
370
    25
100
AcDbLine
 10
2.0499222441
 20
1.9200019685
 30
0.0
 11
2.0499222441
 21
0.1700019685
 31
0.0
  0
LINE
  5
11E
330
DC
100
AcDbEntity
  8
0
  6
Continuous
 62
     7
370
    25
100
AcDbLine
 10
1.8187373921
 20
0.1700019685
 30
0.0
 11
2.0499222441
 21
0.1700019685
 31
0.0
  0
LINE
  5
11F
330
DC
100
AcDbEntity
  8
0
  6
Continuous
 62
     7
370
    25
100
AcDbLine
 10
1.8187373921
 20
1.9200019685
 30
0.0
 11
2.0499222441
 21
1.9200019685
 31
0.0
  0
LINE
  5
120
330
DC
100
AcDbEntity
  8
0
  6
Continuous
 62
     7
370
    25
100
AcDbLine
 10
2.2950009843
 20
1.9200019685
 30
0.0
 11
2.2950009843
 21
0.1700019685
 31
0.0
  0
LINE
  5
121
330
DC
100
AcDbEntity
  8
0
  6
Continuous
 62
     7
370
    25
100
AcDbLine
 10
2.2975009843
 20
0.1700019685
 30
0.0
 11
2.2975009843
 21
1.9200019685
 31
0.0
  0
LINE
  5
122
330
DC
100
AcDbEntity
  8
0
  6
Continuous
 62
     7
370
    25
100
AcDbLine
 10
2.2975009843
 20
0.1700019685
 30
0.0
 11
2.2950009843
 21
0.1700019685
 31
0.0
  0
LINE
  5
123
330
DC
100
AcDbEntity
  8
0
  6
Continuous
 62
     7
370
    25
100
AcDbLine
 10
2.2950009843
 20
1.9200019685
 30
0.0
 11
2.2975009843
 21
1.9200019685
 31
0.0
  0
LINE
  5
124
330
DC
100
AcDbEntity
  8
0
  6
Continuous
 62
     7
370
    25
100
AcDbLine
 10
2.3575009843
 20
1.9200019685
 30
0.0
 11
2.3575009843
 21
0.1700019685
 31
0.0
  0
LINE
  5
125
330
DC
100
AcDbEntity
  8
0
  6
Continuous
 62
     7
370
    25
100
AcDbLine
 10
2.3575009843
 20
0.1700019685
 30
0.0
 11
2.2975009843
 21
0.1700019685
 31
0.0
  0
LINE
  5
126
330
DC
100
AcDbEntity
  8
0
  6
Continuous
 62
     7
370
    25
100
AcDbLine
 10
2.2975009843
 20
1.9200019685
 30
0.0
 11
2.3575009843
 21
1.9200019685
 31
0.0
  0
LINE
  5
127
330
DC
100
AcDbEntity
  8
0
  6
Continuous
 62
     7
370
    25
100
AcDbLine
 10
2.2350009843
 20
0.1700019685
 30
0.0
 11
2.2350009843
 21
1.9200019685
 31
0.0
  0
LINE
  5
128
330
DC
100
AcDbEntity
  8
0
  6
Continuous
 62
     7
370
    25
100
AcDbLine
 10
2.1286624016
 20
0.1700019685
 30
0.0
 11
2.2350009843
 21
0.1700019685
 31
0.0
  0
LINE
  5
129
330
DC
100
AcDbEntity
  8
0
  6
Continuous
 62
     7
370
    25
100
AcDbLine
 10
2.1286624016
 20
1.9200019685
 30
0.0
 11
2.1286624016
 21
0.1700019685
 31
0.0
  0
LINE
  5
12A
330
DC
100
AcDbEntity
  8
0
  6
Continuous
 62
     7
370
    25
100
AcDbLine
 10
2.1286624016
 20
1.9200019685
 30
0.0
 11
2.2350009843
 21
1.9200019685
 31
0.0
  0
LINE
  5
12B
330
DC
100
AcDbEntity
  8
0
  6
Continuous
 62
     7
370
    25
100
AcDbLine
 10
2.2950009843
 20
0.1700019685
 30
0.0
 11
2.2350009843
 21
0.1700019685
 31
0.0
  0
LINE
  5
12C
330
DC
100
AcDbEntity
  8
0
  6
Continuous
 62
     7
370
    25
100
AcDbLine
 10
2.2350009843
 20
1.9200019685
 30
0.0
 11
2.2950009843
 21
1.9200019685
 31
0.0
  0
LINE
  5
12D
330
DC
100
AcDbEntity
  8
0
  6
Continuous
 62
     7
370
    25
100
AcDbLine
 10
0.5450009843
 20
0.1700019685
 30
0.0
 11
0.5450009843
 21
1.9200019685
 31
0.0
  0
LINE
  5
12E
330
DC
100
AcDbEntity
  8
0
  6
Continuous
 62
     7
370
    25
100
AcDbLine
 10
0.6050009843
 20
0.1700019685
 30
0.0
 11
0.5450009843
 21
0.1700019685
 31
0.0
  0
LINE
  5
12F
330
DC
100
AcDbEntity
  8
0
  6
Continuous
 62
     7
370
    25
100
AcDbLine
 10
0.5450009843
 20
1.9200019685
 30
0.0
 11
0.6050009843
 21
1.9200019685
 31
0.0
  0
LINE
  5
130
330
DC
100
AcDbEntity
  8
0
  6
Continuous
 62
     7
370
    25
100
AcDbLine
 10
1.759131678
 20
1.9000019685
 30
0.0
 11
1.0808702905
 21
1.9000019685
 31
0.0
  0
LINE
  5
131
330
DC
100
AcDbEntity
  8
0
  6
Continuous
 62
     7
370
    25
100
AcDbLine
 10
1.070797075
 20
1.9200019685
 30
0.0
 11
1.7691936441
 21
1.9200019685
 31
0.0
  0
LINE
  5
132
330
DC
100
AcDbEntity
  8
0
  6
Continuous
 62
     7
370
    25
100
AcDbLine
 10
1.0808702905
 20
0.1900019685
 30
0.0
 11
1.759131678
 21
0.1900019685
 31
0.0
  0
LINE
  5
133
330
DC
100
AcDbEntity
  8
0
  6
Continuous
 62
     7
370
    25
100
AcDbLine
 10
1.7691936441
 20
0.1700019685
 30
0.0
 11
1.0708083244
 21
0.1700019685
 31
0.0
  0
LINE
  5
134
330
DC
100
AcDbEntity
  8
0
  6
Continuous
 62
     7
370
    25
100
AcDbLine
 10
1.0808702905
 20
0.2982540439
 30
0.0
 11
1.759131678
 21
0.2982540439
 31
0.0
  0
LINE
  5
135
330
DC
100
AcDbEntity
  8
0
  6
Continuous
 62
     7
370
    25
100
AcDbLine
 10
1.0808702905
 20
1.8637540439
 30
0.0
 11
1.759131678
 21
1.8637540439
 31
0.0
  0
LINE
  5
136
330
DC
100
AcDbEntity
  8
0
  6
Continuous
 62
     7
370
    25
100
AcDbLine
 10
1.7641631997
 20
1.8567519685
 30
0.0
 11
1.0758387688
 21
1.8567519685
 31
0.0
  0
LINE
  5
137
330
DC
100
AcDbEntity
  8
0
  6
Continuous
 62
     7
370
    25
100
AcDbLine
 10
1.759131678
 20
1.7917498931
 30
0.0
 11
1.0808702905
 21
1.7917498931
 31
0.0
  0
LINE
  5
138
330
DC
100
AcDbEntity
  8
0
  6
Continuous
 62
     7
370
    25
100
AcDbLine
 10
1.759131678
 20
0.2262498931
 30
0.0
 11
1.0808702905
 21
0.2262498931
 31
0.0
  0
LINE
  5
139
330
DC
100
AcDbEntity
  8
0
  6
Continuous
 62
     7
370
    25
100
AcDbLine
 10
1.0758387688
 20
0.2332519685
 30
0.0
 11
1.7641631997
 21
0.2332519685
 31
0.0
  0
LINE
  5
13A
330
DC
100
AcDbEntity
  8
0
  6
Continuous
 62
     7
370
    25
100
AcDbLine
 10
2.0499222441
 20
0.1700019685
 30
0.0
 11
2.1286624016
 21
0.1700019685
 31
0.0
  0
LINE
  5
13B
330
DC
100
AcDbEntity
  8
0
  6
Continuous
 62
     7
370
    25
100
AcDbLine
 10
2.0499222441
 20
1.9200019685
 30
0.0
 11
2.1286624016
 21
1.9200019685
 31
0.0
  0
LINE
  5
13C
330
DC
100
AcDbEntity
  8
0
  6
Continuous
 62
     7
370
    25
100
AcDbLine
 10
2.6700009843
 20
1.9200019685
 30
0.0
 11
2.6700009843
 21
0.1700019685
 31
0.0
  0
CIRCLE
  5
13D
330
DC
100
AcDbEntity
  8
0
  6
Continuous
 62
     7
370
    25
100
AcDbCircle
 10
2.4825009843
 20
1.6075019685
 30
0.0
 40
0.09375
  0
CIRCLE
  5
13E
330
DC
100
AcDbEntity
  8
0
  6
Continuous
 62
     7
370
    25
100
AcDbCircle
 10
2.4825009843
 20
0.4825019685
 30
0.0
 40
0.09375
  0
LINE
  5
13F
330
DC
100
AcDbEntity
  8
0
  6
Continuous
 62
     7
370
    25
100
AcDbLine
 10
2.6700009843
 20
0.1700019685
 30
0.0
 11
2.3575009843
 21
0.1700019685
 31
0.0
  0
LINE
  5
140
330
DC
100
AcDbEntity
  8
0
  6
Continuous
 62
     7
370
    25
100
AcDbLine
 10
2.3575009843
 20
1.9200019685
 30
0.0
 11
2.6700009843
 21
1.9200019685
 31
0.0
  0
LINE
  5
141
330
DC
100
AcDbEntity
  8
0
  6
Continuous
 62
     7
370
    25
100
AcDbLine
 10
0.1700009843
 20
1.9200019685
 30
0.0
 11
0.1700009843
 21
0.1700019685
 31
0.0
  0
CIRCLE
  5
142
330
DC
100
AcDbEntity
  8
0
  6
Continuous
 62
     7
370
    25
100
AcDbCircle
 10
0.3575009843
 20
0.4825019685
 30
0.0
 40
0.0937500000000001
  0
CIRCLE
  5
143
330
DC
100
AcDbEntity
  8
0
  6
Continuous
 62
     7
370
    25
100
AcDbCircle
 10
0.3575009843
 20
1.6075019685
 30
0.0
 40
0.0937500000000001
  0
LINE
  5
144
330
DC
100
AcDbEntity
  8
0
  6
Continuous
 62
     7
370
    25
100
AcDbLine
 10
0.5450009843
 20
0.1700019685
 30
0.0
 11
0.1700009843
 21
0.1700019685
 31
0.0
  0
LINE
  5
145
330
DC
100
AcDbEntity
  8
0
  6
Continuous
 62
     7
370
    25
100
AcDbLine
 10
0.1700009843
 20
1.9200019685
 30
0.0
 11
0.5450009843
 21
1.9200019685
 31
0.0
  0
LINE
  5
146
330
DC
100
AcDbEntity
  8
0
  6
Continuous
 62
     7
370
    25
100
AcDbLine
 10
1.2325009843
 20
0.3125520457
 30
0.0
 11
1.6075009843
 21
0.3125520457
 31
0.0
  0
ARC
  5
147
330
DC
100
AcDbEntity
  8
0
  6
Continuous
 62
     7
370
    25
100
AcDbCircle
 10
1.6244367786
 20
0.3152892255
 30
0.0
 40
0.0171555613276861
100
AcDbArc
 50
189.1808114689
 51
254.4609805105
  0
LINE
  5
148
330
DC
100
AcDbEntity
  8
0
  6
Continuous
 62
     7
370
    25
100
AcDbLine
 10
1.619840897
 20
0.2987607302
 30
0.0
 11
1.2201610715
 21
0.2987607302
 31
0.0
  0
ARC
  5
149
330
DC
100
AcDbEntity
  8
0
  6
Continuous
 62
     7
370
    25
100
AcDbCircle
 10
1.2158269195
 20
0.3150550404
 30
0.0
 40
0.0168608842976094
100
AcDbArc
 50
284.8953083785
 51
351.4628996421
  0
LINE
  5
14A
330
DC
100
AcDbEntity
  8
0
  6
Continuous
 62
     7
370
    25
100
AcDbLine
 10
1.2201610715
 20
1.7912432068
 30
0.0
 11
1.2201610715
 21
0.2987607302
 31
0.0
  0
LINE
  5
14B
330
DC
100
AcDbEntity
  8
0
  6
Continuous
 62
     7
370
    25
100
AcDbLine
 10
1.619840897
 20
1.7912432068
 30
0.0
 11
1.619840897
 21
0.2987607302
 31
0.0
  0
LINE
  5
14C
330
DC
100
AcDbEntity
  8
0
  6
Continuous
 62
     7
370
    25
100
AcDbLine
 10
1.619840897
 20
1.7912432068
 30
0.0
 11
1.2201316804
 21
1.7912432068
 31
0.0
  0
ARC
  5
14D
330
DC
100
AcDbEntity
  8
0
  6
Continuous
 62
     7
370
    25
100
AcDbCircle
 10
1.6244367786
 20
1.7747147115
 30
0.0
 40
0.0171555613276868
100
AcDbArc
 50
105.5390194895
 51
170.8191885311
  0
LINE
  5
14E
330
DC
100
AcDbEntity
  8
0
  6
Continuous
 62
     7
370
    25
100
AcDbLine
 10
1.2325009843
 20
1.7774518913
 30
0.0
 11
1.6075009843
 21
1.7774518913
 31
0.0
  0
ARC
  5
14F
330
DC
100
AcDbEntity
  8
0
  6
Continuous
 62
     7
370
    25
100
AcDbCircle
 10
1.2158269195
 20
1.7749488966
 30
0.0
 40
0.0168608842976093
100
AcDbArc
 50
8.5371003579
 51
75.1046916215
  0
LINE
  5
150
330
DC
100
AcDbEntity
  8
0
  6
Continuous
 62
     7
370
    25
100
AcDbLine
 10
1.2325009843
 20
1.7774518913
 30
0.0
 11
1.2325009843
 21
0.3125520457
 31
0.0
  0
LINE
  5
151
330
DC
100
AcDbEntity
  8
0
  6
Continuous
 62
     7
370
    25
100
AcDbLine
 10
1.6075009843
 20
1.7774518913
 30
0.0
 11
1.6075009843
 21
0.3125520457
 31
0.0
  0
LINE
  5
152
330
DC
100
AcDbEntity
  8
0
  6
Continuous
 62
     7
370
    25
100
AcDbLine
 10
1.1132170662
 20
0.4875019685
 30
0.0
 11
1.107955777
 21
0.4770019685
 31
0.0
  0
LINE
  5
153
330
DC
100
AcDbEntity
  8
0
  6
Continuous
 62
     7
370
    25
100
AcDbLine
 10
1.1132170662
 20
0.4875019685
 30
0.0
 11
1.1240542307
 21
0.4875019685
 31
0.0
  0
LINE
  5
154
330
DC
100
AcDbEntity
  8
0
  6
Continuous
 62
     7
370
    25
100
AcDbLine
 10
1.1240542307
 20
0.4875019685
 30
0.0
 11
1.1240542307
 21
0.5450019685
 31
0.0
  0
LINE
  5
155
330
DC
100
AcDbEntity
  8
0
  6
Continuous
 62
     7
370
    25
100
AcDbLine
 10
1.1240542307
 20
0.5450019685
 30
0.0
 11
1.1132170662
 21
0.5450019685
 31
0.0
  0
LINE
  5
156
330
DC
100
AcDbEntity
  8
0
  6
Continuous
 62
     7
370
    25
100
AcDbLine
 10
1.107955777
 20
0.5555019685
 30
0.0
 11
1.1132170662
 21
0.5450019685
 31
0.0
  0
LINE
  5
157
330
DC
100
AcDbEntity
  8
0
  6
Continuous
 62
     7
370
    25
100
AcDbLine
 10
1.107955777
 20
0.5555019685
 30
0.0
 11
1.107955777
 21
0.7535019685
 31
0.0
  0
LINE
  5
158
330
DC
100
AcDbEntity
  8
0
  6
Continuous
 62
     7
370
    25
100
AcDbLine
 10
1.1132170662
 20
0.7640019685
 30
0.0
 11
1.107955777
 21
0.7535019685
 31
0.0
  0
LINE
  5
159
330
DC
100
AcDbEntity
  8
0
  6
Continuous
 62
     7
370
    25
100
AcDbLine
 10
1.1132170662
 20
0.7640019685
 30
0.0
 11
1.1486183568
 21
0.7640019685
 31
0.0
  0
LINE
  5
15A
330
DC
100
AcDbEntity
  8
0
  6
Continuous
 62
     7
370
    25
100
AcDbLine
 10
1.1486183568
 20
0.7640019685
 30
0.0
 11
1.1486183568
 21
0.8890019685
 31
0.0
  0
LINE
  5
15B
330
DC
100
AcDbEntity
  8
0
  6
Continuous
 62
     7
370
    25
100
AcDbLine
 10
1.1486183568
 20
0.8890019685
 30
0.0
 11
1.1132170662
 21
0.8890019685
 31
0.0
  0
LINE
  5
15C
330
DC
100
AcDbEntity
  8
0
  6
Continuous
 62
     7
370
    25
100
AcDbLine
 10
1.107955777
 20
0.8995019685
 30
0.0
 11
1.1132170662
 21
0.8890019685
 31
0.0
  0
LINE
  5
15D
330
DC
100
AcDbEntity
  8
0
  6
Continuous
 62
     7
370
    25
100
AcDbLine
 10
1.107955777
 20
0.8995019685
 30
0.0
 11
1.107955777
 21
1.1905019685
 31
0.0
  0
LINE
  5
15E
330
DC
100
AcDbEntity
  8
0
  6
Continuous
 62
     7
370
    25
100
AcDbLine
 10
1.1132170662
 20
1.2010019685
 30
0.0
 11
1.107955777
 21
1.1905019685
 31
0.0
  0
LINE
  5
15F
330
DC
100
AcDbEntity
  8
0
  6
Continuous
 62
     7
370
    25
100
AcDbLine
 10
1.1132170662
 20
1.2010019685
 30
0.0
 11
1.1486183568
 21
1.2010019685
 31
0.0
  0
LINE
  5
160
330
DC
100
AcDbEntity
  8
0
  6
Continuous
 62
     7
370
    25
100
AcDbLine
 10
1.1486183568
 20
1.2010019685
 30
0.0
 11
1.1486183568
 21
1.3260019685
 31
0.0
  0
LINE
  5
161
330
DC
100
AcDbEntity
  8
0
  6
Continuous
 62
     7
370
    25
100
AcDbLine
 10
1.1486183568
 20
1.3260019685
 30
0.0
 11
1.1132170662
 21
1.3260019685
 31
0.0
  0
LINE
  5
162
330
DC
100
AcDbEntity
  8
0
  6
Continuous
 62
     7
370
    25
100
AcDbLine
 10
1.107955777
 20
1.3365019685
 30
0.0
 11
1.1132170662
 21
1.3260019685
 31
0.0
  0
LINE
  5
163
330
DC
100
AcDbEntity
  8
0
  6
Continuous
 62
     7
370
    25
100
AcDbLine
 10
1.107955777
 20
1.3365019685
 30
0.0
 11
1.107955777
 21
1.5345019685
 31
0.0
  0
LINE
  5
164
330
DC
100
AcDbEntity
  8
0
  6
Continuous
 62
     7
370
    25
100
AcDbLine
 10
1.1132170662
 20
1.5450019685
 30
0.0
 11
1.107955777
 21
1.5345019685
 31
0.0
  0
LINE
  5
165
330
DC
100
AcDbEntity
  8
0
  6
Continuous
 62
     7
370
    25
100
AcDbLine
 10
1.1132170662
 20
1.5450019685
 30
0.0
 11
1.1240542307
 21
1.5450019685
 31
0.0
  0
LINE
  5
166
330
DC
100
AcDbEntity
  8
0
  6
Continuous
 62
     7
370
    25
100
AcDbLine
 10
1.1240542307
 20
1.5450019685
 30
0.0
 11
1.1240542307
 21
1.6025019685
 31
0.0
  0
LINE
  5
167
330
DC
100
AcDbEntity
  8
0
  6
Continuous
 62
     7
370
    25
100
AcDbLine
 10
1.1240542307
 20
1.6025019685
 30
0.0
 11
1.1132170662
 21
1.6025019685
 31
0.0
  0
LINE
  5
168
330
DC
100
AcDbEntity
  8
0
  6
Continuous
 62
     7
370
    25
100
AcDbLine
 10
1.107955777
 20
1.6130019685
 30
0.0
 11
1.1132170662
 21
1.6025019685
 31
0.0
  0
LINE
  5
169
330
DC
100
AcDbEntity
  8
0
  6
Continuous
 62
     7
370
    25
100
AcDbLine
 10
1.107955777
 20
1.6130019685
 30
0.0
 11
1.107955777
 21
1.7726509816
 31
0.0
  0
LWPOLYLINE
  5
16A
330
DC
100
AcDbEntity
  8
0
  6
Continuous
 62
     7
370
    25
100
AcDbPolyline
 90
       13
 70
   128
 43
0.0
 10
1.107955777
 20
1.7726509816
 10
1.108891148
 20
1.7764196789
 10
1.1101078954
 20
1.7799567234
 10
1.1109224445
 20
1.7818306479
 10
1.1118180363
 20
1.783575036
 10
1.1128046923
 20
1.7851970846
 10
1.1138645719
 20
1.7866556643
 10
1.1149450717
 20
1.7878887104
 10
1.1160807727
 20
1.7889456175
 10
1.1172823474
 20
1.7898265452
 10
1.1185261248
 20
1.7905043801
 10
1.1201729699
 20
1.7910621539
 10
1.1218615791
 20
1.7912519685
  0
LINE
  5
16B
330
DC
100
AcDbEntity
  8
0
  6
Continuous
 62
     7
370
    25
100
AcDbLine
 10
1.2201610715
 20
1.7912519685
 30
0.0
 11
1.1218615791
 21
1.7912519685
 31
0.0
  0
LINE
  5
16C
330
DC
100
AcDbEntity
  8
0
  6
Continuous
 62
     7
370
    25
100
AcDbLine
 10
1.2201610715
 20
1.7912519685
 30
0.0
 11
1.2201610715
 21
0.2987519685
 31
0.0
  0
LINE
  5
16D
330
DC
100
AcDbEntity
  8
0
  6
Continuous
 62
     7
370
    25
100
AcDbLine
 10
1.2201610715
 20
0.2987519685
 30
0.0
 11
1.1218615791
 21
0.2987519685
 31
0.0
  0
LWPOLYLINE
  5
16E
330
DC
100
AcDbEntity
  8
0
  6
Continuous
 62
     7
370
    25
100
AcDbPolyline
 90
       15
 70
   128
 43
0.0
 10
1.1218615791
 20
0.2987519685
 10
1.1201530605
 20
0.2989463002
 10
1.1189199417
 20
0.2993317977
 10
1.1176986697
 20
0.2999249242
 10
1.1164807861
 20
0.3007391723
 10
1.1152935061
 20
0.3017663112
 10
1.114194674
 20
0.302946188
 10
1.1131414176
 20
0.3043141624
 10
1.1121279933
 20
0.3058886471
 10
1.1111787636
 20
0.307643836
 10
1.1103392853
 20
0.3094823796
 10
1.109573881
 20
0.3114679311
 10
1.1088801882
 20
0.3136216459
 10
1.1082768836
 20
0.315903058
 10
1.107955777
 20
0.3173529554
  0
LINE
  5
16F
330
DC
100
AcDbEntity
  8
0
  6
Continuous
 62
     7
370
    25
100
AcDbLine
 10
1.107955777
 20
0.3173529554
 30
0.0
 11
1.107955777
 21
0.4770019685
 31
0.0
  0
LINE
  5
170
330
DC
100
AcDbEntity
  8
0
  6
Continuous
 62
     7
370
    25
100
AcDbLine
 10
1.1218615791
 20
0.2987519685
 30
0.0
 11
1.0808702905
 21
0.2987519685
 31
0.0
  0
LINE
  5
171
330
DC
100
AcDbEntity
  8
0
  6
Continuous
 62
     7
370
    25
100
AcDbLine
 10
1.759131678
 20
0.2987519685
 30
0.0
 11
1.7181403894
 21
0.2987519685
 31
0.0
  0
LWPOLYLINE
  5
172
330
DC
100
AcDbEntity
  8
0
  6
Continuous
 62
     7
370
    25
100
AcDbPolyline
 90
       13
 70
   128
 43
0.0
 10
1.7320461915
 20
0.3173529554
 10
1.7311108205
 20
0.3135842582
 10
1.7298940731
 20
0.3100472136
 10
1.729079524
 20
0.3081732891
 10
1.7281839322
 20
0.306428901
 10
1.7271972762
 20
0.3048068524
 10
1.7261373967
 20
0.3033482727
 10
1.7250568968
 20
0.3021152266
 10
1.7239211958
 20
0.3010583195
 10
1.7227196211
 20
0.3001773918
 10
1.7214758437
 20
0.2994995569
 10
1.7198289986
 20
0.2989417831
 10
1.7181403894
 20
0.2987519685
  0
LINE
  5
173
330
DC
100
AcDbEntity
  8
0
  6
Continuous
 62
     7
370
    25
100
AcDbLine
 10
1.7320461915
 20
0.3173529554
 30
0.0
 11
1.759131678
 21
0.3173529554
 31
0.0
  0
LINE
  5
174
330
DC
100
AcDbEntity
  8
0
  6
Continuous
 62
     7
370
    25
100
AcDbLine
 10
1.0808702905
 20
0.3173529554
 30
0.0
 11
1.107955777
 21
0.3173529554
 31
0.0
  0
LWPOLYLINE
  5
175
330
DC
100
AcDbEntity
  8
0
  6
Continuous
 62
     7
370
    25
100
AcDbPolyline
 90
       15
 70
   128
 43
0.0
 10
1.7181403894
 20
1.7912519685
 10
1.719848908
 20
1.7910576368
 10
1.7210820268
 20
1.7906721393
 10
1.7223032988
 20
1.7900790128
 10
1.7235211824
 20
1.7892647647
 10
1.7247084624
 20
1.7882376258
 10
1.7258072945
 20
1.787057749
 10
1.7268605509
 20
1.7856897747
 10
1.7278739752
 20
1.7841152899
 10
1.7288232049
 20
1.782360101
 10
1.7296626832
 20
1.7805215575
 10
1.7304280875
 20
1.7785360059
 10
1.7311217803
 20
1.7763822911
 10
1.7317250849
 20
1.774100879
 10
1.7320461915
 20
1.7726509816
  0
LINE
  5
176
330
DC
100
AcDbEntity
  8
0
  6
Continuous
 62
     7
370
    25
100
AcDbLine
 10
1.1218615791
 20
1.7912519685
 30
0.0
 11
1.0808702905
 21
1.7912519685
 31
0.0
  0
LINE
  5
177
330
DC
100
AcDbEntity
  8
0
  6
Continuous
 62
     7
370
    25
100
AcDbLine
 10
1.759131678
 20
1.7912519685
 30
0.0
 11
1.7181403894
 21
1.7912519685
 31
0.0
  0
LINE
  5
178
330
DC
100
AcDbEntity
  8
0
  6
Continuous
 62
     7
370
    25
100
AcDbLine
 10
1.107955777
 20
1.7726509816
 30
0.0
 11
1.0808702905
 21
1.7726509816
 31
0.0
  0
LINE
  5
179
330
DC
100
AcDbEntity
  8
0
  6
Continuous
 62
     7
370
    25
100
AcDbLine
 10
1.759131678
 20
1.7726509816
 30
0.0
 11
1.7320461915
 21
1.7726509816
 31
0.0
  0
LINE
  5
17A
330
DC
100
AcDbEntity
  8
0
  6
Continuous
 62
     7
370
    25
100
AcDbLine
 10
1.7267849023
 20
1.6025019685
 30
0.0
 11
1.7320461915
 21
1.6130019685
 31
0.0
  0
LINE
  5
17B
330
DC
100
AcDbEntity
  8
0
  6
Continuous
 62
     7
370
    25
100
AcDbLine
 10
1.7267849023
 20
1.6025019685
 30
0.0
 11
1.7159477378
 21
1.6025019685
 31
0.0
  0
LINE
  5
17C
330
DC
100
AcDbEntity
  8
0
  6
Continuous
 62
     7
370
    25
100
AcDbLine
 10
1.7159477378
 20
1.6025019685
 30
0.0
 11
1.7159477378
 21
1.5450019685
 31
0.0
  0
LINE
  5
17D
330
DC
100
AcDbEntity
  8
0
  6
Continuous
 62
     7
370
    25
100
AcDbLine
 10
1.7159477378
 20
1.5450019685
 30
0.0
 11
1.7267849023
 21
1.5450019685
 31
0.0
  0
LINE
  5
17E
330
DC
100
AcDbEntity
  8
0
  6
Continuous
 62
     7
370
    25
100
AcDbLine
 10
1.7320461915
 20
1.5345019685
 30
0.0
 11
1.7267849023
 21
1.5450019685
 31
0.0
  0
LINE
  5
17F
330
DC
100
AcDbEntity
  8
0
  6
Continuous
 62
     7
370
    25
100
AcDbLine
 10
1.7320461915
 20
1.5345019685
 30
0.0
 11
1.7320461915
 21
1.3365019685
 31
0.0
  0
LINE
  5
180
330
DC
100
AcDbEntity
  8
0
  6
Continuous
 62
     7
370
    25
100
AcDbLine
 10
1.7267849023
 20
1.3260019685
 30
0.0
 11
1.7320461915
 21
1.3365019685
 31
0.0
  0
LINE
  5
181
330
DC
100
AcDbEntity
  8
0
  6
Continuous
 62
     7
370
    25
100
AcDbLine
 10
1.7267849023
 20
1.3260019685
 30
0.0
 11
1.6913836117
 21
1.3260019685
 31
0.0
  0
LINE
  5
182
330
DC
100
AcDbEntity
  8
0
  6
Continuous
 62
     7
370
    25
100
AcDbLine
 10
1.6913836117
 20
1.3260019685
 30
0.0
 11
1.6913836117
 21
1.2010019685
 31
0.0
  0
LINE
  5
183
330
DC
100
AcDbEntity
  8
0
  6
Continuous
 62
     7
370
    25
100
AcDbLine
 10
1.6913836117
 20
1.2010019685
 30
0.0
 11
1.7267849023
 21
1.2010019685
 31
0.0
  0
LINE
  5
184
330
DC
100
AcDbEntity
  8
0
  6
Continuous
 62
     7
370
    25
100
AcDbLine
 10
1.7320461915
 20
1.1905019685
 30
0.0
 11
1.7267849023
 21
1.2010019685
 31
0.0
  0
LINE
  5
185
330
DC
100
AcDbEntity
  8
0
  6
Continuous
 62
     7
370
    25
100
AcDbLine
 10
1.7320461915
 20
1.1905019685
 30
0.0
 11
1.7320461915
 21
0.8995019685
 31
0.0
  0
LINE
  5
186
330
DC
100
AcDbEntity
  8
0
  6
Continuous
 62
     7
370
    25
100
AcDbLine
 10
1.7267849023
 20
0.8890019685
 30
0.0
 11
1.7320461915
 21
0.8995019685
 31
0.0
  0
LINE
  5
187
330
DC
100
AcDbEntity
  8
0
  6
Continuous
 62
     7
370
    25
100
AcDbLine
 10
1.7267849023
 20
0.8890019685
 30
0.0
 11
1.6913836117
 21
0.8890019685
 31
0.0
  0
LINE
  5
188
330
DC
100
AcDbEntity
  8
0
  6
Continuous
 62
     7
370
    25
100
AcDbLine
 10
1.6913836117
 20
0.8890019685
 30
0.0
 11
1.6913836117
 21
0.7640019685
 31
0.0
  0
LINE
  5
189
330
DC
100
AcDbEntity
  8
0
  6
Continuous
 62
     7
370
    25
100
AcDbLine
 10
1.6913836117
 20
0.7640019685
 30
0.0
 11
1.7267849023
 21
0.7640019685
 31
0.0
  0
LINE
  5
18A
330
DC
100
AcDbEntity
  8
0
  6
Continuous
 62
     7
370
    25
100
AcDbLine
 10
1.7320461915
 20
0.7535019685
 30
0.0
 11
1.7267849023
 21
0.7640019685
 31
0.0
  0
LINE
  5
18B
330
DC
100
AcDbEntity
  8
0
  6
Continuous
 62
     7
370
    25
100
AcDbLine
 10
1.7320461915
 20
0.7535019685
 30
0.0
 11
1.7320461915
 21
0.5555019685
 31
0.0
  0
LINE
  5
18C
330
DC
100
AcDbEntity
  8
0
  6
Continuous
 62
     7
370
    25
100
AcDbLine
 10
1.7267849023
 20
0.5450019685
 30
0.0
 11
1.7320461915
 21
0.5555019685
 31
0.0
  0
LINE
  5
18D
330
DC
100
AcDbEntity
  8
0
  6
Continuous
 62
     7
370
    25
100
AcDbLine
 10
1.7267849023
 20
0.5450019685
 30
0.0
 11
1.7159477378
 21
0.5450019685
 31
0.0
  0
LINE
  5
18E
330
DC
100
AcDbEntity
  8
0
  6
Continuous
 62
     7
370
    25
100
AcDbLine
 10
1.7159477378
 20
0.5450019685
 30
0.0
 11
1.7159477378
 21
0.4875019685
 31
0.0
  0
LINE
  5
18F
330
DC
100
AcDbEntity
  8
0
  6
Continuous
 62
     7
370
    25
100
AcDbLine
 10
1.7159477378
 20
0.4875019685
 30
0.0
 11
1.7267849023
 21
0.4875019685
 31
0.0
  0
LINE
  5
190
330
DC
100
AcDbEntity
  8
0
  6
Continuous
 62
     7
370
    25
100
AcDbLine
 10
1.7320461915
 20
0.4770019685
 30
0.0
 11
1.7267849023
 21
0.4875019685
 31
0.0
  0
LINE
  5
191
330
DC
100
AcDbEntity
  8
0
  6
Continuous
 62
     7
370
    25
100
AcDbLine
 10
1.7320461915
 20
0.4770019685
 30
0.0
 11
1.7320461915
 21
0.3173529554
 31
0.0
  0
LINE
  5
192
330
DC
100
AcDbEntity
  8
0
  6
Continuous
 62
     7
370
    25
100
AcDbLine
 10
1.7181403894
 20
0.2987519685
 30
0.0
 11
1.619840897
 21
0.2987519685
 31
0.0
  0
LINE
  5
193
330
DC
100
AcDbEntity
  8
0
  6
Continuous
 62
     7
370
    25
100
AcDbLine
 10
1.619840897
 20
0.2987519685
 30
0.0
 11
1.619840897
 21
1.7912519685
 31
0.0
  0
LINE
  5
194
330
DC
100
AcDbEntity
  8
0
  6
Continuous
 62
     7
370
    25
100
AcDbLine
 10
1.7181403894
 20
1.7912519685
 30
0.0
 11
1.619840897
 21
1.7912519685
 31
0.0
  0
LINE
  5
195
330
DC
100
AcDbEntity
  8
0
  6
Continuous
 62
     7
370
    25
100
AcDbLine
 10
1.7320461915
 20
1.7726509816
 30
0.0
 11
1.7320461915
 21
1.6130019685
 31
0.0
  0
LINE
  5
196
330
DC
100
AcDbEntity
  8
0
  6
Continuous
 62
     7
370
    25
100
AcDbLine
 10
1.7320461915
 20
0.7535019685
 30
0.0
 11
1.759131678
 21
0.7535019685
 31
0.0
  0
LINE
  5
197
330
DC
100
AcDbEntity
  8
0
  6
Continuous
 62
     7
370
    25
100
AcDbLine
 10
1.0808702905
 20
0.7535019685
 30
0.0
 11
1.107955777
 21
0.7535019685
 31
0.0
  0
LINE
  5
198
330
DC
100
AcDbEntity
  8
0
  6
Continuous
 62
     7
370
    25
100
AcDbLine
 10
1.107955777
 20
0.5555019685
 30
0.0
 11
1.0808702905
 21
0.5555019685
 31
0.0
  0
LINE
  5
199
330
DC
100
AcDbEntity
  8
0
  6
Continuous
 62
     7
370
    25
100
AcDbLine
 10
1.759131678
 20
0.5555019685
 30
0.0
 11
1.7320461915
 21
0.5555019685
 31
0.0
  0
LINE
  5
19A
330
DC
100
AcDbEntity
  8
0
  6
Continuous
 62
     7
370
    25
100
AcDbLine
 10
1.1132170662
 20
0.5450019685
 30
0.0
 11
1.0808702905
 21
0.5450019685
 31
0.0
  0
LINE
  5
19B
330
DC
100
AcDbEntity
  8
0
  6
Continuous
 62
     7
370
    25
100
AcDbLine
 10
1.759131678
 20
0.5450019685
 30
0.0
 11
1.7267849023
 21
0.5450019685
 31
0.0
  0
LINE
  5
19C
330
DC
100
AcDbEntity
  8
0
  6
Continuous
 62
     7
370
    25
100
AcDbLine
 10
1.7267849023
 20
1.2010019685
 30
0.0
 11
1.7273433688
 21
1.2010019685
 31
0.0
  0
LINE
  5
19D
330
DC
100
AcDbEntity
  8
0
  6
Continuous
 62
     7
370
    25
100
AcDbLine
 10
1.1126585998
 20
1.2010019685
 30
0.0
 11
1.1132170662
 21
1.2010019685
 31
0.0
  0
LINE
  5
19E
330
DC
100
AcDbEntity
  8
0
  6
Continuous
 62
     7
370
    25
100
AcDbLine
 10
1.7320461915
 20
1.1905019685
 30
0.0
 11
1.7569421569
 21
1.1905019685
 31
0.0
  0
LINE
  5
19F
330
DC
100
AcDbEntity
  8
0
  6
Continuous
 62
     7
370
    25
100
AcDbLine
 10
1.0830595382
 20
1.1905019685
 30
0.0
 11
1.107955777
 21
1.1905019685
 31
0.0
  0
LINE
  5
1A0
330
DC
100
AcDbEntity
  8
0
  6
Continuous
 62
     7
370
    25
100
AcDbLine
 10
1.0808702905
 20
0.4875019685
 30
0.0
 11
1.1132170662
 21
0.4875019685
 31
0.0
  0
LINE
  5
1A1
330
DC
100
AcDbEntity
  8
0
  6
Continuous
 62
     7
370
    25
100
AcDbLine
 10
1.0808702905
 20
0.4770019685
 30
0.0
 11
1.107955777
 21
0.4770019685
 31
0.0
  0
LINE
  5
1A2
330
DC
100
AcDbEntity
  8
0
  6
Continuous
 62
     7
370
    25
100
AcDbLine
 10
1.1132170662
 20
1.6025019685
 30
0.0
 11
1.0808702905
 21
1.6025019685
 31
0.0
  0
LINE
  5
1A3
330
DC
100
AcDbEntity
  8
0
  6
Continuous
 62
     7
370
    25
100
AcDbLine
 10
1.759131678
 20
1.6025019685
 30
0.0
 11
1.7267849023
 21
1.6025019685
 31
0.0
  0
LINE
  5
1A4
330
DC
100
AcDbEntity
  8
0
  6
Continuous
 62
     7
370
    25
100
AcDbLine
 10
1.107955777
 20
1.6130019685
 30
0.0
 11
1.0808702905
 21
1.6130019685
 31
0.0
  0
LINE
  5
1A5
330
DC
100
AcDbEntity
  8
0
  6
Continuous
 62
     7
370
    25
100
AcDbLine
 10
1.759131678
 20
1.6130019685
 30
0.0
 11
1.7320461915
 21
1.6130019685
 31
0.0
  0
LINE
  5
1A6
330
DC
100
AcDbEntity
  8
0
  6
Continuous
 62
     7
370
    25
100
AcDbLine
 10
1.107955777
 20
0.8995019685
 30
0.0
 11
1.0830598116
 21
0.8995019685
 31
0.0
  0
LINE
  5
1A7
330
DC
100
AcDbEntity
  8
0
  6
Continuous
 62
     7
370
    25
100
AcDbLine
 10
1.7569424303
 20
0.8995019685
 30
0.0
 11
1.7320461915
 21
0.8995019685
 31
0.0
  0
LINE
  5
1A8
330
DC
100
AcDbEntity
  8
0
  6
Continuous
 62
     7
370
    25
100
AcDbLine
 10
1.1132170662
 20
0.8890019685
 30
0.0
 11
1.1126585998
 21
0.8890019685
 31
0.0
  0
LINE
  5
1A9
330
DC
100
AcDbEntity
  8
0
  6
Continuous
 62
     7
370
    25
100
AcDbLine
 10
1.7273433688
 20
0.8890019685
 30
0.0
 11
1.7267849023
 21
0.8890019685
 31
0.0
  0
LINE
  5
1AA
330
DC
100
AcDbEntity
  8
0
  6
Continuous
 62
     7
370
    25
100
AcDbLine
 10
1.7320461915
 20
1.5345019685
 30
0.0
 11
1.759131678
 21
1.5345019685
 31
0.0
  0
LINE
  5
1AB
330
DC
100
AcDbEntity
  8
0
  6
Continuous
 62
     7
370
    25
100
AcDbLine
 10
1.0808702905
 20
1.5345019685
 30
0.0
 11
1.107955777
 21
1.5345019685
 31
0.0
  0
LINE
  5
1AC
330
DC
100
AcDbEntity
  8
0
  6
Continuous
 62
     7
370
    25
100
AcDbLine
 10
1.107955777
 20
1.3365019685
 30
0.0
 11
1.0808702905
 21
1.3365019685
 31
0.0
  0
LINE
  5
1AD
330
DC
100
AcDbEntity
  8
0
  6
Continuous
 62
     7
370
    25
100
AcDbLine
 10
1.759131678
 20
1.3365019685
 30
0.0
 11
1.7320461915
 21
1.3365019685
 31
0.0
  0
LINE
  5
1AE
330
DC
100
AcDbEntity
  8
0
  6
Continuous
 62
     7
370
    25
100
AcDbLine
 10
1.7320461915
 20
0.4770019685
 30
0.0
 11
1.759131678
 21
0.4770019685
 31
0.0
  0
LINE
  5
1AF
330
DC
100
AcDbEntity
  8
0
  6
Continuous
 62
     7
370
    25
100
AcDbLine
 10
1.7267849023
 20
0.7640019685
 30
0.0
 11
1.759131678
 21
0.7640019685
 31
0.0
  0
LINE
  5
1B0
330
DC
100
AcDbEntity
  8
0
  6
Continuous
 62
     7
370
    25
100
AcDbLine
 10
1.0808702905
 20
0.7640019685
 30
0.0
 11
1.1132170662
 21
0.7640019685
 31
0.0
  0
LINE
  5
1B1
330
DC
100
AcDbEntity
  8
0
  6
Continuous
 62
     7
370
    25
100
AcDbLine
 10
1.7267849023
 20
1.5450019685
 30
0.0
 11
1.759131678
 21
1.5450019685
 31
0.0
  0
LINE
  5
1B2
330
DC
100
AcDbEntity
  8
0
  6
Continuous
 62
     7
370
    25
100
AcDbLine
 10
1.0808702905
 20
1.5450019685
 30
0.0
 11
1.1132170662
 21
1.5450019685
 31
0.0
  0
LINE
  5
1B3
330
DC
100
AcDbEntity
  8
0
  6
Continuous
 62
     7
370
    25
100
AcDbLine
 10
1.1132170662
 20
1.3260019685
 30
0.0
 11
1.0808702905
 21
1.3260019685
 31
0.0
  0
LINE
  5
1B4
330
DC
100
AcDbEntity
  8
0
  6
Continuous
 62
     7
370
    25
100
AcDbLine
 10
1.759131678
 20
1.3260019685
 30
0.0
 11
1.7267849023
 21
1.3260019685
 31
0.0
  0
LINE
  5
1B5
330
DC
100
AcDbEntity
  8
0
  6
Continuous
 62
     7
370
    25
100
AcDbLine
 10
1.7267849023
 20
0.4875019685
 30
0.0
 11
1.759131678
 21
0.4875019685
 31
0.0
  0
LINE
  5
1B6
330
DC
100
AcDbEntity
  8
0
  6
Continuous
 62
     7
370
    25
100
AcDbLine
 10
1.2206665263
 20
1.7912519685
 30
0.0
 11
1.6193595299
 21
1.7912519685
 31
0.0
  0
LINE
  5
1B7
330
DC
100
AcDbEntity
  8
0
  6
Continuous
 62
     7
370
    25
100
AcDbLine
 10
1.6193660315
 20
0.2987519685
 30
0.0
 11
1.2206736657
 21
0.2987519685
 31
0.0
  0
ENDBLK
  5
DF
330
DC
100
AcDbEntity
  8
0
100
AcDbBlockEnd
  0
BLOCK
  5
1BA
330
1B8
100
AcDbEntity
  8
0
100
AcDbBlockBegin
  2
*Paper_Space2
 70
     0
 10
0.0
 20
0.0
 30
0.0
  3
*Paper_Space2
  1

  0
LWPOLYLINE
  5
1BC
330
1B8
100
AcDbEntity
  8
0
  6
Continuous
 62
     7
370
    25
100
AcDbPolyline
 90
        3
 70
   128
 43
0.0
 10
1.1031997295
 20
1.5194546501
 10
1.0908870024
 20
1.5109981083
 10
1.0808702905
 20
1.5037598746
  0
LWPOLYLINE
  5
1BD
330
1B8
100
AcDbEntity
  8
0
  6
Continuous
 62
     7
370
    25
100
AcDbPolyline
 90
        3
 70
   128
 43
0.0
 10
1.759074151
 20
1.5038023949
 10
1.7491178705
 20
1.5109960571
 10
1.7368051962
 20
1.5194526755
  0
ARC
  5
1BE
330
1B8
100
AcDbEntity
  8
0
  6
Continuous
 62
     7
370
    25
100
AcDbCircle
 10
0.8300191617
 20
1.4937460435
 30
0.0
 40
0.1799999999999998
100
AcDbArc
 50
306.6410035979
 51
314.529809536
  0
ARC
  5
1BF
330
1B8
100
AcDbEntity
  8
0
  6
Continuous
 62
     7
370
    25
100
AcDbCircle
 10
0.9772880153
 20
1.3440400491
 30
0.0
 40
0.0300000000000002
100
AcDbArc
 50
52.7430202377
 51
134.529809536
  0
LINE
  5
1C0
330
1B8
100
AcDbEntity
  8
0
  6
Continuous
 62
     7
370
    25
100
AcDbLine
 10
1.0095009843
 20
1.3572303837
 30
0.0
 11
0.9954497439
 21
1.3679178969
 31
0.0
  0
ARC
  5
1C1
330
1B8
100
AcDbEntity
  8
0
  6
Continuous
 62
     7
370
    25
100
AcDbCircle
 10
1.4200009843
 20
1.045
 30
0.0
 40
0.5157499999999997
100
AcDbArc
 50
142.7430202377
 51
37.2569797623
  0
LINE
  5
1C2
330
1B8
100
AcDbEntity
  8
0
  6
Continuous
 62
     7
370
    25
100
AcDbLine
 10
1.8445522246
 20
1.3679178969
 30
0.0
 11
1.8305009843
 21
1.3572303837
 31
0.0
  0
ARC
  5
1C3
330
1B8
100
AcDbEntity
  8
0
  6
Continuous
 62
     7
370
    25
100
AcDbCircle
 10
1.8627139532
 20
1.3440400491
 30
0.0
 40
0.0300000000000002
100
AcDbArc
 50
45.470190464
 51
127.2569797623
  0
ARC
  5
1C4
330
1B8
100
AcDbEntity
  8
0
  6
Continuous
 62
     7
370
    25
100
AcDbCircle
 10
2.0099828068
 20
1.4937460435
 30
0.0
 40
0.1799999999999997
100
AcDbArc
 50
225.470190464
 51
233.3589964021
  0
LINE
  5
1C5
330
1B8
100
AcDbEntity
  8
0
  6
Continuous
 62
     7
370
    25
100
AcDbLine
 10
1.7367727637
 20
1.5194051104
 30
0.0
 11
1.7326041579
 21
1.5121848732
 31
0.0
  0
LINE
  5
1C6
330
1B8
100
AcDbEntity
  8
0
  6
Continuous
 62
     7
370
    25
100
AcDbLine
 10
1.1074023824
 20
1.5121769548
 30
0.0
 11
1.1032006486
 21
1.5194545712
 31
0.0
  0
ARC
  5
1C7
330
1B8
100
AcDbEntity
  8
0
  6
Continuous
 62
     7
370
    25
100
AcDbCircle
 10
1.4200009843
 20
1.045
 30
0.0
 40
0.5705
100
AcDbArc
 50
126.4730551867
 51
53.5269448133
  0
LINE
  5
1C8
330
1B8
100
AcDbEntity
  8
0
  6
Continuous
 62
     7
370
    25
100
AcDbLine
 10
1.759131678
 20
1.5037598746
 30
0.0
 11
1.7691946343
 21
1.5211894262
 31
0.0
  0
ARC
  5
1C9
330
1B8
100
AcDbEntity
  8
0
  6
Continuous
 62
     7
370
    25
100
AcDbCircle
 10
1.4200009843
 20
1.045
 30
0.0
 40
0.5904999999999985
100
AcDbArc
 50
126.2529148061
 51
53.7470851939
  0
LINE
  5
1CA
330
1B8
100
AcDbEntity
  8
0
  6
Continuous
 62
     7
370
    25
100
AcDbLine
 10
1.0708073342
 20
1.5211894262
 30
0.0
 11
1.0808702905
 21
1.5037598746
 31
0.0
  0
LINE
  5
1CB
330
1B8
100
AcDbEntity
  8
0
  6
Continuous
 62
     7
370
    25
100
AcDbLine
 10
2.2350009843
 20
1.607
 30
0.0
 11
1.8187373921
 21
1.607
 31
0.0
  0
ARC
  5
1CC
330
1B8
100
AcDbEntity
  8
0
  6
Continuous
 62
     7
370
    25
100
AcDbCircle
 10
2.2350009843
 20
1.547
 30
0.0
 40
0.0600000000000001
100
AcDbArc
 50
0.0
 51
90.0
  0
LINE
  5
1CD
330
1B8
100
AcDbEntity
  8
0
  6
Continuous
 62
     7
370
    25
100
AcDbLine
 10
2.2950009843
 20
0.451
 30
0.0
 11
2.2950009843
 21
1.547
 31
0.0
  0
LINE
  5
1CE
330
1B8
100
AcDbEntity
  8
0
  6
Continuous
 62
     7
370
    25
100
AcDbLine
 10
2.6700009843
 20
0.451
 30
0.0
 11
2.2950009843
 21
0.451
 31
0.0
  0
LINE
  5
1CF
330
1B8
100
AcDbEntity
  8
0
  6
Continuous
 62
     7
370
    25
100
AcDbLine
 10
2.6700009843
 20
0.17
 30
0.0
 11
2.6700009843
 21
0.451
 31
0.0
  0
LINE
  5
1D0
330
1B8
100
AcDbEntity
  8
0
  6
Continuous
 62
     7
370
    25
100
AcDbLine
 10
1.9709539789
 20
0.17
 30
0.0
 11
2.6700009843
 21
0.17
 31
0.0
  0
LINE
  5
1D1
330
1B8
100
AcDbEntity
  8
0
  6
Continuous
 62
     7
370
    25
100
AcDbLine
 10
1.9247659573
 20
0.25
 30
0.0
 11
1.9709539789
 21
0.17
 31
0.0
  0
LINE
  5
1D2
330
1B8
100
AcDbEntity
  8
0
  6
Continuous
 62
     7
370
    25
100
AcDbLine
 10
0.9152360112
 20
0.25
 30
0.0
 11
1.9247659573
 21
0.25
 31
0.0
  0
LINE
  5
1D3
330
1B8
100
AcDbEntity
  8
0
  6
Continuous
 62
     7
370
    25
100
AcDbLine
 10
0.8690479896
 20
0.17
 30
0.0
 11
0.9152360112
 21
0.25
 31
0.0
  0
LINE
  5
1D4
330
1B8
100
AcDbEntity
  8
0
  6
Continuous
 62
     7
370
    25
100
AcDbLine
 10
0.1700009843
 20
0.17
 30
0.0
 11
0.8690479896
 21
0.17
 31
0.0
  0
LINE
  5
1D5
330
1B8
100
AcDbEntity
  8
0
  6
Continuous
 62
     7
370
    25
100
AcDbLine
 10
0.1700009843
 20
0.451
 30
0.0
 11
0.1700009843
 21
0.17
 31
0.0
  0
LINE
  5
1D6
330
1B8
100
AcDbEntity
  8
0
  6
Continuous
 62
     7
370
    25
100
AcDbLine
 10
0.5450009843
 20
0.451
 30
0.0
 11
0.1700009843
 21
0.451
 31
0.0
  0
LINE
  5
1D7
330
1B8
100
AcDbEntity
  8
0
  6
Continuous
 62
     7
370
    25
100
AcDbLine
 10
0.5450009843
 20
1.0755
 30
0.0
 11
0.5450009843
 21
0.451
 31
0.0
  0
LINE
  5
1D8
330
1B8
100
AcDbEntity
  8
0
  6
Continuous
 62
     7
370
    25
100
AcDbLine
 10
0.4825009843
 20
1.138
 30
0.0
 11
0.5450009843
 21
1.0755
 31
0.0
  0
LINE
  5
1D9
330
1B8
100
AcDbEntity
  8
0
  6
Continuous
 62
     7
370
    25
100
AcDbLine
 10
0.4825009843
 20
1.547
 30
0.0
 11
0.4825009843
 21
1.138
 31
0.0
  0
ARC
  5
1DA
330
1B8
100
AcDbEntity
  8
0
  6
Continuous
 62
     7
370
    25
100
AcDbCircle
 10
0.5425009843
 20
1.547
 30
0.0
 40
0.0600000000000001
100
AcDbArc
 50
90.0
 51
180.0
  0
LINE
  5
1DB
330
1B8
100
AcDbEntity
  8
0
  6
Continuous
 62
     7
370
    25
100
AcDbLine
 10
0.5450009843
 20
1.607
 30
0.0
 11
0.5425009843
 21
1.607
 31
0.0
  0
LINE
  5
1DC
330
1B8
100
AcDbEntity
  8
0
  6
Continuous
 62
     7
370
    25
100
AcDbLine
 10
0.5450009843
 20
1.547
 30
0.0
 11
0.5450009843
 21
1.607
 31
0.0
  0
ARC
  5
1DD
330
1B8
100
AcDbEntity
  8
0
  6
Continuous
 62
     7
370
    25
100
AcDbCircle
 10
0.6050009843
 20
1.547
 30
0.0
 40
0.0600000000000002
100
AcDbArc
 50
90.0
 51
180.0
  0
LINE
  5
1DE
330
1B8
100
AcDbEntity
  8
0
  6
Continuous
 62
     7
370
    25
100
AcDbLine
 10
0.7113395669
 20
1.607
 30
0.0
 11
0.6050009843
 21
1.607
 31
0.0
  0
LINE
  5
1DF
330
1B8
100
AcDbEntity
  8
0
  6
Continuous
 62
     7
370
    25
100
AcDbLine
 10
0.7113395669
 20
1.2132992126
 30
0.0
 11
0.7113395669
 21
1.607
 31
0.0
  0
LINE
  5
1E0
330
1B8
100
AcDbEntity
  8
0
  6
Continuous
 62
     7
370
    25
100
AcDbLine
 10
0.7900797244
 20
1.2132992126
 30
0.0
 11
0.7113395669
 21
1.2132992126
 31
0.0
  0
LINE
  5
1E1
330
1B8
100
AcDbEntity
  8
0
  6
Continuous
 62
     7
370
    25
100
AcDbLine
 10
0.7900797244
 20
1.607
 30
0.0
 11
0.7900797244
 21
1.2132992126
 31
0.0
  0
LINE
  5
1E2
330
1B8
100
AcDbEntity
  8
0
  6
Continuous
 62
     7
370
    25
100
AcDbLine
 10
1.0212645764
 20
1.607
 30
0.0
 11
0.7900797244
 21
1.607
 31
0.0
  0
LINE
  5
1E3
330
1B8
100
AcDbEntity
  8
0
  6
Continuous
 62
     7
370
    25
100
AcDbLine
 10
1.0708083244
 20
1.5211877112
 30
0.0
 11
1.0212645764
 21
1.607
 31
0.0
  0
LINE
  5
1E4
330
1B8
100
AcDbEntity
  8
0
  6
Continuous
 62
     7
370
    25
100
AcDbLine
 10
1.8187373921
 20
1.607
 30
0.0
 11
1.7691936441
 21
1.5211877112
 31
0.0
  0
LINE
  5
1E5
330
1B8
100
AcDbEntity
  8
0
  6
Continuous
 62
     7
370
    25
100
AcDbLine
 10
1.0808702905
 20
1.5037598746
 30
0.0
 11
1.0813433307
 21
1.5029405451
 31
0.0
  0
LINE
  5
1E6
330
1B8
100
AcDbEntity
  8
0
  6
Continuous
 62
     7
370
    25
100
AcDbLine
 10
1.7586588712
 20
1.5029409493
 30
0.0
 11
1.759131678
 21
1.5037598746
 31
0.0
  0
LINE
  5
1E7
330
1B8
100
AcDbEntity
  8
0
  6
Continuous
 62
     7
370
    25
100
AcDbLine
 10
1.2201610715
 20
1.3182146762
 30
0.0
 11
1.2325009843
 21
1.2968413203
 31
0.0
  0
ARC
  5
1E8
330
1B8
100
AcDbEntity
  8
0
  6
Continuous
 62
     7
370
    25
100
AcDbCircle
 10
1.4200009843
 20
1.045
 30
0.0
 40
0.3139750000000001
100
AcDbArc
 50
126.668289044
 51
53.331710956
  0
LINE
  5
1E9
330
1B8
100
AcDbEntity
  8
0
  6
Continuous
 62
     7
370
    25
100
AcDbLine
 10
1.6075009843
 20
1.2968413203
 30
0.0
 11
1.619840897
 21
1.3182146762
 31
0.0
  0
LINE
  5
1EA
330
1B8
100
AcDbEntity
  8
0
  6
Continuous
 62
     7
370
    25
100
AcDbLine
 10
1.7320461915
 20
1.5125599472
 30
0.0
 11
1.7181403894
 21
1.4884743913
 31
0.0
  0
ARC
  5
1EB
330
1B8
100
AcDbEntity
  8
0
  6
Continuous
 62
     7
370
    25
100
AcDbCircle
 10
1.4200009843
 20
1.045
 30
0.0
 40
0.562125
100
AcDbArc
 50
35.196579871
 51
56.2812183696
  0
ARC
  5
1EC
330
1B8
100
AcDbEntity
  8
0
  6
Continuous
 62
     7
370
    25
100
AcDbCircle
 10
1.4200009843
 20
1.045
 30
0.0
 40
0.562125
100
AcDbArc
 50
123.7187816304
 51
144.803420129
  0
LINE
  5
1ED
330
1B8
100
AcDbEntity
  8
0
  6
Continuous
 62
     7
370
    25
100
AcDbLine
 10
1.1218615791
 20
1.4884743913
 30
0.0
 11
1.107955777
 21
1.5125599472
 31
0.0
  0
ARC
  5
1EE
330
1B8
100
AcDbEntity
  8
0
  6
Continuous
 62
     7
370
    25
100
AcDbCircle
 10
1.4200009843
 20
1.045
 30
0.0
 40
0.3385000000000001
100
AcDbArc
 50
126.1831992434
 51
53.8168007566
  0
LINE
  5
1EF
330
1B8
100
AcDbEntity
  8
0
  6
Continuous
 62
     7
370
    25
100
AcDbLine
 10
1.619840897
 20
1.3182146762
 30
0.0
 11
1.7181403894
 21
1.4884743913
 31
0.0
  0
LINE
  5
1F0
330
1B8
100
AcDbEntity
  8
0
  6
Continuous
 62
     7
370
    25
100
AcDbLine
 10
1.1218615791
 20
1.4884743913
 30
0.0
 11
1.2201610715
 21
1.3182146762
 31
0.0
  0
ARC
  5
1F1
330
1B8
100
AcDbEntity
  8
0
  6
Continuous
 62
     8
370
    25
100
AcDbCircle
 10
1.4200009843
 20
1.045
 30
0.0
 40
0.5343749999999999
100
AcDbArc
 50
37.2552941255
 51
56.087809473
  0
ARC
  5
1F2
330
1B8
100
AcDbEntity
  8
0
  6
Continuous
 62
     8
370
    25
100
AcDbCircle
 10
1.4200009843
 20
1.045
 30
0.0
 40
0.5343749999999999
100
AcDbArc
 50
123.912190527
 51
142.7447058745
  0
ENDBLK
  5
1BB
330
1B8
100
AcDbEntity
  8
0
100
AcDbBlockEnd
  0
ENDSEC
  0
SECTION
  2
ENTITIES
  0
LINE
  5
74
330
1F
100
AcDbEntity
  8
0
  6
Continuous
 62
     7
370
    25
100
AcDbLine
 10
1.1036696646
 20
1.5186422115
 30
0.0
 11
1.0808702905
 21
1.5037598746
 31
0.0
  0
LINE
  5
75
330
1F
100
AcDbEntity
  8
0
  6
Continuous
 62
     7
370
    25
100
AcDbLine
 10
1.759131678
 20
1.5037598746
 30
0.0
 11
1.7367193545
 21
1.5193126029
 31
0.0
  0
LINE
  5
76
330
1F
100
AcDbEntity
  8
0
  6
Continuous
 62
     7
370
    25
100
AcDbLine
 10
1.7320461915
 20
1.5125599472
 30
0.0
 11
1.7367193545
 21
1.5193126029
 31
0.0
  0
LINE
  5
77
330
1F
100
AcDbEntity
  8
0
  6
Continuous
 62
     7
370
    25
100
AcDbLine
 10
1.107955777
 20
1.5125599472
 30
0.0
 11
1.1036696646
 21
1.5186422115
 31
0.0
  0
ARC
  5
78
330
1F
100
AcDbEntity
  8
0
  6
Continuous
 62
     7
370
    25
100
AcDbCircle
 10
0.8300191617
 20
1.4937460435
 30
0.0
 40
0.1800000000000001
100
AcDbArc
 50
306.6410035979
 51
314.529809536
  0
ARC
  5
79
330
1F
100
AcDbEntity
  8
0
  6
Continuous
 62
     7
370
    25
100
AcDbCircle
 10
0.9772880153
 20
1.3440400491
 30
0.0
 40
0.0299999999999999
100
AcDbArc
 50
52.7430202377
 51
134.529809536
  0
LINE
  5
7A
330
1F
100
AcDbEntity
  8
0
  6
Continuous
 62
     7
370
    25
100
AcDbLine
 10
1.8445522246
 20
1.3679178969
 30
0.0
 11
1.8305009843
 21
1.3572303837
 31
0.0
  0
ARC
  5
7B
330
1F
100
AcDbEntity
  8
0
  6
Continuous
 62
     7
370
    25
100
AcDbCircle
 10
1.8627139532
 20
1.3440400491
 30
0.0
 40
0.0299999999999999
100
AcDbArc
 50
45.470190464
 51
127.2569797623
  0
ARC
  5
7C
330
1F
100
AcDbEntity
  8
0
  6
Continuous
 62
     7
370
    25
100
AcDbCircle
 10
1.4200009843
 20
1.045
 30
0.0
 40
0.51575
100
AcDbArc
 50
142.7430202377
 51
37.2569797623
  0
LINE
  5
7D
330
1F
100
AcDbEntity
  8
0
  6
Continuous
 62
     7
370
    25
100
AcDbLine
 10
1.0095009843
 20
1.3572303837
 30
0.0
 11
0.9954497439
 21
1.3679178969
 31
0.0
  0
ARC
  5
7E
330
1F
100
AcDbEntity
  8
0
  6
Continuous
 62
     7
370
    25
100
AcDbCircle
 10
2.0099828068
 20
1.4937460435
 30
0.0
 40
0.1799999999999999
100
AcDbArc
 50
225.470190464
 51
233.3589964021
  0
LINE
  5
7F
330
1F
100
AcDbEntity
  8
0
  6
Continuous
 62
     7
370
    25
100
AcDbLine
 10
2.0499222441
 20
1.607
 30
0.0
 11
2.0499222441
 21
1.2132992126
 31
0.0
  0
LINE
  5
80
330
1F
100
AcDbEntity
  8
0
  6
Continuous
 62
     7
370
    25
100
AcDbLine
 10
2.0499222441
 20
1.2132992126
 30
0.0
 11
2.1286624016
 21
1.2132992126
 31
0.0
  0
LINE
  5
81
330
1F
100
AcDbEntity
  8
0
  6
Continuous
 62
     7
370
    25
100
AcDbLine
 10
2.1286624016
 20
1.2132992126
 30
0.0
 11
2.1286624016
 21
1.607
 31
0.0
  0
LINE
  5
82
330
1F
100
AcDbEntity
  8
0
  6
Continuous
 62
     7
370
    25
100
AcDbLine
 10
2.1286624016
 20
1.607
 30
0.0
 11
2.2350009843
 21
1.607
 31
0.0
  0
ARC
  5
83
330
1F
100
AcDbEntity
  8
0
  6
Continuous
 62
     7
370
    25
100
AcDbCircle
 10
2.2350009843
 20
1.547
 30
0.0
 40
0.0600000000000001
100
AcDbArc
 50
0.0
 51
90.0
  0
LINE
  5
84
330
1F
100
AcDbEntity
  8
0
  6
Continuous
 62
     7
370
    25
100
AcDbLine
 10
2.2950009843
 20
1.607
 30
0.0
 11
2.2950009843
 21
1.547
 31
0.0
  0
LINE
  5
85
330
1F
100
AcDbEntity
  8
0
  6
Continuous
 62
     7
370
    25
100
AcDbLine
 10
2.2975009843
 20
1.607
 30
0.0
 11
2.2950009843
 21
1.607
 31
0.0
  0
ARC
  5
86
330
1F
100
AcDbEntity
  8
0
  6
Continuous
 62
     7
370
    25
100
AcDbCircle
 10
2.2975009843
 20
1.547
 30
0.0
 40
0.0600000000000001
100
AcDbArc
 50
0.0
 51
90.0
  0
LINE
  5
87
330
1F
100
AcDbEntity
  8
0
  6
Continuous
 62
     7
370
    25
100
AcDbLine
 10
2.3575009843
 20
1.138
 30
0.0
 11
2.3575009843
 21
1.547
 31
0.0
  0
LINE
  5
88
330
1F
100
AcDbEntity
  8
0
  6
Continuous
 62
     7
370
    25
100
AcDbLine
 10
2.2950009843
 20
1.0755
 30
0.0
 11
2.3575009843
 21
1.138
 31
0.0
  0
LINE
  5
89
330
1F
100
AcDbEntity
  8
0
  6
Continuous
 62
     7
370
    25
100
AcDbLine
 10
2.2950009843
 20
1.0755
 30
0.0
 11
2.2950009843
 21
0.451
 31
0.0
  0
LINE
  5
8A
330
1F
100
AcDbEntity
  8
0
  6
Continuous
 62
     7
370
    25
100
AcDbLine
 10
2.6700009843
 20
0.451
 30
0.0
 11
2.2950009843
 21
0.451
 31
0.0
  0
LINE
  5
8B
330
1F
100
AcDbEntity
  8
0
  6
Continuous
 62
     7
370
    25
100
AcDbLine
 10
2.6700009843
 20
0.17
 30
0.0
 11
2.6700009843
 21
0.451
 31
0.0
  0
LINE
  5
8C
330
1F
100
AcDbEntity
  8
0
  6
Continuous
 62
     7
370
    25
100
AcDbLine
 10
2.6700009843
 20
0.17
 30
0.0
 11
1.9709539789
 21
0.17
 31
0.0
  0
LINE
  5
8D
330
1F
100
AcDbEntity
  8
0
  6
Continuous
 62
     7
370
    25
100
AcDbLine
 10
1.9709539789
 20
0.17
 30
0.0
 11
1.9247659573
 21
0.25
 31
0.0
  0
LINE
  5
8E
330
1F
100
AcDbEntity
  8
0
  6
Continuous
 62
     7
370
    25
100
AcDbLine
 10
1.9247659573
 20
0.25
 30
0.0
 11
0.9152360112
 21
0.25
 31
0.0
  0
LINE
  5
8F
330
1F
100
AcDbEntity
  8
0
  6
Continuous
 62
     7
370
    25
100
AcDbLine
 10
0.9152360112
 20
0.25
 30
0.0
 11
0.8690479896
 21
0.17
 31
0.0
  0
LINE
  5
90
330
1F
100
AcDbEntity
  8
0
  6
Continuous
 62
     7
370
    25
100
AcDbLine
 10
0.8690479896
 20
0.17
 30
0.0
 11
0.1700009843
 21
0.17
 31
0.0
  0
LINE
  5
91
330
1F
100
AcDbEntity
  8
0
  6
Continuous
 62
     7
370
    25
100
AcDbLine
 10
0.1700009843
 20
0.451
 30
0.0
 11
0.1700009843
 21
0.17
 31
0.0
  0
LINE
  5
92
330
1F
100
AcDbEntity
  8
0
  6
Continuous
 62
     7
370
    25
100
AcDbLine
 10
0.5450009843
 20
0.451
 30
0.0
 11
0.1700009843
 21
0.451
 31
0.0
  0
ARC
  5
93
330
1F
100
AcDbEntity
  8
0
  6
Continuous
 62
     7
370
    25
100
AcDbCircle
 10
0.6050009843
 20
1.547
 30
0.0
 40
0.0600000000000001
100
AcDbArc
 50
90.0
 51
180.0
  0
LINE
  5
94
330
1F
100
AcDbEntity
  8
0
  6
Continuous
 62
     7
370
    25
100
AcDbLine
 10
0.6050009843
 20
1.607
 30
0.0
 11
1.0212645764
 21
1.607
 31
0.0
  0
LINE
  5
95
330
1F
100
AcDbEntity
  8
0
  6
Continuous
 62
     7
370
    25
100
AcDbLine
 10
1.0212645764
 20
1.607
 30
0.0
 11
1.0708083244
 21
1.5211877112
 31
0.0
  0
ARC
  5
96
330
1F
100
AcDbEntity
  8
0
  6
Continuous
 62
     7
370
    25
100
AcDbCircle
 10
1.4200009843
 20
1.045
 30
0.0
 40
0.5905000000000032
100
AcDbArc
 50
126.2529252701
 51
53.7470747299
  0
LINE
  5
97
330
1F
100
AcDbEntity
  8
0
  6
Continuous
 62
     7
370
    25
100
AcDbLine
 10
1.7691936441
 20
1.5211877112
 30
0.0
 11
1.8187373921
 21
1.607
 31
0.0
  0
LINE
  5
98
330
1F
100
AcDbEntity
  8
0
  6
Continuous
 62
     7
370
    25
100
AcDbLine
 10
1.8187373921
 20
1.607
 30
0.0
 11
2.0499222441
 21
1.607
 31
0.0
  0
LINE
  5
99
330
1F
100
AcDbEntity
  8
0
  6
Continuous
 62
     7
370
    25
100
AcDbLine
 10
0.5450009843
 20
0.451
 30
0.0
 11
0.5450009843
 21
1.547
 31
0.0
  0
ARC
  5
9A
330
1F
100
AcDbEntity
  8
0
  6
Continuous
 62
     7
370
    25
100
AcDbCircle
 10
1.4200009843
 20
1.045
 30
0.0
 40
0.5705
100
AcDbArc
 50
126.4730551867
 51
53.5269448133
  0
LINE
  5
9B
330
1F
100
AcDbEntity
  8
0
  6
Continuous
 62
     7
370
    25
100
AcDbLine
 10
1.0708083244
 20
1.5211877112
 30
0.0
 11
1.0808702905
 21
1.5037598746
 31
0.0
  0
LINE
  5
9C
330
1F
100
AcDbEntity
  8
0
  6
Continuous
 62
     7
370
    25
100
AcDbLine
 10
1.759131678
 20
1.5037598746
 30
0.0
 11
1.7691936441
 21
1.5211877112
 31
0.0
  0
LINE
  5
9D
330
1F
100
AcDbEntity
  8
0
  6
Continuous
 62
     7
370
    25
100
AcDbLine
 10
1.0808702905
 20
1.5037598746
 30
0.0
 11
1.0808702905
 21
1.5037598746
 31
0.0
  0
LINE
  5
9E
330
1F
100
AcDbEntity
  8
0
  6
Continuous
 62
     7
370
    25
100
AcDbLine
 10
1.759131678
 20
1.5037598746
 30
0.0
 11
1.759131678
 21
1.5037598746
 31
0.0
  0
ARC
  5
9F
330
1F
100
AcDbEntity
  8
0
  6
Continuous
 62
     7
370
    25
100
AcDbCircle
 10
1.4200009843
 20
1.045
 30
0.0
 40
0.3139749999999999
100
AcDbArc
 50
126.668289044
 51
53.331710956
  0
LINE
  5
A0
330
1F
100
AcDbEntity
  8
0
  6
Continuous
 62
     7
370
    25
100
AcDbLine
 10
1.2325009843
 20
1.2968413203
 30
0.0
 11
1.2201610715
 21
1.3182146762
 31
0.0
  0
LINE
  5
A1
330
1F
100
AcDbEntity
  8
0
  6
Continuous
 62
     7
370
    25
100
AcDbLine
 10
1.619840897
 20
1.3182146762
 30
0.0
 11
1.6075009843
 21
1.2968413203
 31
0.0
  0
LINE
  5
A2
330
1F
100
AcDbEntity
  8
0
  6
Continuous
 62
     7
370
    25
100
AcDbLine
 10
1.7320461915
 20
1.5125599472
 30
0.0
 11
1.7181403894
 21
1.4884743913
 31
0.0
  0
ARC
  5
A3
330
1F
100
AcDbEntity
  8
0
  6
Continuous
 62
     7
370
    25
100
AcDbCircle
 10
1.4235216744
 20
1.0426693877
 30
0.0
 40
0.562125
100
AcDbArc
 50
35.0417666126
 51
56.7115765248
  0
ARC
  5
A4
330
1F
100
AcDbEntity
  8
0
  6
Continuous
 62
     7
370
    25
100
AcDbCircle
 10
1.4164802942
 20
1.0426693877
 30
0.0
 40
0.562125
100
AcDbArc
 50
123.2884234752
 51
144.9582333874
  0
LINE
  5
A5
330
1F
100
AcDbEntity
  8
0
  6
Continuous
 62
     7
370
    25
100
AcDbLine
 10
1.1218615791
 20
1.4884743913
 30
0.0
 11
1.107955777
 21
1.5125599472
 31
0.0
  0
ARC
  5
A6
330
1F
100
AcDbEntity
  8
0
  6
Continuous
 62
     7
370
    25
100
AcDbCircle
 10
1.4200009843
 20
1.045
 30
0.0
 40
0.3385000000000003
100
AcDbArc
 50
126.1831992434
 51
53.8168007566
  0
LINE
  5
A7
330
1F
100
AcDbEntity
  8
0
  6
Continuous
 62
     7
370
    25
100
AcDbLine
 10
1.7181403894
 20
1.4884743913
 30
0.0
 11
1.619840897
 21
1.3182146762
 31
0.0
  0
LINE
  5
A8
330
1F
100
AcDbEntity
  8
0
  6
Continuous
 62
     7
370
    25
100
AcDbLine
 10
1.2201610715
 20
1.3182146762
 30
0.0
 11
1.1218615791
 21
1.4884743913
 31
0.0
  0
ARC
  5
A9
330
1F
100
AcDbEntity
  8
0
  6
Continuous
 62
     8
370
    25
100
AcDbCircle
 10
1.4200009843
 20
1.045
 30
0.0
 40
0.5343750000000004
100
AcDbArc
 50
123.912190527
 51
142.7447058745
  0
ARC
  5
AA
330
1F
100
AcDbEntity
  8
0
  6
Continuous
 62
     8
370
    25
100
AcDbCircle
 10
1.4175078394
 20
1.046686308
 30
0.0
 40
0.5343750000000002
100
AcDbArc
 50
36.9512391836
 51
55.7650886916
  0
LWPOLYLINE
  5
AB
330
1B
100
AcDbEntity
 67
     1
  8
0
  6
Continuous
 62
     7
370
    25
100
AcDbPolyline
 90
        3
 70
   128
 43
0.0
 10
1.7021991872
 20
0.8515982
 10
1.7019241135
 20
0.853926543
 10
1.7018263404
 20
0.8545270425
  0
ARC
  5
AC
330
1B
100
AcDbEntity
 67
     1
  8
0
  6
Continuous
 62
     7
370
    25
100
AcDbCircle
 10
1.6663706007
 20
0.8497088279
 30
0.0
 40
0.0360167424130901
100
AcDbArc
 50
172.3120898133
 51
354.1408633636
  0
LINE
  5
AD
330
1B
100
AcDbEntity
 67
     1
  8
0
  6
Continuous
 62
     7
370
    25
100
AcDbLine
 10
1.7021991872
 20
0.8460321276
 30
0.0
 11
1.7046527456
 21
0.8466652814
 31
0.0
  0
ARC
  5
AE
330
1B
100
AcDbEntity
 67
     1
  8
0
  6
Continuous
 62
     7
370
    25
100
AcDbCircle
 10
1.6662519685
 20
0.8508477903
 30
0.0
 40
0.0392072553660441
100
AcDbArc
 50
188.3636244326
 51
351.6363755684
  0
LINE
  5
AF
330
1B
100
AcDbEntity
 67
     1
  8
0
  6
Continuous
 62
     7
370
    25
100
AcDbLine
 10
1.7030214453
 20
0.8518103881
 30
0.0
 11
1.7021991872
 21
0.8515982
 31
0.0
  0
LWPOLYLINE
  5
B0
330
1B
100
AcDbEntity
 67
     1
  8
0
  6
Continuous
 62
     7
370
    25
100
AcDbPolyline
 90
       79
 70
   128
 43
0.0
 10
1.6931606572
 20
0.8460321276
 10
1.6928552368
 20
0.8440199456
 10
1.6923887953
 20
0.8420367874
 10
1.6917641561
 20
0.8400946566
 10
1.6909850997
 20
0.8382053082
 10
1.6900563416
 20
0.8363801779
 10
1.6889835033
 20
0.8346303125
 10
1.6877730782
 20
0.8329663036
 10
1.6864323929
 20
0.8313982226
 10
1.6849695618
 20
0.8299355609
 10
1.6833934392
 20
0.8285871713
 10
1.6817135648
 20
0.8273612152
 10
1.6799401063
 20
0.8262651131
 10
1.6780837979
 20
0.8253054991
 10
1.6761558752
 20
0.8244881816
 10
1.6741680073
 20
0.8238181076
 10
1.6721322262
 20
0.8232993326
 10
1.6700608538
 20
0.8229349969
 10
1.6679664274
 20
0.8227273055
 10
1.665861624
 20
0.8226775155
 10
1.6637591832
 20
0.8227859283
 10
1.6616718304
 20
0.8230518877
 10
1.6596121997
 20
0.823473784
 10
1.6575927574
 20
0.8240490635
 10
1.6556257265
 20
0.8247742443
 10
1.6537230129
 20
0.8256449371
 10
1.651896133
 20
0.8266558718
 10
1.6501561444
 20
0.8278009296
 10
1.6485135787
 20
0.8290731798
 10
1.6469783777
 20
0.8304649219
 10
1.6455598336
 20
0.8319677321
 10
1.6442665323
 20
0.8335725145
 10
1.6431063019
 20
0.8352695557
 10
1.6420861647
 20
0.8370485841
 10
1.6412122954
 20
0.8388988318
 10
1.6404899832
 20
0.8408091
 10
1.6399236
 20
0.8427678262
 10
1.639516574
 20
0.8447631551
 10
1.6392713688
 20
0.8467830095
 10
1.6391894685
 20
0.8488151638
 10
1.6392713688
 20
0.8508473182
 10
1.639516574
 20
0.8528671725
 10
1.6399236
 20
0.8548625014
 10
1.6404899832
 20
0.8568212277
 10
1.6412122954
 20
0.8587314958
 10
1.6420861647
 20
0.8605817435
 10
1.6431063019
 20
0.862360772
 10
1.6442665323
 20
0.8640578132
 10
1.6455598336
 20
0.8656625955
 10
1.6469783777
 20
0.8671654057
 10
1.6485135787
 20
0.8685571478
 10
1.6501561444
 20
0.869829398
 10
1.651896133
 20
0.8709744558
 10
1.6537230129
 20
0.8719853905
 10
1.6556257265
 20
0.8728560833
 10
1.6575927574
 20
0.8735812641
 10
1.6596121997
 20
0.8741565436
 10
1.6616718304
 20
0.8745784399
 10
1.6637591832
 20
0.8748443993
 10
1.665861624
 20
0.8749528121
 10
1.6679664274
 20
0.8749030222
 10
1.6700608538
 20
0.8746953307
 10
1.6721322262
 20
0.874330995
 10
1.6741680073
 20
0.8738122201
 10
1.6761558752
 20
0.873142146
 10
1.6780837979
 20
0.8723248285
 10
1.6799401063
 20
0.8713652146
 10
1.6817135648
 20
0.8702691124
 10
1.6833934392
 20
0.8690431564
 10
1.6849695618
 20
0.8676947668
 10
1.6864323929
 20
0.866232105
 10
1.6877730782
 20
0.8646640241
 10
1.6889835033
 20
0.8630000151
 10
1.6900563416
 20
0.8612501497
 10
1.6909850997
 20
0.8594250194
 10
1.6917641561
 20
0.857535671
 10
1.6923887953
 20
0.8555935402
 10
1.6928552368
 20
0.8536103821
 10
1.6931606572
 20
0.8515982
  0
LINE
  5
B1
330
1B
100
AcDbEntity
 67
     1
  8
0
  6
Continuous
 62
     7
370
    25
100
AcDbLine
 10
1.7021991872
 20
0.8460321276
 30
0.0
 11
1.6931606572
 21
0.8460321276
 31
0.0
  0
LINE
  5
B2
330
1B
100
AcDbEntity
 67
     1
  8
0
  6
Continuous
 62
     7
370
    25
100
AcDbLine
 10
1.6931606572
 20
0.8515982
 30
0.0
 11
1.7021991872
 21
0.8515982
 31
0.0
  0
LINE
  5
B3
330
1B
100
AcDbEntity
 67
     1
  8
0
  6
Continuous
 62
     7
370
    25
100
AcDbLine
 10
1.6931606572
 20
0.8460321276
 30
0.0
 11
1.6931606572
 21
0.8515982
 31
0.0
  0
LINE
  5
B4
330
1B
100
AcDbEntity
 67
     1
  8
0
  6
Continuous
 62
     7
370
    25
100
AcDbLine
 10
1.9200019685
 20
0.17
 30
0.0
 11
0.1700019685
 21
0.17
 31
0.0
  0
LINE
  5
B5
330
1B
100
AcDbEntity
 67
     1
  8
0
  6
Continuous
 62
     7
370
    25
100
AcDbLine
 10
1.9200019685
 20
0.451
 30
0.0
 11
1.9200019685
 21
0.17
 31
0.0
  0
LINE
  5
B6
330
1B
100
AcDbEntity
 67
     1
  8
0
  6
Continuous
 62
     7
370
    25
100
AcDbLine
 10
0.1700019685
 20
0.17
 30
0.0
 11
0.1700019685
 21
0.451
 31
0.0
  0
LINE
  5
B7
330
1B
100
AcDbEntity
 67
     1
  8
0
  6
Continuous
 62
     7
370
    25
100
AcDbLine
 10
1.9200019685
 20
0.451
 30
0.0
 11
0.1700019685
 21
0.451
 31
0.0
  0
LINE
  5
B8
330
1B
100
AcDbEntity
 67
     1
  8
0
  6
Continuous
 62
     7
370
    25
100
AcDbLine
 10
0.9429627604
 20
1.0755
 30
0.0
 11
0.1700019685
 21
1.0755
 31
0.0
  0
LINE
  5
B9
330
1B
100
AcDbEntity
 67
     1
  8
0
  6
Continuous
 62
     7
370
    25
100
AcDbLine
 10
0.9931054368
 20
1.138
 30
0.0
 11
0.1700019685
 21
1.138
 31
0.0
  0
ARC
  5
BA
330
1B
100
AcDbEntity
 67
     1
  8
0
  6
Continuous
 62
     7
370
    25
100
AcDbCircle
 10
1.0450019685
 20
1.045
 30
0.0
 40
0.1065000000000005
100
AcDbArc
 50
119.1627065962
 51
163.3583469151
  0
LINE
  5
BB
330
1B
100
AcDbEntity
 67
     1
  8
0
  6
Continuous
 62
     7
370
    25
100
AcDbLine
 10
0.1700019685
 20
1.0755
 30
0.0
 11
0.1700019685
 21
1.138
 31
0.0
  0
LINE
  5
BC
330
1B
100
AcDbEntity
 67
     1
  8
0
  6
Continuous
 62
     7
370
    25
100
AcDbLine
 10
1.9200019685
 20
1.138
 30
0.0
 11
1.0968985002
 21
1.138
 31
0.0
  0
LINE
  5
BD
330
1B
100
AcDbEntity
 67
     1
  8
0
  6
Continuous
 62
     7
370
    25
100
AcDbLine
 10
1.9200019685
 20
1.0755
 30
0.0
 11
1.1470411767
 21
1.0755
 31
0.0
  0
ARC
  5
BE
330
1B
100
AcDbEntity
 67
     1
  8
0
  6
Continuous
 62
     7
370
    25
100
AcDbCircle
 10
1.0450019685
 20
1.045
 30
0.0
 40
0.1064999999999994
100
AcDbArc
 50
16.6416530849
 51
60.8372934038
  0
LINE
  5
BF
330
1B
100
AcDbEntity
 67
     1
  8
0
  6
Continuous
 62
     7
370
    25
100
AcDbLine
 10
1.9200019685
 20
1.138
 30
0.0
 11
1.9200019685
 21
1.0755
 31
0.0
  0
LINE
  5
C0
330
1B
100
AcDbEntity
 67
     1
  8
0
  6
Continuous
 62
     7
370
    25
100
AcDbLine
 10
1.9200019685
 20
1.547
 30
0.0
 11
0.1700019685
 21
1.547
 31
0.0
  0
ARC
  5
C1
330
1B
100
AcDbEntity
 67
     1
  8
0
  6
Continuous
 62
     7
370
    25
100
AcDbCircle
 10
1.0450019685
 20
1.045
 30
0.0
 40
0.1064999999999997
100
AcDbArc
 50
60.8372934038
 51
119.1627065962
  0
CIRCLE
  5
C2
330
1B
100
AcDbEntity
 67
     1
  8
0
  6
Continuous
 62
     7
370
    25
100
AcDbCircle
 10
1.0450019685
 20
1.445
 30
0.0
 40
0.0499999999999996
  0
LINE
  5
C3
330
1B
100
AcDbEntity
 67
     1
  8
0
  6
Continuous
 62
     7
370
    25
100
AcDbLine
 10
1.9200019685
 20
1.547
 30
0.0
 11
1.9200019685
 21
1.138
 31
0.0
  0
LINE
  5
C4
330
1B
100
AcDbEntity
 67
     1
  8
0
  6
Continuous
 62
     7
370
    25
100
AcDbLine
 10
0.1700019685
 20
1.138
 30
0.0
 11
0.1700019685
 21
1.547
 31
0.0
  0
LINE
  5
C5
330
1B
100
AcDbEntity
 67
     1
  8
0
  6
Continuous
 62
     7
370
    25
100
AcDbLine
 10
0.1700019685
 20
1.607
 30
0.0
 11
1.9200019685
 21
1.607
 31
0.0
  0
LINE
  5
C6
330
1B
100
AcDbEntity
 67
     1
  8
0
  6
Continuous
 62
     7
370
    25
100
AcDbLine
 10
1.9200019685
 20
1.607
 30
0.0
 11
1.9200019685
 21
1.547
 31
0.0
  0
LINE
  5
C7
330
1B
100
AcDbEntity
 67
     1
  8
0
  6
Continuous
 62
     7
370
    25
100
AcDbLine
 10
0.1700019685
 20
1.547
 30
0.0
 11
0.1700019685
 21
1.607
 31
0.0
  0
ELLIPSE
  5
C8
330
1B
100
AcDbEntity
 67
     1
  8
0
  6
Continuous
 62
     7
370
    25
100
AcDbEllipse
 10
1.6662519685
 20
0.8105444566
 30
0.0
 11
0.0
 21
0.1552914270615132
 31
0.0
210
0.0
220
0.0
230
1.0
 40
0.9659258263
 41
0.0
 42
6.283185307179586
  0
ARC
  5
C9
330
1B
100
AcDbEntity
 67
     1
  8
0
  6
Continuous
 62
     7
370
    25
100
AcDbCircle
 10
1.0450019685
 20
1.045
 30
0.0
 40
0.1065000000000005
100
AcDbArc
 50
163.3583469151
 51
16.6416530849
  0
LINE
  5
CA
330
1B
100
AcDbEntity
 67
     1
  8
0
  6
Continuous
 62
     7
370
    25
100
AcDbLine
 10
1.9200019685
 20
1.0755
 30
0.0
 11
1.9200019685
 21
0.451
 31
0.0
  0
LINE
  5
CB
330
1B
100
AcDbEntity
 67
     1
  8
0
  6
Continuous
 62
     7
370
    25
100
AcDbLine
 10
0.1700019685
 20
1.0755
 30
0.0
 11
0.1700019685
 21
0.451
 31
0.0
  0
ARC
  5
CC
330
1B
100
AcDbEntity
 67
     1
  8
0
  6
Continuous
 62
     7
370
    25
100
AcDbCircle
 10
1.6662519685
 20
0.8426841093
 30
0.0
 40
0.1504502000264103
100
AcDbArc
 50
186.857850216
 51
353.142149784
  0
LWPOLYLINE
  5
CD
330
1B
100
AcDbEntity
 67
     1
  8
0
  6
Continuous
 62
     7
370
    25
100
AcDbPolyline
 90
       99
 70
   128
 43
0.0
 10
1.6662519685
 20
0.8760988341
 10
1.6637211948
 20
0.8760204424
 10
1.6612008206
 20
0.8757855897
 10
1.6587012027
 20
0.8753952408
 10
1.6562326124
 20
0.874851
 10
1.6538051939
 20
0.8741551035
 10
1.6514289218
 20
0.8733104109
 10
1.6491135608
 20
0.8723203933
 10
1.6468686252
 20
0.8711891189
 10
1.6447033399
 20
0.8699212363
 10
1.6426266025
 20
0.8685219555
 10
1.6406469469
 20
0.8669970264
 10
1.6387725078
 20
0.8653527154
 10
1.6370109876
 20
0.8635957792
 10
1.6353696249
 20
0.8617334375
 10
1.6338551644
 20
0.8597733431
 10
1.6324738294
 20
0.8577235503
 10
1.6312312959
 20
0.8555924823
 10
1.6301326699
 20
0.853388896
 10
1.6291824658
 20
0.8511218464
 10
1.6283845883
 20
0.8488006494
 10
1.627742316
 20
0.8464348432
 10
1.6272582881
 20
0.8440341495
 10
1.6269344935
 20
0.8416084332
 10
1.626772263
 20
0.8391676621
 10
1.626772263
 20
0.8367218658
 10
1.6269344935
 20
0.8342810947
 10
1.6272582881
 20
0.8318553783
 10
1.627742316
 20
0.8294546846
 10
1.6283845883
 20
0.8270888784
 10
1.6291824658
 20
0.8247676814
 10
1.6301326699
 20
0.8225006319
 10
1.6312312959
 20
0.8202970456
 10
1.6324738294
 20
0.8181659775
 10
1.6338551644
 20
0.8161161847
 10
1.6353696249
 20
0.8141560903
 10
1.6370109876
 20
0.8122937486
 10
1.6387725078
 20
0.8105368124
 10
1.6406469469
 20
0.8088925014
 10
1.6426266025
 20
0.8073675724
 10
1.6447033399
 20
0.8059682916
 10
1.6468686252
 20
0.804700409
 10
1.6491135608
 20
0.8035691345
 10
1.6514289218
 20
0.8025791169
 10
1.6538051939
 20
0.8017344244
 10
1.6562326124
 20
0.8010385279
 10
1.6587012027
 20
0.800494287
 10
1.6612008206
 20
0.8001039382
 10
1.6637211948
 20
0.7998690854
 10
1.6662519685
 20
0.7997906938
 10
1.6687827422
 20
0.7998690854
 10
1.6713031164
 20
0.8001039382
 10
1.6738027343
 20
0.800494287
 10
1.6762713246
 20
0.8010385279
 10
1.6786987431
 20
0.8017344244
 10
1.6810750152
 20
0.8025791169
 10
1.6833903762
 20
0.8035691345
 10
1.6856353118
 20
0.804700409
 10
1.6878005971
 20
0.8059682916
 10
1.6898773345
 20
0.8073675724
 10
1.6918569901
 20
0.8088925014
 10
1.6937314293
 20
0.8105368124
 10
1.6954929494
 20
0.8122937486
 10
1.6971343121
 20
0.8141560903
 10
1.6986487726
 20
0.8161161847
 10
1.7000301076
 20
0.8181659775
 10
1.7012726411
 20
0.8202970456
 10
1.7023712671
 20
0.8225006319
 10
1.7033214712
 20
0.8247676814
 10
1.7041193487
 20
0.8270888784
 10
1.704761621
 20
0.8294546846
 10
1.7052456489
 20
0.8318553783
 10
1.7055694435
 20
0.8342810947
 10
1.705731674
 20
0.8367218658
 10
1.705731674
 20
0.8391676621
 10
1.7055694435
 20
0.8416084332
 10
1.7052456489
 20
0.8440341495
 10
1.704761621
 20
0.8464348432
 10
1.7041193487
 20
0.8488006494
 10
1.7033214712
 20
0.8511218464
 10
1.7023712671
 20
0.853388896
 10
1.7012726411
 20
0.8555924823
 10
1.7000301076
 20
0.8577235503
 10
1.6986487726
 20
0.8597733431
 10
1.6971343121
 20
0.8617334375
 10
1.6954929494
 20
0.8635957792
 10
1.6937314293
 20
0.8653527154
 10
1.6918569901
 20
0.8669970264
 10
1.6898773345
 20
0.8685219555
 10
1.6878005971
 20
0.8699212363
 10
1.6856353118
 20
0.8711891189
 10
1.6833903762
 20
0.8723203933
 10
1.6810750152
 20
0.8733104109
 10
1.6786987431
 20
0.8741551035
 10
1.6762713246
 20
0.874851
 10
1.6738027343
 20
0.8753952408
 10
1.6713031164
 20
0.8757855897
 10
1.6687827422
 20
0.8760204424
 10
1.6662519685
 20
0.8760988341
  0
ENDSEC
  0
SECTION
  2
OBJECTS
  0
DICTIONARY
  5
C
330
0
100
AcDbDictionary
281
     1
  3
ACAD_DETAILVIEWSTYLE
350
1FA
  3
ACAD_GROUP
350
D
  3
ACAD_LAYOUT
350
1A
  3
ACAD_MATERIAL
350
43
  3
ACAD_MLEADERSTYLE
350
6B
  3
ACAD_MLINESTYLE
350
17
  3
ACAD_PLOTSETTINGS
350
19
  3
ACAD_PLOTSTYLENAME
350
E
  3
ACAD_SCALELIST
350
47
  3
ACAD_SECTIONVIEWSTYLE
350
1FB
  3
ACAD_TABLESTYLE
350
69
  3
ACAD_VISUALSTYLE
350
2A
  3
ACDB_RECOMPOSE_DATA
350
1F7
  3
AcDbVariableDictionary
350
1F3
  0
SUN
  5
6D
330
29
100
AcDbSun
 90
        1
290
     0
 63
     7
421
 16777215
 40
1.0
291
     1
 91
  2455826
 92
 54000000
292
     0
 70
     2
 71
   256
280
     1
  0
DICTIONARY
  5
1FA
102
{ACAD_REACTORS
330
C
102
}
330
C
100
AcDbDictionary
281
     1
  0
DICTIONARY
  5
D
102
{ACAD_REACTORS
330
C
102
}
330
C
100
AcDbDictionary
281
     1
  0
DICTIONARY
  5
1A
102
{ACAD_REACTORS
330
C
102
}
330
C
100
AcDbDictionary
281
     1
  3
Back
350
1B9
  3
Left
350
26
  3
Model
350
22
  3
Right
350
1E
  3
Top
350
DD
  0
DICTIONARY
  5
43
102
{ACAD_REACTORS
330
C
102
}
330
C
100
AcDbDictionary
281
     1
  3
ByBlock
350
45
  3
ByLayer
350
44
  3
Global
350
46
  0
DICTIONARY
  5
6B
102
{ACAD_REACTORS
330
C
102
}
330
C
100
AcDbDictionary
281
     1
  3
Standard
350
6C
  0
DICTIONARY
  5
17
102
{ACAD_REACTORS
330
C
102
}
330
C
100
AcDbDictionary
281
     1
  3
Standard
350
18
  0
DICTIONARY
  5
19
102
{ACAD_REACTORS
330
C
102
}
330
C
100
AcDbDictionary
281
     1
  0
ACDBDICTIONARYWDFLT
  5
E
102
{ACAD_REACTORS
330
C
102
}
330
C
100
AcDbDictionary
281
     1
  3
Normal
350
F
100
AcDbDictionaryWithDefault
340
F
  0
DICTIONARY
  5
47
102
{ACAD_REACTORS
330
C
102
}
330
C
100
AcDbDictionary
281
     1
  3
A0
350
48
  3
A1
350
49
  3
A2
350
4A
  3
A3
350
4B
  3
A4
350
4C
  3
A5
350
4D
  3
A6
350
4E
  3
A7
350
4F
  3
A8
350
50
  3
A9
350
51
  3
B0
350
52
  3
B1
350
53
  3
B2
350
54
  3
B3
350
55
  3
B4
350
56
  3
B5
350
57
  3
B6
350
58
  3
B7
350
59
  3
B8
350
5A
  3
B9
350
5B
  3
C0
350
5C
  3
C1
350
5D
  3
C2
350
5E
  3
C3
350
5F
  3
C4
350
60
  3
C5
350
61
  3
C6
350
62
  3
C7
350
63
  3
C8
350
64
  3
C9
350
65
  3
D0
350
66
  3
D1
350
67
  3
D2
350
68
  0
DICTIONARY
  5
1FB
102
{ACAD_REACTORS
330
C
102
}
330
C
100
AcDbDictionary
281
     1
  0
DICTIONARY
  5
69
102
{ACAD_REACTORS
330
C
102
}
330
C
100
AcDbDictionary
281
     1
  3
Standard
350
6A
  0
DICTIONARY
  5
2A
102
{ACAD_REACTORS
330
C
102
}
330
C
100
AcDbDictionary
281
     1
  3
2dWireframe
350
2F
  3
Basic
350
32
  3
Brighten
350
36
  3
ColorChange
350
3A
  3
Conceptual
350
34
  3
Dim
350
35
  3
EdgeColorOff
350
3D
  3
Facepattern
350
39
  3
Flat
350
2B
  3
FlatWithEdges
350
2C
  3
Gouraud
350
2D
  3
GouraudWithEdges
350
2E
  3
Hidden
350
31
  3
JitterOff
350
3B
  3
Linepattern
350
38
  3
OverhangOff
350
3C
  3
Realistic
350
33
  3
Shaded
350
42
  3
Shaded with edges
350
41
  3
Shades of Gray
350
3E
  3
Sketchy
350
3F
  3
Thicken
350
37
  3
Wireframe
350
30
  3
X-Ray
350
40
  0
XRECORD
  5
1F7
102
{ACAD_REACTORS
330
C
102
}
330
C
100
AcDbXrecord
280
     1
 90
        1
330
6A
  0
DICTIONARY
  5
1F3
102
{ACAD_REACTORS
330
C
102
}
330
C
100
AcDbDictionary
281
     1
  3
CANNOSCALE
350
1F4
  3
CMLEADERSTYLE
350
1F9
  3
CTABLESTYLE
350
1F8
  0
LAYOUT
  5
1B9
102
{ACAD_REACTORS
330
1A
102
}
330
1A
100
AcDbPlotSettings
  1

  2
none_device
  4
ANSI_A_(11.00_x_8.50_Inches)
  6

 40
6.35
 41
19.05
 42
6.35000508
 43
19.05000254
 44
279.4
 45
215.9
 46
0.0
 47
0.0
 48
0.0
 49
0.0
140
0.0
141
0.0
142
1.0
143
1.0
 70
  4832
 72
     0
 73
     0
 74
     1
  7

 75
    16
 76
     0
 77
     2
 78
   300
147
1.0
148
0.0
149
0.0
100
AcDbLayout
  1
Back
 70
     1
 71
     4
 10
0.0
 20
0.0
 11
11.0
 21
8.5
 12
0.0
 22
0.0
 32
0.0
 14
0.0
 24
0.0
 34
0.0
 15
11.0
 25
8.5
 35
0.0
146
0.0
 13
0.0
 23
0.0
 33
0.0
 16
1.0
 26
0.0
 36
0.0
 17
0.0
 27
1.0
 37
0.0
 76
     0
330
1B8
  0
LAYOUT
  5
26
102
{ACAD_REACTORS
330
1A
102
}
330
1A
100
AcDbPlotSettings
  1

  2
none_device
  4
ANSI_A_(11.00_x_8.50_Inches)
  6

 40
6.35
 41
19.05
 42
6.35000508
 43
19.05000254
 44
279.4
 45
215.9
 46
0.0
 47
0.0
 48
0.0
 49
0.0
140
0.0
141
0.0
142
1.0
143
1.0
 70
  4832
 72
     0
 73
     0
 74
     1
  7

 75
    16
 76
     0
 77
     2
 78
   300
147
1.0
148
0.0
149
0.0
100
AcDbLayout
  1
Left
 70
     1
 71
     2
 10
0.0
 20
0.0
 11
11.0
 21
8.5
 12
0.0
 22
0.0
 32
0.0
 14
0.0
 24
0.0
 34
0.0
 15
11.0
 25
8.5
 35
0.0
146
0.0
 13
0.0
 23
0.0
 33
0.0
 16
1.0
 26
0.0
 36
0.0
 17
0.0
 27
1.0
 37
0.0
 76
     0
330
23
  0
LAYOUT
  5
22
102
{ACAD_REACTORS
330
1A
102
}
330
1A
100
AcDbPlotSettings
  1

  2
none_device
  4
Letter_(8.50_x_11.00_Inches)
  6

 40
6.35
 41
6.35
 42
6.35000508
 43
6.35000508
 44
215.9
 45
279.4
 46
0.0
 47
0.0
 48
0.0
 49
0.0
140
0.0
141
0.0
142
1.0
143
1.0
 70
  1712
 72
     0
 73
     0
 74
     0
  7

 75
     0
 76
     0
 77
     2
 78
   300
147
1.0
148
0.0
149
0.0
100
AcDbLayout
  1
Model
 70
     1
 71
     0
 10
0.0
 20
0.0
 11
11.0
 21
8.5
 12
0.0
 22
0.0
 32
0.0
 14
0.0
 24
0.0
 34
0.0
 15
11.0
 25
8.5
 35
0.0
146
0.0
 13
0.0
 23
0.0
 33
0.0
 16
1.0
 26
0.0
 36
0.0
 17
0.0
 27
1.0
 37
0.0
 76
     0
330
1F
331
29
  0
LAYOUT
  5
1E
102
{ACAD_REACTORS
330
1A
102
}
330
1A
100
AcDbPlotSettings
  1

  2
none_device
  4
ANSI_A_(11.00_x_8.50_Inches)
  6

 40
6.35
 41
19.05
 42
6.35000508
 43
19.05000254
 44
279.4
 45
215.9
 46
0.0
 47
0.0
 48
0.0
 49
0.0
140
0.0
141
0.0
142
1.0
143
1.0
 70
  4832
 72
     0
 73
     0
 74
     1
  7

 75
     0
 76
     0
 77
     2
 78
   300
147
1.0
148
0.0
149
0.0
100
AcDbLayout
  1
Right
 70
     1
 71
     1
 10
0.0
 20
0.0
 11
11.0
 21
8.5
 12
0.0
 22
0.0
 32
0.0
 14
0.0
 24
0.0
 34
0.0
 15
11.0
 25
8.5
 35
0.0
146
0.0
 13
0.0
 23
0.0
 33
0.0
 16
1.0
 26
0.0
 36
0.0
 17
0.0
 27
1.0
 37
0.0
 76
     0
330
1B
  0
LAYOUT
  5
DD
102
{ACAD_REACTORS
330
1A
102
}
330
1A
100
AcDbPlotSettings
  1

  2
none_device
  4
ANSI_A_(11.00_x_8.50_Inches)
  6

 40
6.35
 41
19.05
 42
6.35000508
 43
19.05000254
 44
279.4
 45
215.9
 46
0.0
 47
0.0
 48
0.0
 49
0.0
140
0.0
141
0.0
142
1.0
143
1.0
 70
  4832
 72
     0
 73
     0
 74
     1
  7

 75
    16
 76
     0
 77
     2
 78
   300
147
1.0
148
0.0
149
0.0
100
AcDbLayout
  1
Top
 70
     1
 71
     3
 10
0.0
 20
0.0
 11
11.0
 21
8.5
 12
0.0
 22
0.0
 32
0.0
 14
0.0
 24
0.0
 34
0.0
 15
11.0
 25
8.5
 35
0.0
146
0.0
 13
0.0
 23
0.0
 33
0.0
 16
1.0
 26
0.0
 36
0.0
 17
0.0
 27
1.0
 37
0.0
 76
     0
330
DC
  0
MATERIAL
  5
45
102
{ACAD_REACTORS
330
43
102
}
330
43
100
AcDbMaterial
  1
ByBlock
 72
     1
 94
      127
  0
MATERIAL
  5
44
102
{ACAD_REACTORS
330
43
102
}
330
43
100
AcDbMaterial
  1
ByLayer
 72
     1
 94
      127
  0
MATERIAL
  5
46
102
{ACAD_REACTORS
330
43
102
}
330
43
100
AcDbMaterial
  1
Global
 72
     1
 94
      127
  0
MLEADERSTYLE
  5
6C
102
{ACAD_REACTORS
330
6B
102
}
330
6B
100
AcDbMLeaderStyle
179
     2
170
     2
171
     1
172
     0
 90
        2
 40
0.0
 41
0.0
173
     1
 91
-1056964608
340
14
 92
       -2
290
     1
 42
0.09
291
     1
 43
0.36
  3
Standard
341
0
 44
0.18
300

342
11
174
     1
178
     6
175
     1
176
     0
 93
-1056964608
 45
0.18
292
     0
297
     0
 46
0.18
343
0
 94
-1056964608
 47
1.0
 49
1.0
140
1.0
293
     1
141
0.0
294
     1
177
     0
142
1.0
295
     0
296
     0
143
0.125
271
     0
272
     9
273
     9
298
     0
  0
MLINESTYLE
  5
18
102
{ACAD_REACTORS
330
17
102
}
330
17
100
AcDbMlineStyle
  2
Standard
 70
     0
  3

 62
   256
 51
90.0
 52
90.0
 71
     2
 49
0.5
 62
   256
  6
BYLAYER
 49
-0.5
 62
   256
  6
BYLAYER
  0
ACDBPLACEHOLDER
  5
F
102
{ACAD_REACTORS
330
E
102
}
330
E
  0
SCALE
  5
48
102
{ACAD_REACTORS
330
47
102
}
330
47
100
AcDbScale
 70
     0
300
1:1
140
1.0
141
1.0
290
     1
  0
SCALE
  5
49
102
{ACAD_REACTORS
330
47
102
}
330
47
100
AcDbScale
 70
     0
300
1:2
140
1.0
141
2.0
290
     0
  0
SCALE
  5
4A
102
{ACAD_REACTORS
330
47
102
}
330
47
100
AcDbScale
 70
     0
300
1:4
140
1.0
141
4.0
290
     0
  0
SCALE
  5
4B
102
{ACAD_REACTORS
330
47
102
}
330
47
100
AcDbScale
 70
     0
300
1:5
140
1.0
141
5.0
290
     0
  0
SCALE
  5
4C
102
{ACAD_REACTORS
330
47
102
}
330
47
100
AcDbScale
 70
     0
300
1:8
140
1.0
141
8.0
290
     0
  0
SCALE
  5
4D
102
{ACAD_REACTORS
330
47
102
}
330
47
100
AcDbScale
 70
     0
300
1:10
140
1.0
141
10.0
290
     0
  0
SCALE
  5
4E
102
{ACAD_REACTORS
330
47
102
}
330
47
100
AcDbScale
 70
     0
300
1:16
140
1.0
141
16.0
290
     0
  0
SCALE
  5
4F
102
{ACAD_REACTORS
330
47
102
}
330
47
100
AcDbScale
 70
     0
300
1:20
140
1.0
141
20.0
290
     0
  0
SCALE
  5
50
102
{ACAD_REACTORS
330
47
102
}
330
47
100
AcDbScale
 70
     0
300
1:30
140
1.0
141
30.0
290
     0
  0
SCALE
  5
51
102
{ACAD_REACTORS
330
47
102
}
330
47
100
AcDbScale
 70
     0
300
1:40
140
1.0
141
40.0
290
     0
  0
SCALE
  5
52
102
{ACAD_REACTORS
330
47
102
}
330
47
100
AcDbScale
 70
     0
300
1:50
140
1.0
141
50.0
290
     0
  0
SCALE
  5
53
102
{ACAD_REACTORS
330
47
102
}
330
47
100
AcDbScale
 70
     0
300
1:100
140
1.0
141
100.0
290
     0
  0
SCALE
  5
54
102
{ACAD_REACTORS
330
47
102
}
330
47
100
AcDbScale
 70
     0
300
2:1
140
2.0
141
1.0
290
     0
  0
SCALE
  5
55
102
{ACAD_REACTORS
330
47
102
}
330
47
100
AcDbScale
 70
     0
300
4:1
140
4.0
141
1.0
290
     0
  0
SCALE
  5
56
102
{ACAD_REACTORS
330
47
102
}
330
47
100
AcDbScale
 70
     0
300
8:1
140
8.0
141
1.0
290
     0
  0
SCALE
  5
57
102
{ACAD_REACTORS
330
47
102
}
330
47
100
AcDbScale
 70
     0
300
10:1
140
10.0
141
1.0
290
     0
  0
SCALE
  5
58
102
{ACAD_REACTORS
330
47
102
}
330
47
100
AcDbScale
 70
     0
300
100:1
140
100.0
141
1.0
290
     0
  0
SCALE
  5
59
102
{ACAD_REACTORS
330
47
102
}
330
47
100
AcDbScale
 70
     0
300
1/128" = 1'-0"
140
0.0078125
141
12.0
290
     0
  0
SCALE
  5
5A
102
{ACAD_REACTORS
330
47
102
}
330
47
100
AcDbScale
 70
     0
300
1/64" = 1'-0"
140
0.015625
141
12.0
290
     0
  0
SCALE
  5
5B
102
{ACAD_REACTORS
330
47
102
}
330
47
100
AcDbScale
 70
     0
300
1/32" = 1'-0"
140
0.03125
141
12.0
290
     0
  0
SCALE
  5
5C
102
{ACAD_REACTORS
330
47
102
}
330
47
100
AcDbScale
 70
     0
300
1/16" = 1'-0"
140
0.0625
141
12.0
290
     0
  0
SCALE
  5
5D
102
{ACAD_REACTORS
330
47
102
}
330
47
100
AcDbScale
 70
     0
300
3/32" = 1'-0"
140
0.09375
141
12.0
290
     0
  0
SCALE
  5
5E
102
{ACAD_REACTORS
330
47
102
}
330
47
100
AcDbScale
 70
     0
300
1/8" = 1'-0"
140
0.125
141
12.0
290
     0
  0
SCALE
  5
5F
102
{ACAD_REACTORS
330
47
102
}
330
47
100
AcDbScale
 70
     0
300
3/16" = 1'-0"
140
0.1875
141
12.0
290
     0
  0
SCALE
  5
60
102
{ACAD_REACTORS
330
47
102
}
330
47
100
AcDbScale
 70
     0
300
1/4" = 1'-0"
140
0.25
141
12.0
290
     0
  0
SCALE
  5
61
102
{ACAD_REACTORS
330
47
102
}
330
47
100
AcDbScale
 70
     0
300
3/8" = 1'-0"
140
0.375
141
12.0
290
     0
  0
SCALE
  5
62
102
{ACAD_REACTORS
330
47
102
}
330
47
100
AcDbScale
 70
     0
300
1/2" = 1'-0"
140
0.5
141
12.0
290
     0
  0
SCALE
  5
63
102
{ACAD_REACTORS
330
47
102
}
330
47
100
AcDbScale
 70
     0
300
3/4" = 1'-0"
140
0.75
141
12.0
290
     0
  0
SCALE
  5
64
102
{ACAD_REACTORS
330
47
102
}
330
47
100
AcDbScale
 70
     0
300
1" = 1'-0"
140
1.0
141
12.0
290
     0
  0
SCALE
  5
65
102
{ACAD_REACTORS
330
47
102
}
330
47
100
AcDbScale
 70
     0
300
1-1/2" = 1'-0"
140
1.5
141
12.0
290
     0
  0
SCALE
  5
66
102
{ACAD_REACTORS
330
47
102
}
330
47
100
AcDbScale
 70
     0
300
3" = 1'-0"
140
3.0
141
12.0
290
     0
  0
SCALE
  5
67
102
{ACAD_REACTORS
330
47
102
}
330
47
100
AcDbScale
 70
     0
300
6" = 1'-0"
140
6.0
141
12.0
290
     0
  0
SCALE
  5
68
102
{ACAD_REACTORS
330
47
102
}
330
47
100
AcDbScale
 70
     0
300
1'-0" = 1'-0"
140
12.0
141
12.0
290
     0
  0
TABLESTYLE
  5
6A
102
{ACAD_REACTORS
330
69
102
}
102
{ACAD_XDICTIONARY
360
1F5
102
}
330
69
100
AcDbTableStyle
  3
Standard
 70
     0
 71
     0
 40
0.06
 41
0.06
280
     0
281
     0
  7
Standard
140
0.18
170
     2
 62
     0
 63
   257
283
     0
 90
        4
 91
        0
  1

274
    -2
284
     1
 64
     0
275
    -2
285
     1
 65
     0
276
    -2
286
     1
 66
     0
277
    -2
287
     1
 67
     0
278
    -2
288
     1
 68
     0
279
    -2
289
     1
 69
     0
  7
Standard
140
0.25
170
     5
 62
     0
 63
   257
283
     0
 90
        4
 91
        0
  1

274
    -2
284
     1
 64
     0
275
    -2
285
     1
 65
     0
276
    -2
286
     1
 66
     0
277
    -2
287
     1
 67
     0
278
    -2
288
     1
 68
     0
279
    -2
289
     1
 69
     0
  7
Standard
140
0.18
170
     5
 62
     0
 63
   257
283
     0
 90
        4
 91
        0
  1

274
    -2
284
     1
 64
     0
275
    -2
285
     1
 65
     0
276
    -2
286
     1
 66
     0
277
    -2
287
     1
 67
     0
278
    -2
288
     1
 68
     0
279
    -2
289
     1
 69
     0
  0
VISUALSTYLE
  5
2F
102
{ACAD_REACTORS
330
2A
102
}
330
2A
100
AcDbVisualStyle
  2
2dWireframe
 70
     4
177
     3
291
     0
 70
    58
 90
        0
176
     1
 90
        2
176
     1
 90
        0
176
     1
 90
        0
176
     1
 40
0.6
176
     1
 40
30.0
176
     1
 62
     7
420
 16777215
176
     1
 90
        1
176
     1
 90
        4
176
     1
 62
     7
176
     1
 62
   257
176
     1
 90
        1
176
     1
 90
        1
176
     1
 40
1.0
176
     1
 90
        0
176
     1
 62
   257
176
     1
 40
1.0
176
     1
 90
        1
176
     1
 90
        6
176
     1
 90
        2
176
     1
 62
     7
176
     1
 90
        5
176
     1
 90
        0
176
     1
 90
        0
176
     1
290
     0
176
     1
 90
        1
176
     1
 40
0.0
176
     1
 90
        0
176
     1
290
     1
176
     1
290
     1
176
     1
290
     0
176
     1
290
     0
176
     1
290
     0
176
     1
290
     0
176
     1
290
     0
176
     1
290
     0
176
     1
290
     0
176
     1
 90
       50
176
     1
 40
0.0
176
     1
 40
1.0
176
     1
 90
        0
176
     1
 62
    18
420
        0
176
     1
 90
       50
176
     1
 90
        3
176
     1
 62
     5
420
      255
176
     1
290
     0
176
     1
 90
       50
176
     1
 90
       50
176
     1
 90
       50
176
     1
290
     0
176
     1
 90
       50
176
     1
 62
   256
176
     0
 40
1.0
176
     0
 90
        2
176
     1
  1
strokes_ogs.tif
176
     1
290
     0
176
     1
 40
1.0
176
     1
 40
1.0
176
     1
  0
VISUALSTYLE
  5
32
102
{ACAD_REACTORS
330
2A
102
}
330
2A
100
AcDbVisualStyle
  2
Basic
 70
     7
177
     3
291
     1
 70
    58
 90
        1
176
     1
 90
        0
176
     1
 90
        1
176
     1
 90
        0
176
     1
 40
0.6
176
     1
 40
30.0
176
     1
 62
     7
420
 16777215
176
     1
 90
        0
176
     1
 90
        4
176
     1
 62
     7
176
     1
 62
   257
176
     1
 90
        1
176
     1
 90
        1
176
     1
 40
1.0
176
     1
 90
        8
176
     1
 62
     7
176
     1
 40
1.0
176
     1
 90
        1
176
     1
 90
        6
176
     1
 90
        2
176
     1
 62
     7
176
     1
 90
        5
176
     1
 90
        0
176
     1
 90
        0
176
     1
290
     0
176
     1
 90
        1
176
     1
 40
0.0
176
     1
 90
        0
176
     1
290
     0
176
     1
290
     1
176
     1
290
     1
176
     1
290
     0
176
     1
290
     0
176
     1
290
     0
176
     1
290
     0
176
     1
290
     0
176
     1
290
     0
176
     1
 90
       50
176
     1
 40
0.0
176
     1
 40
1.0
176
     1
 90
        0
176
     1
 62
    18
420
        0
176
     1
 90
       50
176
     1
 90
        3
176
     1
 62
     5
420
      255
176
     1
290
     0
176
     1
 90
       50
176
     1
 90
       50
176
     1
 90
       50
176
     1
290
     0
176
     1
 90
       50
176
     1
 62
   256
176
     0
 40
1.0
176
     0
 90
        2
176
     1
  1
strokes_ogs.tif
176
     1
290
     0
176
     1
 40
1.0
176
     1
 40
1.0
176
     1
  0
VISUALSTYLE
  5
36
102
{ACAD_REACTORS
330
2A
102
}
330
2A
100
AcDbVisualStyle
  2
Brighten
 70
    12
177
     3
291
     1
 70
    58
 90
        2
176
     1
 90
        2
176
     1
 90
        0
176
     1
 90
        0
176
     1
 40
0.6
176
     1
 40
30.0
176
     1
 62
     7
420
 16777215
176
     1
 90
        1
176
     1
 90
        4
176
     1
 62
     7
176
     1
 62
   257
176
     1
 90
        1
176
     1
 90
        1
176
     1
 40
1.0
176
     1
 90
        8
176
     1
 62
     7
176
     1
 40
1.0
176
     1
 90
        1
176
     1
 90
        6
176
     1
 90
        2
176
     1
 62
     7
176
     1
 90
        5
176
     1
 90
        0
176
     1
 90
        0
176
     1
290
     0
176
     1
 90
        1
176
     1
 40
50.0
176
     1
 90
        0
176
     1
290
     0
176
     1
290
     1
176
     1
290
     1
176
     1
290
     0
176
     1
290
     0
176
     1
290
     0
176
     1
290
     0
176
     1
290
     0
176
     1
290
     0
176
     1
 90
       50
176
     1
 40
0.0
176
     1
 40
1.0
176
     1
 90
        0
176
     1
 62
    18
420
        0
176
     1
 90
       50
176
     1
 90
        3
176
     1
 62
     5
420
      255
176
     1
290
     0
176
     1
 90
       50
176
     1
 90
       50
176
     1
 90
       50
176
     1
290
     0
176
     1
 90
       50
176
     1
 62
   256
176
     0
 40
1.0
176
     0
 90
        2
176
     1
  1
strokes_ogs.tif
176
     1
290
     0
176
     1
 40
1.0
176
     1
 40
1.0
176
     1
  0
VISUALSTYLE
  5
3A
102
{ACAD_REACTORS
330
2A
102
}
330
2A
100
AcDbVisualStyle
  2
ColorChange
 70
    16
177
     3
291
     1
 70
    58
 90
        2
176
     1
 90
        2
176
     1
 90
        3
176
     1
 90
        0
176
     1
 40
0.6
176
     1
 40
30.0
176
     1
 62
     8
420
  8421504
176
     1
 90
        1
176
     1
 90
        4
176
     1
 62
     7
176
     1
 62
   257
176
     1
 90
        1
176
     1
 90
        1
176
     1
 40
1.0
176
     1
 90
        8
176
     1
 62
     8
420
  8421504
176
     1
 40
1.0
176
     1
 90
        1
176
     1
 90
        6
176
     1
 90
        2
176
     1
 62
     7
176
     1
 90
        5
176
     1
 90
        0
176
     1
 90
        0
176
     1
290
     0
176
     1
 90
        1
176
     1
 40
0.0
176
     1
 90
        0
176
     1
290
     0
176
     1
290
     1
176
     1
290
     1
176
     1
290
     0
176
     1
290
     0
176
     1
290
     0
176
     1
290
     0
176
     1
290
     0
176
     1
290
     0
176
     1
 90
       50
176
     1
 40
0.0
176
     1
 40
1.0
176
     1
 90
        0
176
     1
 62
    18
420
        0
176
     1
 90
       50
176
     1
 90
        3
176
     1
 62
     5
420
      255
176
     1
290
     0
176
     1
 90
       50
176
     1
 90
       50
176
     1
 90
       50
176
     1
290
     0
176
     1
 90
       50
176
     1
 62
   256
176
     0
 40
1.0
176
     0
 90
        2
176
     1
  1
strokes_ogs.tif
176
     1
290
     0
176
     1
 40
1.0
176
     1
 40
1.0
176
     1
  0
VISUALSTYLE
  5
34
102
{ACAD_REACTORS
330
2A
102
}
330
2A
100
AcDbVisualStyle
  2
Conceptual
 70
     9
177
     3
291
     0
 70
    58
 90
        3
176
     1
 90
        2
176
     1
 90
        0
176
     1
 90
        0
176
     1
 40
0.6
176
     1
 40
30.0
176
     1
 62
     7
420
 16777215
176
     1
 90
        2
176
     1
 90
        2
176
     1
 62
     7
176
     1
 62
   257
176
     1
 90
        1
176
     1
 90
        1
176
     1
 40
179.0
176
     1
 90
        8
176
     1
 62
     7
176
     1
 40
1.0
176
     1
 90
        1
176
     1
 90
        6
176
     1
 90
        2
176
     1
 62
     7
176
     1
 90
        3
176
     1
 90
        0
176
     1
 90
        0
176
     1
290
     0
176
     1
 90
        1
176
     1
 40
0.0
176
     1
 90
        0
176
     1
290
     0
176
     1
290
     1
176
     1
290
     1
176
     1
290
     0
176
     1
290
     0
176
     1
290
     0
176
     1
290
     0
176
     1
290
     0
176
     1
290
     0
176
     1
 90
       50
176
     1
 40
0.0
176
     1
 40
1.0
176
     1
 90
        0
176
     1
 62
    18
420
        0
176
     1
 90
       50
176
     1
 90
        3
176
     1
 62
     5
420
      255
176
     1
290
     0
176
     1
 90
       50
176
     1
 90
       50
176
     1
 90
       50
176
     1
290
     0
176
     1
 90
       50
176
     1
 62
   256
176
     0
 40
1.0
176
     0
 90
        2
176
     1
  1
strokes_ogs.tif
176
     1
290
     0
176
     1
 40
1.0
176
     1
 40
1.0
176
     1
  0
VISUALSTYLE
  5
35
102
{ACAD_REACTORS
330
2A
102
}
330
2A
100
AcDbVisualStyle
  2
Dim
 70
    11
177
     3
291
     1
 70
    58
 90
        2
176
     1
 90
        2
176
     1
 90
        0
176
     1
 90
        0
176
     1
 40
0.6
176
     1
 40
30.0
176
     1
 62
     7
420
 16777215
176
     1
 90
        1
176
     1
 90
        4
176
     1
 62
     7
176
     1
 62
   257
176
     1
 90
        1
176
     1
 90
        1
176
     1
 40
1.0
176
     1
 90
        8
176
     1
 62
     7
176
     1
 40
1.0
176
     1
 90
        1
176
     1
 90
        6
176
     1
 90
        2
176
     1
 62
     7
176
     1
 90
        5
176
     1
 90
        0
176
     1
 90
        0
176
     1
290
     0
176
     1
 90
        1
176
     1
 40
-50.0
176
     1
 90
        0
176
     1
290
     0
176
     1
290
     1
176
     1
290
     1
176
     1
290
     0
176
     1
290
     0
176
     1
290
     0
176
     1
290
     0
176
     1
290
     0
176
     1
290
     0
176
     1
 90
       50
176
     1
 40
0.0
176
     1
 40
1.0
176
     1
 90
        0
176
     1
 62
    18
420
        0
176
     1
 90
       50
176
     1
 90
        3
176
     1
 62
     5
420
      255
176
     1
290
     0
176
     1
 90
       50
176
     1
 90
       50
176
     1
 90
       50
176
     1
290
     0
176
     1
 90
       50
176
     1
 62
   256
176
     0
 40
1.0
176
     0
 90
        2
176
     1
  1
strokes_ogs.tif
176
     1
290
     0
176
     1
 40
1.0
176
     1
 40
1.0
176
     1
  0
VISUALSTYLE
  5
3D
102
{ACAD_REACTORS
330
2A
102
}
330
2A
100
AcDbVisualStyle
  2
EdgeColorOff
 70
    22
177
     3
291
     1
 70
    58
 90
        2
176
     0
 90
        2
176
     0
 90
        0
176
     0
 90
        0
176
     0
 40
0.6
176
     0
 40
30.0
176
     0
 62
     7
420
 16777215
176
     0
 90
        1
176
     0
 90
        4
176
     0
 62
     7
176
     0
 62
   257
176
     0
 90
        1
176
     0
 90
        1
176
     0
 40
1.0
176
     0
 90
        8
176
     2
 62
     7
176
     0
 40
1.0
176
     0
 90
        1
176
     0
 90
        6
176
     0
 90
        2
176
     0
 62
     7
176
     0
 90
        5
176
     0
 90
        0
176
     0
 90
        0
176
     0
290
     0
176
     0
 90
        1
176
     0
 40
0.0
176
     0
 90
        0
176
     0
290
     0
176
     0
290
     1
176
     0
290
     1
176
     0
290
     0
176
     0
290
     0
176
     0
290
     0
176
     0
290
     0
176
     0
290
     0
176
     0
290
     0
176
     0
 90
       50
176
     0
 40
0.0
176
     0
 40
1.0
176
     0
 90
        0
176
     0
 62
    18
420
        0
176
     0
 90
       50
176
     0
 90
        3
176
     0
 62
     5
420
      255
176
     0
290
     0
176
     0
 90
       50
176
     0
 90
       50
176
     0
 90
       50
176
     0
290
     0
176
     0
 90
       50
176
     0
 62
   256
176
     0
 40
1.0
176
     0
 90
        2
176
     0
  1
strokes_ogs.tif
176
     0
290
     0
176
     0
 40
1.0
176
     0
 40
1.0
176
     0
  0
VISUALSTYLE
  5
39
102
{ACAD_REACTORS
330
2A
102
}
330
2A
100
AcDbVisualStyle
  2
Facepattern
 70
    15
177
     3
291
     1
 70
    58
 90
        2
176
     1
 90
        2
176
     1
 90
        0
176
     1
 90
        0
176
     1
 40
0.6
176
     1
 40
30.0
176
     1
 62
     7
420
 16777215
176
     1
 90
        1
176
     1
 90
        4
176
     1
 62
     7
176
     1
 62
   257
176
     1
 90
        1
176
     1
 90
        1
176
     1
 40
1.0
176
     1
 90
        8
176
     1
 62
     7
176
     1
 40
1.0
176
     1
 90
        1
176
     1
 90
        6
176
     1
 90
        2
176
     1
 62
     7
176
     1
 90
        5
176
     1
 90
        0
176
     1
 90
        0
176
     1
290
     0
176
     1
 90
        1
176
     1
 40
0.0
176
     1
 90
        0
176
     1
290
     0
176
     1
290
     1
176
     1
290
     1
176
     1
290
     0
176
     1
290
     0
176
     1
290
     0
176
     1
290
     0
176
     1
290
     0
176
     1
290
     0
176
     1
 90
       50
176
     1
 40
0.0
176
     1
 40
1.0
176
     1
 90
        0
176
     1
 62
    18
420
        0
176
     1
 90
       50
176
     1
 90
        3
176
     1
 62
     5
420
      255
176
     1
290
     0
176
     1
 90
       50
176
     1
 90
       50
176
     1
 90
       50
176
     1
290
     0
176
     1
 90
       50
176
     1
 62
   256
176
     0
 40
1.0
176
     0
 90
        2
176
     1
  1
strokes_ogs.tif
176
     1
290
     0
176
     1
 40
1.0
176
     1
 40
1.0
176
     1
  0
VISUALSTYLE
  5
2B
102
{ACAD_REACTORS
330
2A
102
}
330
2A
100
AcDbVisualStyle
  2
Flat
 70
     0
177
     3
291
     1
 70
    58
 90
        2
176
     1
 90
        1
176
     1
 90
        1
176
     1
 90
        2
176
     1
 40
0.6
176
     1
 40
30.0
176
     1
 62
     7
420
 16777215
176
     1
 90
        0
176
     1
 90
        0
176
     1
 62
     7
176
     1
 62
   257
176
     1
 90
        1
176
     1
 90
        1
176
     1
 40
1.0
176
     1
 90
        8
176
     1
 62
     7
176
     1
 40
1.0
176
     1
 90
        1
176
     1
 90
        6
176
     1
 90
        2
176
     1
 62
     7
176
     1
 90
        5
176
     1
 90
        0
176
     1
 90
        0
176
     1
290
     0
176
     1
 90
       13
176
     1
 40
0.0
176
     1
 90
        0
176
     1
290
     0
176
     1
290
     1
176
     1
290
     1
176
     1
290
     0
176
     1
290
     0
176
     1
290
     0
176
     1
290
     0
176
     1
290
     0
176
     1
290
     0
176
     1
 90
       50
176
     1
 40
0.0
176
     1
 40
1.0
176
     1
 90
        0
176
     1
 62
    18
420
        0
176
     1
 90
       50
176
     1
 90
        3
176
     1
 62
     5
420
      255
176
     1
290
     0
176
     1
 90
       50
176
     1
 90
       50
176
     1
 90
       50
176
     1
290
     0
176
     1
 90
       50
176
     1
 62
   256
176
     0
 40
1.0
176
     0
 90
        2
176
     1
  1
strokes_ogs.tif
176
     1
290
     0
176
     1
 40
1.0
176
     1
 40
1.0
176
     1
  0
VISUALSTYLE
  5
2C
102
{ACAD_REACTORS
330
2A
102
}
330
2A
100
AcDbVisualStyle
  2
FlatWithEdges
 70
     1
177
     3
291
     1
 70
    58
 90
        2
176
     1
 90
        1
176
     1
 90
        1
176
     1
 90
        2
176
     1
 40
0.6
176
     1
 40
30.0
176
     1
 62
     7
420
 16777215
176
     1
 90
        1
176
     1
 90
        0
176
     1
 62
     7
176
     1
 62
   257
176
     1
 90
        1
176
     1
 90
        1
176
     1
 40
1.0
176
     1
 90
        0
176
     1
 62
   257
176
     1
 40
1.0
176
     1
 90
        1
176
     1
 90
        6
176
     1
 90
        2
176
     1
 62
     7
176
     1
 90
        5
176
     1
 90
        0
176
     1
 90
        0
176
     1
290
     0
176
     1
 90
       13
176
     1
 40
0.0
176
     1
 90
        0
176
     1
290
     0
176
     1
290
     1
176
     1
290
     1
176
     1
290
     0
176
     1
290
     0
176
     1
290
     0
176
     1
290
     0
176
     1
290
     0
176
     1
290
     0
176
     1
 90
       50
176
     1
 40
0.0
176
     1
 40
1.0
176
     1
 90
        0
176
     1
 62
    18
420
        0
176
     1
 90
       50
176
     1
 90
        3
176
     1
 62
     5
420
      255
176
     1
290
     0
176
     1
 90
       50
176
     1
 90
       50
176
     1
 90
       50
176
     1
290
     0
176
     1
 90
       50
176
     1
 62
   256
176
     0
 40
1.0
176
     0
 90
        2
176
     1
  1
strokes_ogs.tif
176
     1
290
     0
176
     1
 40
1.0
176
     1
 40
1.0
176
     1
  0
VISUALSTYLE
  5
2D
102
{ACAD_REACTORS
330
2A
102
}
330
2A
100
AcDbVisualStyle
  2
Gouraud
 70
     2
177
     3
291
     1
 70
    58
 90
        2
176
     1
 90
        2
176
     1
 90
        1
176
     1
 90
        2
176
     1
 40
0.6
176
     1
 40
30.0
176
     1
 62
     7
420
 16777215
176
     1
 90
        0
176
     1
 90
        0
176
     1
 62
     7
176
     1
 62
   257
176
     1
 90
        1
176
     1
 90
        1
176
     1
 40
1.0
176
     1
 90
        0
176
     1
 62
     7
176
     1
 40
1.0
176
     1
 90
        1
176
     1
 90
        6
176
     1
 90
        2
176
     1
 62
     7
176
     1
 90
        5
176
     1
 90
        0
176
     1
 90
        0
176
     1
290
     0
176
     1
 90
       13
176
     1
 40
0.0
176
     1
 90
        0
176
     1
290
     0
176
     1
290
     1
176
     1
290
     1
176
     1
290
     0
176
     1
290
     0
176
     1
290
     0
176
     1
290
     0
176
     1
290
     0
176
     1
290
     0
176
     1
 90
       50
176
     1
 40
0.0
176
     1
 40
1.0
176
     1
 90
        0
176
     1
 62
    18
420
        0
176
     1
 90
       50
176
     1
 90
        3
176
     1
 62
     5
420
      255
176
     1
290
     0
176
     1
 90
       50
176
     1
 90
       50
176
     1
 90
       50
176
     1
290
     0
176
     1
 90
       50
176
     1
 62
   256
176
     0
 40
1.0
176
     0
 90
        2
176
     1
  1
strokes_ogs.tif
176
     1
290
     0
176
     1
 40
1.0
176
     1
 40
1.0
176
     1
  0
VISUALSTYLE
  5
2E
102
{ACAD_REACTORS
330
2A
102
}
330
2A
100
AcDbVisualStyle
  2
GouraudWithEdges
 70
     3
177
     3
291
     1
 70
    58
 90
        2
176
     1
 90
        2
176
     1
 90
        1
176
     1
 90
        2
176
     1
 40
0.6
176
     1
 40
30.0
176
     1
 62
     7
420
 16777215
176
     1
 90
        1
176
     1
 90
        0
176
     1
 62
     7
176
     1
 62
   257
176
     1
 90
        1
176
     1
 90
        1
176
     1
 40
1.0
176
     1
 90
        0
176
     1
 62
   257
176
     1
 40
1.0
176
     1
 90
        1
176
     1
 90
        6
176
     1
 90
        2
176
     1
 62
     7
176
     1
 90
        5
176
     1
 90
        0
176
     1
 90
        0
176
     1
290
     0
176
     1
 90
       13
176
     1
 40
0.0
176
     1
 90
        0
176
     1
290
     0
176
     1
290
     1
176
     1
290
     1
176
     1
290
     0
176
     1
290
     0
176
     1
290
     0
176
     1
290
     0
176
     1
290
     0
176
     1
290
     0
176
     1
 90
       50
176
     1
 40
0.0
176
     1
 40
1.0
176
     1
 90
        0
176
     1
 62
    18
420
        0
176
     1
 90
       50
176
     1
 90
        3
176
     1
 62
     5
420
      255
176
     1
290
     0
176
     1
 90
       50
176
     1
 90
       50
176
     1
 90
       50
176
     1
290
     0
176
     1
 90
       50
176
     1
 62
   256
176
     0
 40
1.0
176
     0
 90
        2
176
     1
  1
strokes_ogs.tif
176
     1
290
     0
176
     1
 40
1.0
176
     1
 40
1.0
176
     1
  0
VISUALSTYLE
  5
31
102
{ACAD_REACTORS
330
2A
102
}
330
2A
100
AcDbVisualStyle
  2
Hidden
 70
     6
177
     3
291
     0
 70
    58
 90
        1
176
     1
 90
        2
176
     1
 90
        2
176
     1
 90
        0
176
     1
 40
0.6
176
     1
 40
30.0
176
     1
 62
     7
420
 16777215
176
     1
 90
        2
176
     1
 90
        2
176
     1
 62
     7
176
     1
 62
   257
176
     1
 90
        2
176
     1
 90
        1
176
     1
 40
40.0
176
     1
 90
        0
176
     1
 62
   257
176
     1
 40
1.0
176
     1
 90
        1
176
     1
 90
        6
176
     1
 90
        2
176
     1
 62
     7
176
     1
 90
        3
176
     1
 90
        0
176
     1
 90
        0
176
     1
290
     0
176
     1
 90
        1
176
     1
 40
0.0
176
     1
 90
        0
176
     1
290
     0
176
     1
290
     1
176
     1
290
     1
176
     1
290
     0
176
     1
290
     0
176
     1
290
     0
176
     1
290
     0
176
     1
290
     0
176
     1
290
     0
176
     1
 90
       50
176
     1
 40
0.0
176
     1
 40
1.0
176
     1
 90
        0
176
     1
 62
    18
420
        0
176
     1
 90
       50
176
     1
 90
        3
176
     1
 62
     5
420
      255
176
     1
290
     0
176
     1
 90
       50
176
     1
 90
       50
176
     1
 90
       50
176
     1
290
     0
176
     1
 90
       50
176
     1
 62
   256
176
     0
 40
1.0
176
     0
 90
        2
176
     1
  1
strokes_ogs.tif
176
     1
290
     0
176
     1
 40
1.0
176
     1
 40
1.0
176
     1
  0
VISUALSTYLE
  5
3B
102
{ACAD_REACTORS
330
2A
102
}
330
2A
100
AcDbVisualStyle
  2
JitterOff
 70
    20
177
     3
291
     1
 70
    58
 90
        2
176
     0
 90
        2
176
     0
 90
        0
176
     0
 90
        0
176
     0
 40
0.6
176
     0
 40
30.0
176
     0
 62
     7
420
 16777215
176
     0
 90
        1
176
     0
 90
        4
176
     0
 62
     7
176
     0
 62
   257
176
     0
 90
        1
176
     0
 90
        1
176
     0
 40
1.0
176
     0
 90
       10
176
     2
 62
     7
176
     0
 40
1.0
176
     0
 90
        1
176
     0
 90
        6
176
     0
 90
        2
176
     0
 62
     7
176
     0
 90
        5
176
     0
 90
        0
176
     0
 90
        0
176
     0
290
     0
176
     0
 90
        1
176
     0
 40
0.0
176
     0
 90
        0
176
     0
290
     0
176
     0
290
     1
176
     0
290
     1
176
     0
290
     0
176
     0
290
     0
176
     0
290
     0
176
     0
290
     0
176
     0
290
     0
176
     0
290
     0
176
     0
 90
       50
176
     0
 40
0.0
176
     0
 40
1.0
176
     0
 90
        0
176
     0
 62
    18
420
        0
176
     0
 90
       50
176
     0
 90
        3
176
     0
 62
     5
420
      255
176
     0
290
     0
176
     0
 90
       50
176
     0
 90
       50
176
     0
 90
       50
176
     0
290
     0
176
     0
 90
       50
176
     0
 62
   256
176
     0
 40
1.0
176
     0
 90
        2
176
     0
  1
strokes_ogs.tif
176
     0
290
     0
176
     0
 40
1.0
176
     0
 40
1.0
176
     0
  0
VISUALSTYLE
  5
38
102
{ACAD_REACTORS
330
2A
102
}
330
2A
100
AcDbVisualStyle
  2
Linepattern
 70
    14
177
     3
291
     1
 70
    58
 90
        2
176
     1
 90
        2
176
     1
 90
        0
176
     1
 90
        0
176
     1
 40
0.6
176
     1
 40
30.0
176
     1
 62
     7
420
 16777215
176
     1
 90
        1
176
     1
 90
        4
176
     1
 62
     7
176
     1
 62
   257
176
     1
 90
        7
176
     1
 90
        7
176
     1
 40
1.0
176
     1
 90
        8
176
     1
 62
     7
176
     1
 40
1.0
176
     1
 90
        1
176
     1
 90
        6
176
     1
 90
        2
176
     1
 62
     7
176
     1
 90
        5
176
     1
 90
        0
176
     1
 90
        0
176
     1
290
     0
176
     1
 90
        1
176
     1
 40
0.0
176
     1
 90
        0
176
     1
290
     0
176
     1
290
     1
176
     1
290
     1
176
     1
290
     0
176
     1
290
     0
176
     1
290
     0
176
     1
290
     0
176
     1
290
     0
176
     1
290
     0
176
     1
 90
       50
176
     1
 40
0.0
176
     1
 40
1.0
176
     1
 90
        0
176
     1
 62
    18
420
        0
176
     1
 90
       50
176
     1
 90
        3
176
     1
 62
     5
420
      255
176
     1
290
     0
176
     1
 90
       50
176
     1
 90
       50
176
     1
 90
       50
176
     1
290
     0
176
     1
 90
       50
176
     1
 62
   256
176
     0
 40
1.0
176
     0
 90
        2
176
     1
  1
strokes_ogs.tif
176
     1
290
     0
176
     1
 40
1.0
176
     1
 40
1.0
176
     1
  0
VISUALSTYLE
  5
3C
102
{ACAD_REACTORS
330
2A
102
}
330
2A
100
AcDbVisualStyle
  2
OverhangOff
 70
    21
177
     3
291
     1
 70
    58
 90
        2
176
     0
 90
        2
176
     0
 90
        0
176
     0
 90
        0
176
     0
 40
0.6
176
     0
 40
30.0
176
     0
 62
     7
420
 16777215
176
     0
 90
        1
176
     0
 90
        4
176
     0
 62
     7
176
     0
 62
   257
176
     0
 90
        1
176
     0
 90
        1
176
     0
 40
1.0
176
     0
 90
        9
176
     2
 62
     7
176
     0
 40
1.0
176
     0
 90
        1
176
     0
 90
        6
176
     0
 90
        2
176
     0
 62
     7
176
     0
 90
        5
176
     0
 90
        0
176
     0
 90
        0
176
     0
290
     0
176
     0
 90
        1
176
     0
 40
0.0
176
     0
 90
        0
176
     0
290
     0
176
     0
290
     1
176
     0
290
     1
176
     0
290
     0
176
     0
290
     0
176
     0
290
     0
176
     0
290
     0
176
     0
290
     0
176
     0
290
     0
176
     0
 90
       50
176
     0
 40
0.0
176
     0
 40
1.0
176
     0
 90
        0
176
     0
 62
    18
420
        0
176
     0
 90
       50
176
     0
 90
        3
176
     0
 62
     5
420
      255
176
     0
290
     0
176
     0
 90
       50
176
     0
 90
       50
176
     0
 90
       50
176
     0
290
     0
176
     0
 90
       50
176
     0
 62
   256
176
     0
 40
1.0
176
     0
 90
        2
176
     0
  1
strokes_ogs.tif
176
     0
290
     0
176
     0
 40
1.0
176
     0
 40
1.0
176
     0
  0
VISUALSTYLE
  5
33
102
{ACAD_REACTORS
330
2A
102
}
330
2A
100
AcDbVisualStyle
  2
Realistic
 70
     8
177
     3
291
     0
 70
    58
 90
        2
176
     1
 90
        3
176
     1
 90
        0
176
     1
 90
        2
176
     1
 40
0.6
176
     1
 40
30.0
176
     1
 62
     7
420
 16777215
176
     1
 90
        0
176
     1
 90
        0
176
     1
 62
     7
176
     1
 62
   257
176
     1
 90
        1
176
     1
 90
        1
176
     1
 40
1.0
176
     1
 90
        8
176
     1
 62
   257
176
     1
 40
1.0
176
     1
 90
        1
176
     1
 90
        6
176
     1
 90
        2
176
     1
 62
     7
176
     1
 90
        3
176
     1
 90
        0
176
     1
 90
        0
176
     1
290
     0
176
     1
 90
       13
176
     1
 40
0.0
176
     1
 90
        0
176
     1
290
     0
176
     1
290
     1
176
     1
290
     1
176
     1
290
     0
176
     1
290
     0
176
     1
290
     0
176
     1
290
     0
176
     1
290
     0
176
     1
290
     0
176
     1
 90
       50
176
     1
 40
0.0
176
     1
 40
1.0
176
     1
 90
        0
176
     1
 62
    18
420
        0
176
     1
 90
       50
176
     1
 90
        3
176
     1
 62
     5
420
      255
176
     1
290
     0
176
     1
 90
       50
176
     1
 90
       50
176
     1
 90
       50
176
     1
290
     0
176
     1
 90
       50
176
     1
 62
   256
176
     0
 40
1.0
176
     0
 90
        2
176
     1
  1
strokes_ogs.tif
176
     1
290
     0
176
     1
 40
1.0
176
     1
 40
1.0
176
     1
  0
VISUALSTYLE
  5
42
102
{ACAD_REACTORS
330
2A
102
}
330
2A
100
AcDbVisualStyle
  2
Shaded
 70
    27
177
     3
291
     0
 70
    58
 90
        2
176
     1
 90
        2
176
     1
 90
        1
176
     1
 90
        2
176
     1
 40
0.6
176
     1
 40
30.0
176
     1
 62
     7
420
 16777215
176
     1
 90
        0
176
     1
 90
        4
176
     1
 62
     7
176
     1
 62
   257
176
     1
 90
        1
176
     1
 90
        1
176
     1
 40
1.0
176
     1
 90
        8
176
     1
 62
   257
176
     1
 40
1.0
176
     1
 90
        1
176
     1
 90
        6
176
     1
 90
        2
176
     1
 62
     8
420
  7895160
176
     1
 90
        3
176
     1
 90
        0
176
     1
 90
        0
176
     1
290
     0
176
     1
 90
        5
176
     1
 40
0.0
176
     1
 90
        0
176
     1
290
     0
176
     1
290
     1
176
     1
290
     1
176
     1
290
     0
176
     1
290
     0
176
     1
290
     0
176
     1
290
     0
176
     1
290
     0
176
     1
290
     0
176
     1
 90
       50
176
     1
 40
0.0
176
     1
 40
1.0
176
     1
 90
        0
176
     1
 62
    18
420
        0
176
     1
 90
       50
176
     1
 90
        3
176
     1
 62
     5
420
      255
176
     1
290
     0
176
     1
 90
       50
176
     1
 90
       50
176
     1
 90
       50
176
     1
290
     0
176
     1
 90
       50
176
     1
 62
   256
176
     0
 40
1.0
176
     0
 90
        2
176
     1
  1
strokes_ogs.tif
176
     1
290
     0
176
     1
 40
1.0
176
     1
 40
1.0
176
     1
  0
VISUALSTYLE
  5
41
102
{ACAD_REACTORS
330
2A
102
}
330
2A
100
AcDbVisualStyle
  2
Shaded with edges
 70
    26
177
     3
291
     0
 70
    58
 90
        2
176
     1
 90
        2
176
     1
 90
        1
176
     1
 90
        2
176
     1
 40
0.6
176
     1
 40
30.0
176
     1
 62
     7
420
 16777215
176
     1
 90
        1
176
     1
 90
       10
176
     1
 62
     7
176
     1
 62
   257
176
     1
 90
        2
176
     1
 90
        1
176
     1
 40
1.0
176
     1
 90
        8
176
     1
 62
   257
176
     1
 40
1.0
176
     1
 90
        1
176
     1
 90
        6
176
     1
 90
        2
176
     1
 62
     7
176
     1
 90
        3
176
     1
 90
        0
176
     1
 90
        0
176
     1
290
     0
176
     1
 90
        5
176
     1
 40
0.0
176
     1
 90
        0
176
     1
290
     0
176
     1
290
     1
176
     1
290
     1
176
     1
290
     0
176
     1
290
     0
176
     1
290
     0
176
     1
290
     0
176
     1
290
     0
176
     1
290
     0
176
     1
 90
       50
176
     1
 40
0.0
176
     1
 40
1.0
176
     1
 90
        0
176
     1
 62
    18
420
        0
176
     1
 90
       50
176
     1
 90
        3
176
     1
 62
     5
420
      255
176
     1
290
     0
176
     1
 90
       50
176
     1
 90
       50
176
     1
 90
       50
176
     1
290
     0
176
     1
 90
       50
176
     1
 62
   256
176
     0
 40
1.0
176
     0
 90
        2
176
     1
  1
strokes_ogs.tif
176
     1
290
     0
176
     1
 40
1.0
176
     1
 40
1.0
176
     1
  0
VISUALSTYLE
  5
3E
102
{ACAD_REACTORS
330
2A
102
}
330
2A
100
AcDbVisualStyle
  2
Shades of Gray
 70
    23
177
     3
291
     0
 70
    58
 90
        2
176
     1
 90
        2
176
     1
 90
        3
176
     1
 90
        0
176
     1
 40
0.6
176
     1
 40
30.0
176
     1
 62
     7
420
 16777215
176
     1
 90
        2
176
     1
 90
        2
176
     1
 62
     7
176
     1
 62
     7
176
     1
 90
        1
176
     1
 90
        1
176
     1
 40
40.0
176
     1
 90
        8
176
     1
 62
     7
176
     1
 40
1.0
176
     1
 90
        1
176
     1
 90
        6
176
     1
 90
        2
176
     1
 62
     7
176
     1
 90
        3
176
     1
 90
        0
176
     1
 90
        0
176
     1
290
     0
176
     1
 90
        1
176
     1
 40
0.0
176
     1
 90
        0
176
     1
290
     0
176
     1
290
     1
176
     1
290
     1
176
     1
290
     0
176
     1
290
     0
176
     1
290
     0
176
     1
290
     0
176
     1
290
     0
176
     1
290
     0
176
     1
 90
       50
176
     1
 40
0.0
176
     1
 40
1.0
176
     1
 90
        0
176
     1
 62
    18
420
        0
176
     1
 90
       50
176
     1
 90
        3
176
     1
 62
     5
420
      255
176
     1
290
     0
176
     1
 90
       50
176
     1
 90
       50
176
     1
 90
       50
176
     1
290
     0
176
     1
 90
       50
176
     1
 62
   256
176
     0
 40
1.0
176
     0
 90
        2
176
     1
  1
strokes_ogs.tif
176
     1
290
     0
176
     1
 40
1.0
176
     1
 40
1.0
176
     1
  0
VISUALSTYLE
  5
3F
102
{ACAD_REACTORS
330
2A
102
}
330
2A
100
AcDbVisualStyle
  2
Sketchy
 70
    24
177
     3
291
     0
 70
    58
 90
        1
176
     1
 90
        2
176
     1
 90
        2
176
     1
 90
        0
176
     1
 40
0.6
176
     1
 40
30.0
176
     1
 62
     7
420
 16777215
176
     1
 90
        2
176
     1
 90
        2
176
     1
 62
     7
176
     1
 62
     7
176
     1
 90
        1
176
     1
 90
        1
176
     1
 40
40.0
176
     1
 90
       11
176
     1
 62
     7
176
     1
 40
1.0
176
     1
 90
        1
176
     1
 90
        6
176
     1
 90
        2
176
     1
 62
     7
176
     1
 90
        6
176
     1
 90
        0
176
     1
 90
        0
176
     1
290
     0
176
     1
 90
        1
176
     1
 40
0.0
176
     1
 90
        0
176
     1
290
     0
176
     1
290
     1
176
     1
290
     1
176
     1
290
     0
176
     1
290
     0
176
     1
290
     0
176
     1
290
     0
176
     1
290
     0
176
     1
290
     0
176
     1
 90
       50
176
     1
 40
0.0
176
     1
 40
1.0
176
     1
 90
        0
176
     1
 62
    18
420
        0
176
     1
 90
       50
176
     1
 90
        3
176
     1
 62
     5
420
      255
176
     1
290
     0
176
     1
 90
       50
176
     1
 90
       50
176
     1
 90
       50
176
     1
290
     0
176
     1
 90
       50
176
     1
 62
   256
176
     0
 40
1.0
176
     0
 90
        2
176
     1
  1
strokes_ogs.tif
176
     1
290
     0
176
     1
 40
1.0
176
     1
 40
1.0
176
     1
  0
VISUALSTYLE
  5
37
102
{ACAD_REACTORS
330
2A
102
}
330
2A
100
AcDbVisualStyle
  2
Thicken
 70
    13
177
     3
291
     1
 70
    58
 90
        2
176
     1
 90
        2
176
     1
 90
        0
176
     1
 90
        0
176
     1
 40
0.6
176
     1
 40
30.0
176
     1
 62
     7
420
 16777215
176
     1
 90
        1
176
     1
 90
        4
176
     1
 62
     7
176
     1
 62
   257
176
     1
 90
        1
176
     1
 90
        1
176
     1
 40
1.0
176
     1
 90
       12
176
     1
 62
     7
176
     1
 40
1.0
176
     1
 90
        1
176
     1
 90
        6
176
     1
 90
        2
176
     1
 62
     7
176
     1
 90
        5
176
     1
 90
        0
176
     1
 90
        0
176
     1
290
     0
176
     1
 90
        1
176
     1
 40
0.0
176
     1
 90
        0
176
     1
290
     0
176
     1
290
     1
176
     1
290
     1
176
     1
290
     0
176
     1
290
     0
176
     1
290
     0
176
     1
290
     0
176
     1
290
     0
176
     1
290
     0
176
     1
 90
       50
176
     1
 40
0.0
176
     1
 40
1.0
176
     1
 90
        0
176
     1
 62
    18
420
        0
176
     1
 90
       50
176
     1
 90
        3
176
     1
 62
     5
420
      255
176
     1
290
     0
176
     1
 90
       50
176
     1
 90
       50
176
     1
 90
       50
176
     1
290
     0
176
     1
 90
       50
176
     1
 62
   256
176
     0
 40
1.0
176
     0
 90
        2
176
     1
  1
strokes_ogs.tif
176
     1
290
     0
176
     1
 40
1.0
176
     1
 40
1.0
176
     1
  0
VISUALSTYLE
  5
30
102
{ACAD_REACTORS
330
2A
102
}
330
2A
100
AcDbVisualStyle
  2
Wireframe
 70
     5
177
     3
291
     0
 70
    58
 90
        0
176
     1
 90
        2
176
     1
 90
        0
176
     1
 90
        0
176
     1
 40
0.6
176
     1
 40
30.0
176
     1
 62
     7
420
 16777215
176
     1
 90
        1
176
     1
 90
        4
176
     1
 62
     7
176
     1
 62
   257
176
     1
 90
        1
176
     1
 90
        1
176
     1
 40
1.0
176
     1
 90
        0
176
     1
 62
   257
176
     1
 40
1.0
176
     1
 90
        1
176
     1
 90
        6
176
     1
 90
        2
176
     1
 62
     7
176
     1
 90
        3
176
     1
 90
        0
176
     1
 90
        0
176
     1
290
     0
176
     1
 90
        1
176
     1
 40
0.0
176
     1
 90
        0
176
     1
290
     0
176
     1
290
     1
176
     1
290
     1
176
     1
290
     0
176
     1
290
     0
176
     1
290
     0
176
     1
290
     0
176
     1
290
     0
176
     1
290
     0
176
     1
 90
       50
176
     1
 40
0.0
176
     1
 40
1.0
176
     1
 90
        0
176
     1
 62
    18
420
        0
176
     1
 90
       50
176
     1
 90
        3
176
     1
 62
     5
420
      255
176
     1
290
     0
176
     1
 90
       50
176
     1
 90
       50
176
     1
 90
       50
176
     1
290
     0
176
     1
 90
       50
176
     1
 62
   256
176
     0
 40
1.0
176
     0
 90
        2
176
     1
  1
strokes_ogs.tif
176
     1
290
     0
176
     1
 40
1.0
176
     1
 40
1.0
176
     1
  0
VISUALSTYLE
  5
40
102
{ACAD_REACTORS
330
2A
102
}
330
2A
100
AcDbVisualStyle
  2
X-Ray
 70
    25
177
     3
291
     0
 70
    58
 90
        2
176
     1
 90
        2
176
     1
 90
        1
176
     1
 90
        1
176
     1
 40
0.5
176
     1
 40
30.0
176
     1
 62
     7
420
 16777215
176
     1
 90
        1
176
     1
 90
        0
176
     1
 62
     7
176
     1
 62
   257
176
     1
 90
        1
176
     1
 90
        1
176
     1
 40
1.0
176
     1
 90
        8
176
     1
 62
     7
176
     1
 40
1.0
176
     1
 90
        1
176
     1
 90
        6
176
     1
 90
        2
176
     1
 62
     7
176
     1
 90
        3
176
     1
 90
        0
176
     1
 90
        0
176
     1
290
     0
176
     1
 90
       13
176
     1
 40
0.0
176
     1
 90
        0
176
     1
290
     0
176
     1
290
     1
176
     1
290
     1
176
     1
290
     0
176
     1
290
     0
176
     1
290
     0
176
     1
290
     0
176
     1
290
     0
176
     1
290
     0
176
     1
 90
       50
176
     1
 40
0.0
176
     1
 40
1.0
176
     1
 90
        0
176
     1
 62
    18
420
        0
176
     1
 90
       50
176
     1
 90
        3
176
     1
 62
     5
420
      255
176
     1
290
     0
176
     1
 90
       50
176
     1
 90
       50
176
     1
 90
       50
176
     1
290
     0
176
     1
 90
       50
176
     1
 62
   256
176
     0
 40
1.0
176
     0
 90
        2
176
     1
  1
strokes_ogs.tif
176
     1
290
     0
176
     1
 40
1.0
176
     1
 40
1.0
176
     1
  0
DICTIONARYVAR
  5
1F4
102
{ACAD_REACTORS
330
1F3
102
}
330
1F3
100
DictionaryVariables
280
     0
  1
1:1
  0
DICTIONARYVAR
  5
1F9
102
{ACAD_REACTORS
330
1F3
102
}
330
1F3
100
DictionaryVariables
280
     0
  1
Standard
  0
DICTIONARYVAR
  5
1F8
102
{ACAD_REACTORS
330
1F3
102
}
330
1F3
100
DictionaryVariables
280
     0
  1
Standard
  0
DICTIONARY
  5
1F5
330
6A
100
AcDbDictionary
280
     1
281
     1
  3
ACAD_ROUNDTRIP_2008_TABLESTYLE_CELLSTYLEMAP
360
1F6
  0
CELLSTYLEMAP
  5
1F6
102
{ACAD_REACTORS
330
1F5
102
}
330
1F5
100
AcDbCellStyleMap
 90
        3
300
CELLSTYLE
  1
TABLEFORMAT_BEGIN
 90
        5
170
     1
 91
        0
 92
    32768
 62
   257
 93
        1
300
CONTENTFORMAT
  1
CONTENTFORMAT_BEGIN
 90
        0
 91
        0
 92
        4
 93
        0
300

 40
0.0
140
1.0
 94
        5
 62
     0
340
11
144
0.25
309
CONTENTFORMAT_END
171
     1
301
MARGIN
  1
CELLMARGIN_BEGIN
 40
0.06
 40
0.06
 40
0.06
 40
0.06
 40
0.06
 40
0.06
309
CELLMARGIN_END
 94
        6
 95
        1
302
GRIDFORMAT
  1
GRIDFORMAT_BEGIN
 90
        0
 91
        1
 62
     0
 92
       -2
340
14
 93
        0
 40
0.045
309
GRIDFORMAT_END
 95
        2
302
GRIDFORMAT
  1
GRIDFORMAT_BEGIN
 90
        0
 91
        1
 62
     0
 92
       -2
340
14
 93
        0
 40
0.045
309
GRIDFORMAT_END
 95
        4
302
GRIDFORMAT
  1
GRIDFORMAT_BEGIN
 90
        0
 91
        1
 62
     0
 92
       -2
340
14
 93
        0
 40
0.045
309
GRIDFORMAT_END
 95
        8
302
GRIDFORMAT
  1
GRIDFORMAT_BEGIN
 90
        0
 91
        1
 62
     0
 92
       -2
340
14
 93
        0
 40
0.045
309
GRIDFORMAT_END
 95
       16
302
GRIDFORMAT
  1
GRIDFORMAT_BEGIN
 90
        0
 91
        1
 62
     0
 92
       -2
340
14
 93
        0
 40
0.045
309
GRIDFORMAT_END
 95
       32
302
GRIDFORMAT
  1
GRIDFORMAT_BEGIN
 90
        0
 91
        1
 62
     0
 92
       -2
340
14
 93
        0
 40
0.045
309
GRIDFORMAT_END
309
TABLEFORMAT_END
  1
CELLSTYLE_BEGIN
 90
        1
 91
        1
300
_TITLE
309
CELLSTYLE_END
300
CELLSTYLE
  1
TABLEFORMAT_BEGIN
 90
        5
170
     1
 91
        0
 92
        0
 62
   257
 93
        1
300
CONTENTFORMAT
  1
CONTENTFORMAT_BEGIN
 90
        0
 91
        0
 92
        4
 93
        0
300

 40
0.0
140
1.0
 94
        5
 62
     0
340
11
144
0.18
309
CONTENTFORMAT_END
171
     1
301
MARGIN
  1
CELLMARGIN_BEGIN
 40
0.06
 40
0.06
 40
0.06
 40
0.06
 40
0.06
 40
0.06
309
CELLMARGIN_END
 94
        6
 95
        1
302
GRIDFORMAT
  1
GRIDFORMAT_BEGIN
 90
        0
 91
        1
 62
     0
 92
       -2
340
14
 93
        0
 40
0.045
309
GRIDFORMAT_END
 95
        2
302
GRIDFORMAT
  1
GRIDFORMAT_BEGIN
 90
        0
 91
        1
 62
     0
 92
       -2
340
14
 93
        0
 40
0.045
309
GRIDFORMAT_END
 95
        4
302
GRIDFORMAT
  1
GRIDFORMAT_BEGIN
 90
        0
 91
        1
 62
     0
 92
       -2
340
14
 93
        0
 40
0.045
309
GRIDFORMAT_END
 95
        8
302
GRIDFORMAT
  1
GRIDFORMAT_BEGIN
 90
        0
 91
        1
 62
     0
 92
       -2
340
14
 93
        0
 40
0.045
309
GRIDFORMAT_END
 95
       16
302
GRIDFORMAT
  1
GRIDFORMAT_BEGIN
 90
        0
 91
        1
 62
     0
 92
       -2
340
14
 93
        0
 40
0.045
309
GRIDFORMAT_END
 95
       32
302
GRIDFORMAT
  1
GRIDFORMAT_BEGIN
 90
        0
 91
        1
 62
     0
 92
       -2
340
14
 93
        0
 40
0.045
309
GRIDFORMAT_END
309
TABLEFORMAT_END
  1
CELLSTYLE_BEGIN
 90
        2
 91
        1
300
_HEADER
309
CELLSTYLE_END
300
CELLSTYLE
  1
TABLEFORMAT_BEGIN
 90
        5
170
     1
 91
        0
 92
        0
 62
   257
 93
        1
300
CONTENTFORMAT
  1
CONTENTFORMAT_BEGIN
 90
        0
 91
        0
 92
        4
 93
        0
300

 40
0.0
140
1.0
 94
        2
 62
     0
340
11
144
0.18
309
CONTENTFORMAT_END
171
     1
301
MARGIN
  1
CELLMARGIN_BEGIN
 40
0.06
 40
0.06
 40
0.06
 40
0.06
 40
0.06
 40
0.06
309
CELLMARGIN_END
 94
        6
 95
        1
302
GRIDFORMAT
  1
GRIDFORMAT_BEGIN
 90
        0
 91
        1
 62
     0
 92
       -2
340
14
 93
        0
 40
0.045
309
GRIDFORMAT_END
 95
        2
302
GRIDFORMAT
  1
GRIDFORMAT_BEGIN
 90
        0
 91
        1
 62
     0
 92
       -2
340
14
 93
        0
 40
0.045
309
GRIDFORMAT_END
 95
        4
302
GRIDFORMAT
  1
GRIDFORMAT_BEGIN
 90
        0
 91
        1
 62
     0
 92
       -2
340
14
 93
        0
 40
0.045
309
GRIDFORMAT_END
 95
        8
302
GRIDFORMAT
  1
GRIDFORMAT_BEGIN
 90
        0
 91
        1
 62
     0
 92
       -2
340
14
 93
        0
 40
0.045
309
GRIDFORMAT_END
 95
       16
302
GRIDFORMAT
  1
GRIDFORMAT_BEGIN
 90
        0
 91
        1
 62
     0
 92
       -2
340
14
 93
        0
 40
0.045
309
GRIDFORMAT_END
 95
       32
302
GRIDFORMAT
  1
GRIDFORMAT_BEGIN
 90
        0
 91
        1
 62
     0
 92
       -2
340
14
 93
        0
 40
0.045
309
GRIDFORMAT_END
309
TABLEFORMAT_END
  1
CELLSTYLE_BEGIN
 90
        3
 91
        2
300
_DATA
309
CELLSTYLE_END
  0
ENDSEC
  0
EOF
