  0
SECTION
  2
HEADER
  9
$ACADVER
  1
AC1027
  9
$ACADMAINTVER
 70
   105
  9
$DWGCODEPAGE
  3
ANSI_1252
  9
$REQUIREDVERSIONS
160
                 0
  9
$INSBASE
 10
0.0
 20
0.0
 30
0.0
  9
$EXTMIN
 10
0.0
 20
0.0
 30
0.0
  9
$EXTMAX
 10
11.0
 20
8.5
 30
0.0
  9
$LIMMIN
 10
0.0
 20
0.0
  9
$LIMMAX
 10
11.0
 20
8.5
  9
$ORTHOMODE
 70
     0
  9
$REGENMODE
 70
     1
  9
$FILLMODE
 70
     1
  9
$QTEXTMODE
 70
     0
  9
$MIRRTEXT
 70
     1
  9
$LTSCALE
 40
1.0
  9
$ATTMODE
 70
     1
  9
$TEXTSIZE
 40
0.1377952756
  9
$TRACEWID
 40
0.05
  9
$TEXTSTYLE
  7
Standard
  9
$CLAYER
  8
0
  9
$CELTYPE
  6
ByLayer
  9
$CECOLOR
 62
   256
  9
$CELTSCALE
 40
1.0
  9
$DISPSILH
 70
     0
  9
$DIMSCALE
 40
1.0
  9
$DIMASZ
 40
0.13
  9
$DIMEXO
 40
0.0393700787
  9
$DIMDLI
 40
0.38
  9
$DIMRND
 40
0.0
  9
$DIMDLE
 40
0.0
  9
$DIMEXE
 40
0.0393700787
  9
$DIMTP
 40
0.0
  9
$DIMTM
 40
0.0
  9
$DIMTXT
 40
0.1377952756
  9
$DIMCEN
 40
0.09
  9
$DIMTSZ
 40
0.0
  9
$DIMTOL
 70
     0
  9
$DIMLIM
 70
     0
  9
$DIMTIH
 70
     1
  9
$DIMTOH
 70
     1
  9
$DIMSE1
 70
     0
  9
$DIMSE2
 70
     0
  9
$DIMTAD
 70
     1
  9
$DIMZIN
 70
     0
  9
$DIMBLK
  1

  9
$DIMASO
 70
     1
  9
$DIMSHO
 70
     1
  9
$DIMPOST
  1

  9
$DIMAPOST
  1

  9
$DIMALT
 70
     0
  9
$DIMALTD
 70
     2
  9
$DIMALTF
 40
25.4
  9
$DIMLFAC
 40
1.0
  9
$DIMTOFL
 70
     0
  9
$DIMTVP
 40
0.0
  9
$DIMTIX
 70
     0
  9
$DIMSOXD
 70
     0
  9
$DIMSAH
 70
     0
  9
$DIMBLK1
  1

  9
$DIMBLK2
  1

  9
$DIMSTYLE
  2
Standard
  9
$DIMCLRD
 70
     0
  9
$DIMCLRE
 70
     0
  9
$DIMCLRT
 70
     0
  9
$DIMTFAC
 40
1.0
  9
$DIMGAP
 40
0.06
  9
$DIMJUST
 70
     0
  9
$DIMSD1
 70
     0
  9
$DIMSD2
 70
     0
  9
$DIMTOLJ
 70
     1
  9
$DIMTZIN
 70
     0
  9
$DIMALTZ
 70
     0
  9
$DIMALTTZ
 70
     0
  9
$DIMUPT
 70
     0
  9
$DIMDEC
 70
     2
  9
$DIMTDEC
 70
     2
  9
$DIMALTU
 70
     2
  9
$DIMALTTD
 70
     2
  9
$DIMTXSTY
  7
Standard
  9
$DIMAUNIT
 70
     0
  9
$DIMADEC
 70
     2
  9
$DIMALTRND
 40
0.0
  9
$DIMAZIN
 70
     0
  9
$DIMDSEP
 70
    46
  9
$DIMATFIT
 70
     3
  9
$DIMFRAC
 70
     0
  9
$DIMLDRBLK
  1

  9
$DIMLUNIT
 70
     2
  9
$DIMLWD
 70
    -2
  9
$DIMLWE
 70
    -2
  9
$DIMTMOVE
 70
     0
  9
$DIMFXL
 40
1.0
  9
$DIMFXLON
 70
     0
  9
$DIMJOGANG
 40
0.7853981634
  9
$DIMTFILL
 70
     0
  9
$DIMTFILLCLR
 70
     0
  9
$DIMARCSYM
 70
     0
  9
$DIMLTYPE
  6

  9
$DIMLTEX1
  6

  9
$DIMLTEX2
  6

  9
$DIMTXTDIRECTION
 70
     0
  9
$LUNITS
 70
     2
  9
$LUPREC
 70
     2
  9
$SKETCHINC
 40
0.1
  9
$FILLETRAD
 40
0.5
  9
$AUNITS
 70
     0
  9
$AUPREC
 70
     2
  9
$MENU
  1
.
  9
$ELEVATION
 40
0.0
  9
$PELEVATION
 40
0.0
  9
$THICKNESS
 40
0.0
  9
$LIMCHECK
 70
     0
  9
$CHAMFERA
 40
0.0
  9
$CHAMFERB
 40
0.0
  9
$CHAMFERC
 40
0.0
  9
$CHAMFERD
 40
0.0
  9
$SKPOLY
 70
     0
  9
$TDCREATE
 40
2459657.296680185
  9
$TDUCREATE
 40
2459657.505013519
  9
$TDUPDATE
 40
2459657.296683438
  9
$TDUUPDATE
 40
2459657.505016771
  9
$TDINDWG
 40
0.0000000116
  9
$TDUSRTIMER
 40
0.0000000116
  9
$USRTIMER
 70
     1
  9
$ANGBASE
 50
0.0
  9
$ANGDIR
 70
     0
  9
$PDMODE
 70
     0
  9
$PDSIZE
 40
-1.0
  9
$PLINEWID
 40
0.0
  9
$SPLFRAME
 70
     0
  9
$SPLINETYPE
 70
     6
  9
$SPLINESEGS
 70
     8
  9
$HANDSEED
  5
29B
  9
$SURFTAB1
 70
     6
  9
$SURFTAB2
 70
     6
  9
$SURFTYPE
 70
     6
  9
$SURFU
 70
     6
  9
$SURFV
 70
     6
  9
$UCSBASE
  2

  9
$UCSNAME
  2

  9
$UCSORG
 10
0.0
 20
0.0
 30
0.0
  9
$UCSXDIR
 10
1.0
 20
0.0
 30
0.0
  9
$UCSYDIR
 10
0.0
 20
1.0
 30
0.0
  9
$UCSORTHOREF
  2

  9
$UCSORTHOVIEW
 70
     0
  9
$UCSORGTOP
 10
0.0
 20
0.0
 30
0.0
  9
$UCSORGBOTTOM
 10
0.0
 20
0.0
 30
0.0
  9
$UCSORGLEFT
 10
0.0
 20
0.0
 30
0.0
  9
$UCSORGRIGHT
 10
0.0
 20
0.0
 30
0.0
  9
$UCSORGFRONT
 10
0.0
 20
0.0
 30
0.0
  9
$UCSORGBACK
 10
0.0
 20
0.0
 30
0.0
  9
$PUCSBASE
  2

  9
$PUCSNAME
  2

  9
$PUCSORG
 10
0.0
 20
0.0
 30
0.0
  9
$PUCSXDIR
 10
1.0
 20
0.0
 30
0.0
  9
$PUCSYDIR
 10
0.0
 20
1.0
 30
0.0
  9
$PUCSORTHOREF
  2

  9
$PUCSORTHOVIEW
 70
     0
  9
$PUCSORGTOP
 10
0.0
 20
0.0
 30
0.0
  9
$PUCSORGBOTTOM
 10
0.0
 20
0.0
 30
0.0
  9
$PUCSORGLEFT
 10
0.0
 20
0.0
 30
0.0
  9
$PUCSORGRIGHT
 10
0.0
 20
0.0
 30
0.0
  9
$PUCSORGFRONT
 10
0.0
 20
0.0
 30
0.0
  9
$PUCSORGBACK
 10
0.0
 20
0.0
 30
0.0
  9
$USERI1
 70
     0
  9
$USERI2
 70
     0
  9
$USERI3
 70
     0
  9
$USERI4
 70
     0
  9
$USERI5
 70
     0
  9
$USERR1
 40
0.0
  9
$USERR2
 40
0.0
  9
$USERR3
 40
0.0
  9
$USERR4
 40
0.0
  9
$USERR5
 40
0.0
  9
$WORLDVIEW
 70
     1
  9
$SHADEDGE
 70
     3
  9
$SHADEDIF
 70
    70
  9
$TILEMODE
 70
     1
  9
$MAXACTVP
 70
    64
  9
$PINSBASE
 10
0.0
 20
0.0
 30
0.0
  9
$PLIMCHECK
 70
     0
  9
$PEXTMIN
 10
0.0
 20
0.0
 30
0.0
  9
$PEXTMAX
 10
11.0
 20
8.5
 30
0.0
  9
$PLIMMIN
 10
0.0
 20
0.0
  9
$PLIMMAX
 10
11.0
 20
8.5
  9
$UNITMODE
 70
     0
  9
$VISRETAIN
 70
     1
  9
$PLINEGEN
 70
     0
  9
$PSLTSCALE
 70
     1
  9
$TREEDEPTH
 70
  3020
  9
$CMLSTYLE
  2
Standard
  9
$CMLJUST
 70
     0
  9
$CMLSCALE
 40
1.0
  9
$PROXYGRAPHICS
 70
     1
  9
$MEASUREMENT
 70
     0
  9
$CELWEIGHT
370
    -1
  9
$ENDCAPS
280
     0
  9
$JOINSTYLE
280
     0
  9
$LWDISPLAY
290
     1
  9
$INSUNITS
 70
     1
  9
$HYPERLINKBASE
  1

  9
$STYLESHEET
  1

  9
$XEDIT
290
     1
  9
$CEPSNTYPE
380
     0
  9
$PSTYLEMODE
290
     1
  9
$FINGERPRINTGUID
  2
{a1699500-49d1-4599-bc43-be8232246a75}
  9
$VERSIONGUID
  2
{FAEB1C32-E019-11D5-929B-00C0DF256EC4}
  9
$EXTNAMES
290
     1
  9
$PSVPSCALE
 40
0.0
  9
$OLESTARTUP
290
     0
  9
$SORTENTS
280
   127
  9
$INDEXCTL
280
     0
  9
$HIDETEXT
280
     1
  9
$XCLIPFRAME
280
     2
  9
$HALOGAP
280
     0
  9
$OBSCOLOR
 70
   257
  9
$OBSLTYPE
280
     0
  9
$INTERSECTIONDISPLAY
280
     0
  9
$INTERSECTIONCOLOR
 70
   257
  9
$DIMASSOC
280
     2
  9
$PROJECTNAME
  1

  9
$CAMERADISPLAY
290
     0
  9
$LENSLENGTH
 40
50.0
  9
$CAMERAHEIGHT
 40
0.0
  9
$STEPSPERSEC
 40
2.0
  9
$STEPSIZE
 40
6.0
  9
$3DDWFPREC
 40
2.0
  9
$PSOLWIDTH
 40
0.25
  9
$PSOLHEIGHT
 40
4.0
  9
$LOFTANG1
 40
1.5707963268
  9
$LOFTANG2
 40
1.5707963268
  9
$LOFTMAG1
 40
0.0
  9
$LOFTMAG2
 40
0.0
  9
$LOFTPARAM
 70
     7
  9
$LOFTNORMALS
280
     1
  9
$LATITUDE
 40
37.795
  9
$LONGITUDE
 40
-122.394
  9
$NORTHDIRECTION
 40
0.0
  9
$TIMEZONE
 70
 -8000
  9
$LIGHTGLYPHDISPLAY
280
     1
  9
$TILEMODELIGHTSYNCH
280
     1
  9
$CMATERIAL
347
44
  9
$SOLIDHIST
280
     0
  9
$SHOWHIST
280
     1
  9
$DWFFRAME
280
     2
  9
$DGNFRAME
280
     2
  9
$REALWORLDSCALE
290
     1
  9
$INTERFERECOLOR
 62
   256
  9
$CSHADOW
280
     0
  9
$SHADOWPLANELOCATION
 40
0.0
  0
ENDSEC
  0
SECTION
  2
CLASSES
  0
CLASS
  1
ACDBDICTIONARYWDFLT
  2
AcDbDictionaryWithDefault
  3
ObjectDBX Classes
 90
        0
 91
        3
280
     0
281
     0
  0
CLASS
  1
VISUALSTYLE
  2
AcDbVisualStyle
  3
ObjectDBX Classes
 90
     4095
 91
        3
280
     0
281
     0
  0
CLASS
  1
MATERIAL
  2
AcDbMaterial
  3
ObjectDBX Classes
 90
     1153
 91
        3
280
     0
281
     0
  0
CLASS
  1
SCALE
  2
AcDbScale
  3
ObjectDBX Classes
 90
     1153
 91
        3
280
     0
281
     0
  0
CLASS
  1
TABLESTYLE
  2
AcDbTableStyle
  3
ObjectDBX Classes
 90
     4095
 91
        3
280
     0
281
     0
  0
CLASS
  1
MLEADERSTYLE
  2
AcDbMLeaderStyle
  3
ACDB_MLEADERSTYLE_CLASS
 90
     4095
 91
        3
280
     0
281
     0
  0
CLASS
  1
SUN
  2
AcDbSun
  3
SCENEOE
 90
     1153
 91
        3
280
     0
281
     0
  0
CLASS
  1
DICTIONARYVAR
  2
AcDbDictionaryVar
  3
ObjectDBX Classes
 90
        0
 91
        3
280
     0
281
     0
  0
CLASS
  1
CELLSTYLEMAP
  2
AcDbCellStyleMap
  3
ObjectDBX Classes
 90
     1152
 91
        3
280
     0
281
     0
  0
ENDSEC
  0
SECTION
  2
TABLES
  0
TABLE
  2
VPORT
  5
8
330
0
100
AcDbSymbolTable
 70
     1
  0
VPORT
  5
29
330
8
100
AcDbSymbolTableRecord
100
AcDbViewportTableRecord
  2
*Active
 70
     0
 10
0.0
 20
0.0
 11
1.0
 21
1.0
 12
5.5
 22
4.25
 13
0.0
 23
0.0
 14
0.5
 24
0.5
 15
0.5
 25
0.5
 16
0.0
 26
0.0
 36
1.0
 17
0.0
 27
0.0
 37
0.0
 40
8.5
 41
1.2941176471
 42
50.0
 43
0.0
 44
0.0
 50
0.0
 51
0.0
 71
     0
 72
  2000
 73
     1
 74
     3
 75
     0
 76
     0
 77
     0
 78
     0
281
     0
 65
     1
110
0.0
120
0.0
130
0.0
111
1.0
121
0.0
131
0.0
112
0.0
122
1.0
132
0.0
 79
     0
146
0.0
348
2F
 60
     3
 61
     5
292
     1
282
     1
141
0.0
142
0.0
 63
   250
361
6D
  0
ENDTAB
  0
TABLE
  2
LTYPE
  5
5
330
0
100
AcDbSymbolTable
 70
     6
  0
LTYPE
  5
14
330
5
100
AcDbSymbolTableRecord
100
AcDbLinetypeTableRecord
  2
ByBlock
 70
     0
  3

 72
    65
 73
     0
 40
0.0
  0
LTYPE
  5
15
330
5
100
AcDbSymbolTableRecord
100
AcDbLinetypeTableRecord
  2
ByLayer
 70
     0
  3

 72
    65
 73
     0
 40
0.0
  0
LTYPE
  5
16
330
5
100
AcDbSymbolTableRecord
100
AcDbLinetypeTableRecord
  2
Continuous
 70
     0
  3
Solid line
 72
    65
 73
     0
 40
0.0
  0
LTYPE
  5
6E
330
5
100
AcDbSymbolTableRecord
100
AcDbLinetypeTableRecord
  2
HIDDEN
 70
     0
  3
Hidden __ __ __ __ __ __ __ __ __ __ __ __ __ __
 72
    65
 73
     2
 40
0.075
 49
0.05
 74
     0
 49
-0.025
 74
     0
  0
LTYPE
  5
6F
330
5
100
AcDbSymbolTableRecord
100
AcDbLinetypeTableRecord
  2
PHANTOM
 70
     0
  3
Phantom ______  __  __  ______  __  __  ______
 72
    65
 73
     6
 40
0.5
 49
0.25
 74
     0
 49
-0.05
 74
     0
 49
0.05
 74
     0
 49
-0.05
 74
     0
 49
0.05
 74
     0
 49
-0.05
 74
     0
  0
LTYPE
  5
70
330
5
100
AcDbSymbolTableRecord
100
AcDbLinetypeTableRecord
  2
CENTER
 70
     0
  3
Center ____ _ ____ _ ____ _ ____ _ ____ _ ____
 72
    65
 73
     4
 40
0.4
 49
0.25
 74
     0
 49
-0.05
 74
     0
 49
0.05
 74
     0
 49
-0.05
 74
     0
  0
LTYPE
  5
71
330
5
100
AcDbSymbolTableRecord
100
AcDbLinetypeTableRecord
  2
CENTERX2
 70
     0
  3
Center (2x) ________  __  ________  __  _____
 72
    65
 73
     4
 40
0.8
 49
0.5
 74
     0
 49
-0.1
 74
     0
 49
0.1
 74
     0
 49
-0.1
 74
     0
  0
LTYPE
  5
72
330
5
100
AcDbSymbolTableRecord
100
AcDbLinetypeTableRecord
  2
DOT2
 70
     0
  3
Dot (.5x) ........................................
 72
    65
 73
     2
 40
0.025
 49
0.0
 74
     0
 49
-0.025
 74
     0
  0
ENDTAB
  0
TABLE
  2
LAYER
  5
2
330
0
100
AcDbSymbolTable
 70
     2
  0
LAYER
  5
10
330
2
100
AcDbSymbolTableRecord
100
AcDbLayerTableRecord
  2
0
 70
     0
 62
     7
  6
Continuous
370
    -3
390
F
347
46
348
0
  0
LAYER
  5
73
330
2
100
AcDbSymbolTableRecord
100
AcDbLayerTableRecord
  2
FORMAT
 70
     0
 62
     7
  6
Continuous
370
    -3
390
F
347
46
348
0
  0
ENDTAB
  0
TABLE
  2
STYLE
  5
3
330
0
100
AcDbSymbolTable
 70
     1
  0
STYLE
  5
11
330
3
100
AcDbSymbolTableRecord
100
AcDbTextStyleTableRecord
  2
Standard
 70
     0
 40
0.0
 41
1.0
 50
0.0
 71
     0
 42
0.1377952756
  3
txt
  4

  0
ENDTAB
  0
TABLE
  2
VIEW
  5
6
330
0
100
AcDbSymbolTable
 70
     0
  0
ENDTAB
  0
TABLE
  2
UCS
  5
7
330
0
100
AcDbSymbolTable
 70
     0
  0
ENDTAB
  0
TABLE
  2
APPID
  5
9
330
0
100
AcDbSymbolTable
 70
     1
  0
APPID
  5
12
330
9
100
AcDbSymbolTableRecord
100
AcDbRegAppTableRecord
  2
ACAD
 70
     0
  0
ENDTAB
  0
TABLE
  2
DIMSTYLE
  5
A
330
0
100
AcDbSymbolTable
 70
     1
100
AcDbDimStyleTable
  0
DIMSTYLE
105
27
330
A
100
AcDbSymbolTableRecord
100
AcDbDimStyleTableRecord
  2
Standard
 70
     0
178
     0
340
11
  0
ENDTAB
  0
TABLE
  2
BLOCK_RECORD
  5
1
330
0
100
AcDbSymbolTable
 70
     3
  0
BLOCK_RECORD
  5
1F
330
1
100
AcDbSymbolTableRecord
100
AcDbBlockTableRecord
  2
*Model_Space
340
22
 70
     0
280
     1
281
     0
  0
BLOCK_RECORD
  5
1B
330
1
100
AcDbSymbolTableRecord
100
AcDbBlockTableRecord
  2
*Paper_Space
340
1E
 70
     0
280
     1
281
     0
  0
BLOCK_RECORD
  5
23
330
1
100
AcDbSymbolTableRecord
100
AcDbBlockTableRecord
  2
*Paper_Space0
340
26
 70
     0
280
     1
281
     0
  0
BLOCK_RECORD
  5
D0
330
1
100
AcDbSymbolTableRecord
100
AcDbBlockTableRecord
  2
*Paper_Space1
340
D1
 70
     0
280
     1
281
     0
  0
BLOCK_RECORD
  5
25C
330
1
100
AcDbSymbolTableRecord
100
AcDbBlockTableRecord
  2
*Paper_Space2
340
25D
 70
     0
280
     1
281
     0
  0
ENDTAB
  0
ENDSEC
  0
SECTION
  2
BLOCKS
  0
BLOCK
  5
20
330
1F
100
AcDbEntity
  8
0
100
AcDbBlockBegin
  2
*Model_Space
 70
     0
 10
0.0
 20
0.0
 30
0.0
  3
*Model_Space
  1

  0
ENDBLK
  5
21
330
1F
100
AcDbEntity
  8
0
100
AcDbBlockEnd
  0
BLOCK
  5
1C
330
1B
100
AcDbEntity
 67
     1
  8
0
100
AcDbBlockBegin
  2
*Paper_Space
 70
     0
 10
0.0
 20
0.0
 30
0.0
  3
*Paper_Space
  1

  0
ENDBLK
  5
1D
330
1B
100
AcDbEntity
 67
     1
  8
0
100
AcDbBlockEnd
  0
BLOCK
  5
24
330
23
100
AcDbEntity
  8
0
100
AcDbBlockBegin
  2
*Paper_Space0
 70
     0
 10
0.0
 20
0.0
 30
0.0
  3
*Paper_Space0
  1

  0
LINE
  5
BE
330
23
100
AcDbEntity
  8
0
  6
Continuous
 62
     7
370
    25
100
AcDbLine
 10
6.1700306241
 20
0.17
 30
0.0
 11
0.1700306241
 21
0.17
 31
0.0
  0
LINE
  5
BF
330
23
100
AcDbEntity
  8
0
  6
Continuous
 62
     7
370
    25
100
AcDbLine
 10
0.1700306241
 20
0.17
 30
0.0
 11
0.1700306241
 21
0.545
 31
0.0
  0
LINE
  5
C0
330
23
100
AcDbEntity
  8
0
  6
Continuous
 62
     7
370
    25
100
AcDbLine
 10
6.1700306241
 20
0.545
 30
0.0
 11
6.1700306241
 21
0.17
 31
0.0
  0
LINE
  5
C1
330
23
100
AcDbEntity
  8
0
  6
Continuous
 62
     7
370
    25
100
AcDbLine
 10
0.1700306241
 20
0.545
 30
0.0
 11
6.1700306241
 21
0.545
 31
0.0
  0
LINE
  5
C2
330
23
100
AcDbEntity
  8
0
  6
Continuous
 62
     7
370
    25
100
AcDbLine
 10
6.1700306241
 20
2.048
 30
0.0
 11
0.1700306241
 21
2.048
 31
0.0
  0
CIRCLE
  5
C3
330
23
100
AcDbEntity
  8
0
  6
Continuous
 62
     7
370
    25
100
AcDbCircle
 10
5.7247806241
 20
1.357
 30
0.0
 40
0.0394999999999999
  0
LINE
  5
C4
330
23
100
AcDbEntity
  8
0
  6
Continuous
 62
     7
370
    25
100
AcDbLine
 10
0.1700306241
 20
0.545
 30
0.0
 11
0.1700306241
 21
2.048
 31
0.0
  0
LINE
  5
C5
330
23
100
AcDbEntity
  8
0
  6
Continuous
 62
     7
370
    25
100
AcDbLine
 10
6.1700306241
 20
0.545
 30
0.0
 11
6.1700306241
 21
2.048
 31
0.0
  0
LINE
  5
C6
330
23
100
AcDbEntity
  8
0
  6
Continuous
 62
     7
370
    25
100
AcDbLine
 10
0.1700306241
 20
2.108
 30
0.0
 11
6.1700306241
 21
2.108
 31
0.0
  0
LINE
  5
C7
330
23
100
AcDbEntity
  8
0
  6
Continuous
 62
     7
370
    25
100
AcDbLine
 10
0.1700306241
 20
2.048
 30
0.0
 11
0.1700306241
 21
2.108
 31
0.0
  0
LINE
  5
C8
330
23
100
AcDbEntity
  8
0
  6
Continuous
 62
     7
370
    25
100
AcDbLine
 10
6.1700306241
 20
2.108
 30
0.0
 11
6.1700306241
 21
2.048
 31
0.0
  0
LINE
  5
C9
330
23
100
AcDbEntity
  8
0
  6
Continuous
 62
     7
370
    25
100
AcDbLine
 10
5.7607278428
 20
1.3541187889
 30
0.0
 11
5.7516893129
 21
1.3541187889
 31
0.0
  0
ARC
  5
CA
330
23
100
AcDbEntity
  8
0
  6
Continuous
 62
     7
370
    25
100
AcDbCircle
 10
5.7247806241
 20
1.357
 30
0.0
 40
0.0360625
100
AcDbArc
 50
4.5825265681
 51
355.4174734319
  0
LINE
  5
CB
330
23
100
AcDbEntity
  8
0
  6
Continuous
 62
     7
370
    25
100
AcDbLine
 10
5.7516893129
 20
1.3598812111
 30
0.0
 11
5.7607278428
 21
1.3598812111
 31
0.0
  0
ARC
  5
CC
330
23
100
AcDbEntity
  8
0
  6
Continuous
 62
     7
370
    25
100
AcDbCircle
 10
5.7247806241
 20
1.357
 30
0.0
 40
0.0270625000000008
100
AcDbArc
 50
6.1115822941
 51
353.8884177059
  0
ARC
  5
CD
330
23
100
AcDbEntity
  8
0
  6
Continuous
 62
     7
370
    25
100
AcDbCircle
 10
5.7247806241
 20
1.357
 30
0.0
 40
0.0390625000000005
100
AcDbArc
 50
4.2299209107
 51
355.7700790893
  0
LINE
  5
CE
330
23
100
AcDbEntity
  8
0
  6
Continuous
 62
     7
370
    25
100
AcDbLine
 10
5.7637367216
 20
1.3598812111
 30
0.0
 11
5.7607278428
 21
1.3598812111
 31
0.0
  0
LINE
  5
CF
330
23
100
AcDbEntity
  8
0
  6
Continuous
 62
     7
370
    25
100
AcDbLine
 10
5.7607278428
 20
1.3541187889
 30
0.0
 11
5.7637367216
 21
1.3541187889
 31
0.0
  0
ENDBLK
  5
25
330
23
100
AcDbEntity
  8
0
100
AcDbBlockEnd
  0
BLOCK
  5
D2
330
D0
100
AcDbEntity
  8
0
100
AcDbBlockBegin
  2
*Paper_Space1
 70
     0
 10
0.0
 20
0.0
 30
0.0
  3
*Paper_Space1
  1

  0
LINE
  5
D4
330
D0
100
AcDbEntity
  8
0
  6
Continuous
 62
     7
370
    25
100
AcDbLine
 10
2.199607316
 20
1.7492972441
 30
0.0
 11
2.2033452563
 21
1.7492972441
 31
0.0
  0
LINE
  5
D5
330
D0
100
AcDbEntity
  8
0
  6
Continuous
 62
     7
370
    25
100
AcDbLine
 10
1.3866567122
 20
1.7492972441
 30
0.0
 11
1.3903948874
 21
1.7492972441
 31
0.0
  0
LINE
  5
D6
330
D0
100
AcDbEntity
  8
0
  6
Continuous
 62
     7
370
    25
100
AcDbLine
 10
1.3903948421
 20
1.8742972441
 30
0.0
 11
1.346630627
 21
1.8742972441
 31
0.0
  0
LINE
  5
D7
330
D0
100
AcDbEntity
  8
0
  6
Continuous
 62
     7
370
    25
100
AcDbLine
 10
2.243393656
 20
1.8742972441
 30
0.0
 11
2.1996073379
 21
1.8742972441
 31
0.0
  0
LINE
  5
D8
330
D0
100
AcDbEntity
  8
0
  6
Continuous
 62
     7
370
    25
100
AcDbLine
 10
1.3903946525
 20
1.4737066929
 30
0.0
 11
1.3866567122
 21
1.4737066929
 31
0.0
  0
LINE
  5
D9
330
D0
100
AcDbEntity
  8
0
  6
Continuous
 62
     7
370
    25
100
AcDbLine
 10
2.2033452563
 20
1.4737066929
 30
0.0
 11
2.1996070811
 21
1.4737066929
 31
0.0
  0
LINE
  5
DA
330
D0
100
AcDbEntity
  8
0
  6
Continuous
 62
     7
370
    25
100
AcDbLine
 10
2.1996071264
 20
1.3487066929
 30
0.0
 11
2.2433713415
 21
1.3487066929
 31
0.0
  0
LINE
  5
DB
330
D0
100
AcDbEntity
  8
0
  6
Continuous
 62
     7
370
    25
100
AcDbLine
 10
1.3466083125
 20
1.3487066929
 30
0.0
 11
1.3903946307
 21
1.3487066929
 31
0.0
  0
LINE
  5
DC
330
D0
100
AcDbEntity
  8
0
  6
Continuous
 62
     7
370
    25
100
AcDbLine
 10
1.3903946525
 20
4.5907066929
 30
0.0
 11
1.3866567122
 21
4.5907066929
 31
0.0
  0
LINE
  5
DD
330
D0
100
AcDbEntity
  8
0
  6
Continuous
 62
     7
370
    25
100
AcDbLine
 10
2.2033452563
 20
4.5907066929
 30
0.0
 11
2.1996070811
 21
4.5907066929
 31
0.0
  0
LINE
  5
DE
330
D0
100
AcDbEntity
  8
0
  6
Continuous
 62
     7
370
    25
100
AcDbLine
 10
2.1996071264
 20
4.4657066929
 30
0.0
 11
2.2433713415
 21
4.4657066929
 31
0.0
  0
LINE
  5
DF
330
D0
100
AcDbEntity
  8
0
  6
Continuous
 62
     7
370
    25
100
AcDbLine
 10
1.3466083125
 20
4.4657066929
 30
0.0
 11
1.3903946307
 21
4.4657066929
 31
0.0
  0
LINE
  5
E0
330
D0
100
AcDbEntity
  8
0
  6
Continuous
 62
     7
370
    25
100
AcDbLine
 10
2.199607316
 20
4.8662972441
 30
0.0
 11
2.2033452563
 21
4.8662972441
 31
0.0
  0
LINE
  5
E1
330
D0
100
AcDbEntity
  8
0
  6
Continuous
 62
     7
370
    25
100
AcDbLine
 10
1.3866567122
 20
4.8662972441
 30
0.0
 11
1.3903948874
 21
4.8662972441
 31
0.0
  0
LINE
  5
E2
330
D0
100
AcDbEntity
  8
0
  6
Continuous
 62
     7
370
    25
100
AcDbLine
 10
1.3903948421
 20
4.9912972441
 30
0.0
 11
1.346630627
 21
4.9912972441
 31
0.0
  0
LINE
  5
E3
330
D0
100
AcDbEntity
  8
0
  6
Continuous
 62
     7
370
    25
100
AcDbLine
 10
2.243393656
 20
4.9912972441
 30
0.0
 11
2.1996073379
 21
4.9912972441
 31
0.0
  0
LINE
  5
E4
330
D0
100
AcDbEntity
  8
0
  6
Continuous
 62
     7
370
    25
100
AcDbLine
 10
1.3236153425
 20
5.9192519685
 30
0.0
 11
2.266386626
 21
5.9192519685
 31
0.0
  0
LINE
  5
E5
330
D0
100
AcDbEntity
  8
0
  6
Continuous
 62
     7
370
    25
100
AcDbLine
 10
1.3414177801
 20
5.8572519685
 30
0.0
 11
2.2485841884
 21
5.8572519685
 31
0.0
  0
LINE
  5
E6
330
D0
100
AcDbEntity
  8
0
  6
Continuous
 62
     7
370
    25
100
AcDbLine
 10
2.2485841884
 20
3.5997519685
 30
0.0
 11
1.3414177801
 21
3.5997519685
 31
0.0
  0
LINE
  5
E7
330
D0
100
AcDbEntity
  8
0
  6
Continuous
 62
     7
370
    25
100
AcDbLine
 10
2.266386626
 20
3.5377519685
 30
0.0
 11
1.3236153425
 21
3.5377519685
 31
0.0
  0
LWPOLYLINE
  5
E8
330
D0
100
AcDbEntity
  8
0
  6
Continuous
 62
     7
370
    25
100
AcDbPolyline
 90
       62
 70
   128
 43
0.0
 10
2.1996002337
 20
1.7492972441
 10
2.1965448522
 20
1.7498321408
 10
2.1934894707
 20
1.7514652329
 10
2.1906977979
 20
1.7539952587
 10
2.1880664869
 20
1.7574133497
 10
2.186444057
 20
1.7601062056
 10
2.1849327275
 20
1.7630929152
 10
2.1835190373
 20
1.7663863346
 10
2.1822292456
 20
1.7699105393
 10
2.1807797495
 20
1.774642965
 10
2.1795295877
 20
1.7796450265
 10
2.1784652263
 20
1.7849448375
 10
2.1776053633
 20
1.7904284277
 10
2.1769577975
 20
1.795969159
 10
2.1765073207
 20
1.801617311
 10
2.1762526797
 20
1.8074024077
 10
2.1762009558
 20
1.8132376875
 10
2.1763954788
 20
1.819964981
 10
2.176868305
 20
1.8266826631
 10
2.1776432066
 20
1.8334417733
 10
2.1787297445
 20
1.8400864001
 10
2.1797086264
 20
1.8447332484
 10
2.1808621462
 20
1.8492473003
 10
2.1822158976
 20
1.8536444438
 10
2.1837656158
 20
1.8578218723
 10
2.1864283149
 20
1.8634596872
 10
2.1879492918
 20
1.8660027087
 10
2.1895871847
 20
1.8682884993
 10
2.1924126057
 20
1.8712768864
 10
2.1955290299
 20
1.8733443542
 10
2.1986962746
 20
1.8742506058
 10
2.2020038729
 20
1.8739667372
 10
2.2048708885
 20
1.8726916197
 10
2.2076721075
 20
1.8704620249
 10
2.2103421324
 20
1.8673244802
 10
2.2128143541
 20
1.8633806896
 10
2.2144249478
 20
1.8601578292
 10
2.2159013146
 20
1.856641121
 10
2.2172576166
 20
1.8528149047
 10
2.2184695537
 20
1.8487659745
 10
2.219784802
 20
1.8434246944
 10
2.2208746197
 20
1.8378357405
 10
2.2217504721
 20
1.8319641528
 10
2.2223956542
 20
1.825934247
 10
2.222804032
 20
1.8199124599
 10
2.2229899499
 20
1.8138133093
 10
2.222949309
 20
1.8076003179
 10
2.2226745448
 20
1.8013760105
 10
2.2221013311
 20
1.7946230367
 10
2.2212310593
 20
1.7879452955
 10
2.2200250316
 20
1.7812897287
 10
2.2184746537
 20
1.7748470886
 10
2.2173418611
 20
1.7710397055
 10
2.216067279
 20
1.767387982
 10
2.2146277211
 20
1.7638851357
 10
2.2130326342
 20
1.7606175059
 10
2.2102739874
 20
1.7561763591
 10
2.2087369875
 20
1.7542572076
 10
2.2071096335
 20
1.7526021079
 10
2.2042588235
 20
1.7505480067
 10
2.2011935024
 20
1.7494422454
 10
2.1996002337
 20
1.7492972441
  0
LWPOLYLINE
  5
E9
330
D0
100
AcDbEntity
  8
0
  6
Continuous
 62
     7
370
    25
100
AcDbPolyline
 90
       62
 70
   128
 43
0.0
 10
1.3904017348
 20
1.7492972441
 10
1.3873467828
 20
1.7498320113
 10
1.3842918308
 20
1.7514647891
 10
1.3815005478
 20
1.7539944574
 10
1.3788696231
 20
1.7574121957
 10
1.3772476514
 20
1.7601044662
 10
1.3757367581
 20
1.7630905133
 10
1.3743234833
 20
1.7663831826
 10
1.3730340732
 20
1.7699065587
 10
1.3715847232
 20
1.7746388217
 10
1.3703347059
 20
1.779640703
 10
1.3692704726
 20
1.7849402889
 10
1.3684107007
 20
1.7904236057
 10
1.3677631423
 20
1.7959643261
 10
1.3673126289
 20
1.8016124394
 10
1.3670578957
 20
1.807397447
 10
1.3670060132
 20
1.8132326306
 10
1.3672003562
 20
1.8199616622
 10
1.3676730609
 20
1.8266811171
 10
1.3684479146
 20
1.8334420519
 10
1.3695345085
 20
1.8400885119
 10
1.3705130665
 20
1.8447347143
 10
1.371666202
 20
1.8492481903
 10
1.3730195077
 20
1.8536448154
 10
1.3745687395
 20
1.8578218171
 10
1.3772305593
 20
1.8634589701
 10
1.3787510666
 20
1.866001764
 10
1.3803884788
 20
1.8682874068
 10
1.3832132742
 20
1.8712758771
 10
1.3863290815
 20
1.873343619
 10
1.3894957461
 20
1.8742503955
 10
1.3928027787
 20
1.8739674628
 10
1.3956698171
 20
1.8726933195
 10
1.398471145
 20
1.8704648607
 10
1.4011418098
 20
1.8673280392
 10
1.4036147366
 20
1.8633848248
 10
1.4052257842
 20
1.8601624339
 10
1.4067026294
 20
1.8566461241
 10
1.4080594315
 20
1.8528202247
 10
1.4092718707
 20
1.8487715156
 10
1.4105874466
 20
1.843431671
 10
1.4116776591
 20
1.8378441076
 10
1.4125539596
 20
1.831973855
 10
1.4131996193
 20
1.8259451984
 10
1.413608468
 20
1.8199248076
 10
1.4137948833
 20
1.813826976
 10
1.4137547707
 20
1.8076152254
 10
1.4134805641
 20
1.8013920799
 10
1.4129080774
 20
1.7946409515
 10
1.4120386696
 20
1.7879649245
 10
1.4108337213
 20
1.7813109724
 10
1.4092846829
 20
1.7748696418
 10
1.4081517657
 20
1.771059385
 10
1.406876927
 20
1.7674048252
 10
1.4054369684
 20
1.7638991526
 10
1.4038413402
 20
1.7606287799
 10
1.4010820832
 20
1.7561843649
 10
1.3995446861
 20
1.7542636085
 10
1.3979168658
 20
1.7526069605
 10
1.395065792
 20
1.750550897
 10
1.3920000594
 20
1.7494431652
 10
1.3904017348
 20
1.7492972441
  0
LWPOLYLINE
  5
EA
330
D0
100
AcDbEntity
  8
0
  6
Continuous
 62
     7
370
    25
100
AcDbPolyline
 90
       62
 70
   128
 43
0.0
 10
1.3904017348
 20
1.4737066929
 10
1.3934571163
 20
1.4731717962
 10
1.3965124978
 20
1.4715387041
 10
1.3993041706
 20
1.4690086783
 10
1.4019354816
 20
1.4655905873
 10
1.4035579115
 20
1.4628977314
 10
1.405069241
 20
1.4599110218
 10
1.4064829312
 20
1.4566176024
 10
1.4077727229
 20
1.4530933977
 10
1.409222219
 20
1.448360972
 10
1.4104723808
 20
1.4433589105
 10
1.4115367422
 20
1.4380590995
 10
1.4123966052
 20
1.4325755093
 10
1.413044171
 20
1.427034778
 10
1.4134946478
 20
1.421386626
 10
1.4137492888
 20
1.4156015293
 10
1.4138010127
 20
1.4097662495
 10
1.4136064897
 20
1.403038956
 10
1.4131336635
 20
1.3963212739
 10
1.4123587619
 20
1.3895621637
 10
1.411272224
 20
1.382917537
 10
1.4102933421
 20
1.3782706886
 10
1.4091398223
 20
1.3737566367
 10
1.4077860709
 20
1.3693594932
 10
1.4062363527
 20
1.3651820647
 10
1.4035736536
 20
1.3595442498
 10
1.4020526767
 20
1.3570012283
 10
1.4004147838
 20
1.3547154378
 10
1.3975893628
 20
1.3517270506
 10
1.3944729386
 20
1.3496595828
 10
1.3913056939
 20
1.3487533312
 10
1.3879980956
 20
1.3490371998
 10
1.38513108
 20
1.3503123173
 10
1.382329861
 20
1.3525419121
 10
1.3796598361
 20
1.3556794568
 10
1.3771876144
 20
1.3596232474
 10
1.3755770207
 20
1.3628461078
 10
1.3741006539
 20
1.366362816
 10
1.3727443519
 20
1.3701890323
 10
1.3715324148
 20
1.3742379625
 10
1.3702171665
 20
1.3795792426
 10
1.3691273488
 20
1.3851681966
 10
1.3682514964
 20
1.3910397842
 10
1.3676063143
 20
1.39706969
 10
1.3671979365
 20
1.4030914771
 10
1.3670120186
 20
1.4091906277
 10
1.3670526595
 20
1.4154036191
 10
1.3673274237
 20
1.4216279265
 10
1.3679006374
 20
1.4283809003
 10
1.3687709092
 20
1.4350586415
 10
1.3699769369
 20
1.4417142083
 10
1.3715273148
 20
1.4481568484
 10
1.3726601074
 20
1.4519642315
 10
1.3739346895
 20
1.455615955
 10
1.3753742474
 20
1.4591188013
 10
1.3769693343
 20
1.4623864311
 10
1.3797279812
 20
1.4668275779
 10
1.3812649811
 20
1.4687467294
 10
1.382892335
 20
1.4704018291
 10
1.385743145
 20
1.4724559303
 10
1.3888084661
 20
1.4735616916
 10
1.3904017348
 20
1.4737066929
  0
LWPOLYLINE
  5
EB
330
D0
100
AcDbEntity
  8
0
  6
Continuous
 62
     7
370
    25
100
AcDbPolyline
 90
       62
 70
   128
 43
0.0
 10
2.1996002337
 20
1.4737066929
 10
2.2026551857
 20
1.4731719257
 10
2.2057101377
 20
1.4715391479
 10
2.2085014207
 20
1.4690094796
 10
2.2111323454
 20
1.4655917413
 10
2.2127543171
 20
1.4628994708
 10
2.2142652104
 20
1.4599134237
 10
2.2156784852
 20
1.4566207544
 10
2.2169678953
 20
1.4530973783
 10
2.2184172453
 20
1.4483651153
 10
2.2196672626
 20
1.443363234
 10
2.2207314959
 20
1.4380636481
 10
2.2215912678
 20
1.4325803313
 10
2.2222388262
 20
1.4270396109
 10
2.2226893396
 20
1.4213914976
 10
2.2229440728
 20
1.41560649
 10
2.2229959553
 20
1.4097713064
 10
2.2228016123
 20
1.4030422748
 10
2.2223289076
 20
1.3963228199
 10
2.2215540539
 20
1.3895618851
 10
2.22046746
 20
1.3829154251
 10
2.219488902
 20
1.3782692227
 10
2.2183357665
 20
1.3737557467
 10
2.2169824608
 20
1.3693591216
 10
2.215433229
 20
1.3651821199
 10
2.2127714092
 20
1.3595449669
 10
2.2112509019
 20
1.357002173
 10
2.2096134897
 20
1.3547165302
 10
2.2067886943
 20
1.3517280599
 10
2.203672887
 20
1.349660318
 10
2.2005062224
 20
1.3487535415
 10
2.1971991898
 20
1.3490364742
 10
2.1943321514
 20
1.3503106175
 10
2.1915308235
 20
1.3525390763
 10
2.1888601587
 20
1.3556758978
 10
2.1863872319
 20
1.3596191123
 10
2.1847761843
 20
1.3628415031
 10
2.1832993391
 20
1.3663578129
 10
2.181942537
 20
1.3701837123
 10
2.1807300978
 20
1.3742324214
 10
2.1794145219
 20
1.379572266
 10
2.1783243094
 20
1.3851598294
 10
2.1774480089
 20
1.391030082
 10
2.1768023492
 20
1.3970587386
 10
2.1763935006
 20
1.4030791294
 10
2.1762070852
 20
1.409176961
 10
2.1762471978
 20
1.4153887116
 10
2.1765214044
 20
1.4216118571
 10
2.1770938911
 20
1.4283629855
 10
2.1779632989
 20
1.4350390125
 10
2.1791682472
 20
1.4416929646
 10
2.1807172856
 20
1.4481342952
 10
2.1818502028
 20
1.451944552
 10
2.1831250415
 20
1.4555991118
 10
2.1845650001
 20
1.4591047844
 10
2.1861606283
 20
1.4623751571
 10
2.1889198853
 20
1.4668195721
 10
2.1904572824
 20
1.4687403285
 10
2.1920851027
 20
1.4703969765
 10
2.1949361765
 20
1.47245304
 10
2.1980019091
 20
1.4735607718
 10
2.1996002337
 20
1.4737066929
  0
LWPOLYLINE
  5
EC
330
D0
100
AcDbEntity
  8
0
  6
Continuous
 62
     7
370
    25
100
AcDbPolyline
 90
       62
 70
   128
 43
0.0
 10
1.3904017348
 20
4.5907066929
 10
1.3934571163
 20
4.5901717962
 10
1.3965124978
 20
4.5885387041
 10
1.3993041706
 20
4.5860086783
 10
1.4019354816
 20
4.5825905873
 10
1.4035579115
 20
4.5798977314
 10
1.405069241
 20
4.5769110218
 10
1.4064829312
 20
4.5736176024
 10
1.4077727229
 20
4.5700933977
 10
1.409222219
 20
4.565360972
 10
1.4104723808
 20
4.5603589105
 10
1.4115367422
 20
4.5550590995
 10
1.4123966052
 20
4.5495755093
 10
1.413044171
 20
4.544034778
 10
1.4134946478
 20
4.538386626
 10
1.4137492888
 20
4.5326015293
 10
1.4138010127
 20
4.5267662495
 10
1.4136064897
 20
4.520038956
 10
1.4131336635
 20
4.5133212739
 10
1.4123587619
 20
4.5065621637
 10
1.411272224
 20
4.499917537
 10
1.4102933421
 20
4.4952706886
 10
1.4091398223
 20
4.4907566367
 10
1.4077860709
 20
4.4863594932
 10
1.4062363527
 20
4.4821820647
 10
1.4035736536
 20
4.4765442498
 10
1.4020526767
 20
4.4740012283
 10
1.4004147838
 20
4.4717154378
 10
1.3975893628
 20
4.4687270506
 10
1.3944729386
 20
4.4666595828
 10
1.3913056939
 20
4.4657533312
 10
1.3879980956
 20
4.4660371998
 10
1.38513108
 20
4.4673123173
 10
1.382329861
 20
4.4695419121
 10
1.3796598361
 20
4.4726794568
 10
1.3771876144
 20
4.4766232474
 10
1.3755770207
 20
4.4798461078
 10
1.3741006539
 20
4.483362816
 10
1.3727443519
 20
4.4871890323
 10
1.3715324148
 20
4.4912379625
 10
1.3702171665
 20
4.4965792426
 10
1.3691273488
 20
4.5021681966
 10
1.3682514964
 20
4.5080397842
 10
1.3676063143
 20
4.51406969
 10
1.3671979365
 20
4.5200914771
 10
1.3670120186
 20
4.5261906277
 10
1.3670526595
 20
4.5324036191
 10
1.3673274237
 20
4.5386279265
 10
1.3679006374
 20
4.5453809003
 10
1.3687709092
 20
4.5520586415
 10
1.3699769369
 20
4.5587142083
 10
1.3715273148
 20
4.5651568484
 10
1.3726601074
 20
4.5689642315
 10
1.3739346895
 20
4.572615955
 10
1.3753742474
 20
4.5761188013
 10
1.3769693343
 20
4.5793864311
 10
1.3797279812
 20
4.5838275779
 10
1.3812649811
 20
4.5857467294
 10
1.382892335
 20
4.5874018291
 10
1.385743145
 20
4.5894559303
 10
1.3888084661
 20
4.5905616916
 10
1.3904017348
 20
4.5907066929
  0
LWPOLYLINE
  5
ED
330
D0
100
AcDbEntity
  8
0
  6
Continuous
 62
     7
370
    25
100
AcDbPolyline
 90
       62
 70
   128
 43
0.0
 10
2.1996002337
 20
4.5907066929
 10
2.2026551857
 20
4.5901719257
 10
2.2057101377
 20
4.5885391479
 10
2.2085014207
 20
4.5860094796
 10
2.2111323454
 20
4.5825917413
 10
2.2127543171
 20
4.5798994708
 10
2.2142652104
 20
4.5769134237
 10
2.2156784852
 20
4.5736207544
 10
2.2169678953
 20
4.5700973783
 10
2.2184172453
 20
4.5653651153
 10
2.2196672626
 20
4.560363234
 10
2.2207314959
 20
4.5550636481
 10
2.2215912678
 20
4.5495803313
 10
2.2222388262
 20
4.5440396109
 10
2.2226893396
 20
4.5383914976
 10
2.2229440728
 20
4.53260649
 10
2.2229959553
 20
4.5267713064
 10
2.2228016123
 20
4.5200422748
 10
2.2223289076
 20
4.5133228199
 10
2.2215540539
 20
4.5065618851
 10
2.22046746
 20
4.4999154251
 10
2.219488902
 20
4.4952692227
 10
2.2183357665
 20
4.4907557467
 10
2.2169824608
 20
4.4863591216
 10
2.215433229
 20
4.4821821199
 10
2.2127714092
 20
4.4765449669
 10
2.2112509019
 20
4.474002173
 10
2.2096134897
 20
4.4717165302
 10
2.2067886943
 20
4.4687280599
 10
2.203672887
 20
4.466660318
 10
2.2005062224
 20
4.4657535415
 10
2.1971991898
 20
4.4660364742
 10
2.1943321514
 20
4.4673106175
 10
2.1915308235
 20
4.4695390763
 10
2.1888601587
 20
4.4726758978
 10
2.1863872319
 20
4.4766191123
 10
2.1847761843
 20
4.4798415031
 10
2.1832993391
 20
4.4833578129
 10
2.181942537
 20
4.4871837123
 10
2.1807300978
 20
4.4912324214
 10
2.1794145219
 20
4.496572266
 10
2.1783243094
 20
4.5021598294
 10
2.1774480089
 20
4.508030082
 10
2.1768023492
 20
4.5140587386
 10
2.1763935006
 20
4.5200791294
 10
2.1762070852
 20
4.526176961
 10
2.1762471978
 20
4.5323887116
 10
2.1765214044
 20
4.5386118571
 10
2.1770938911
 20
4.5453629855
 10
2.1779632989
 20
4.5520390125
 10
2.1791682472
 20
4.5586929646
 10
2.1807172856
 20
4.5651342952
 10
2.1818502028
 20
4.568944552
 10
2.1831250415
 20
4.5725991118
 10
2.1845650001
 20
4.5761047844
 10
2.1861606283
 20
4.5793751571
 10
2.1889198853
 20
4.5838195721
 10
2.1904572824
 20
4.5857403285
 10
2.1920851027
 20
4.5873969765
 10
2.1949361765
 20
4.58945304
 10
2.1980019091
 20
4.5905607718
 10
2.1996002337
 20
4.5907066929
  0
LWPOLYLINE
  5
EE
330
D0
100
AcDbEntity
  8
0
  6
Continuous
 62
     7
370
    25
100
AcDbPolyline
 90
       62
 70
   128
 43
0.0
 10
2.1996002337
 20
4.8662972441
 10
2.1965448522
 20
4.8668321408
 10
2.1934894707
 20
4.8684652329
 10
2.1906977979
 20
4.8709952587
 10
2.1880664869
 20
4.8744133497
 10
2.186444057
 20
4.8771062056
 10
2.1849327275
 20
4.8800929152
 10
2.1835190373
 20
4.8833863346
 10
2.1822292456
 20
4.8869105393
 10
2.1807797495
 20
4.891642965
 10
2.1795295877
 20
4.8966450265
 10
2.1784652263
 20
4.9019448375
 10
2.1776053633
 20
4.9074284277
 10
2.1769577975
 20
4.912969159
 10
2.1765073207
 20
4.918617311
 10
2.1762526797
 20
4.9244024077
 10
2.1762009558
 20
4.9302376875
 10
2.1763954788
 20
4.936964981
 10
2.176868305
 20
4.9436826631
 10
2.1776432066
 20
4.9504417733
 10
2.1787297445
 20
4.9570864001
 10
2.1797086264
 20
4.9617332484
 10
2.1808621462
 20
4.9662473003
 10
2.1822158976
 20
4.9706444438
 10
2.1837656158
 20
4.9748218723
 10
2.1864283149
 20
4.9804596872
 10
2.1879492918
 20
4.9830027087
 10
2.1895871847
 20
4.9852884993
 10
2.1924126057
 20
4.9882768864
 10
2.1955290299
 20
4.9903443542
 10
2.1986962746
 20
4.9912506058
 10
2.2020038729
 20
4.9909667372
 10
2.2048708885
 20
4.9896916197
 10
2.2076721075
 20
4.9874620249
 10
2.2103421324
 20
4.9843244802
 10
2.2128143541
 20
4.9803806896
 10
2.2144249478
 20
4.9771578292
 10
2.2159013146
 20
4.973641121
 10
2.2172576166
 20
4.9698149047
 10
2.2184695537
 20
4.9657659745
 10
2.219784802
 20
4.9604246944
 10
2.2208746197
 20
4.9548357405
 10
2.2217504721
 20
4.9489641528
 10
2.2223956542
 20
4.942934247
 10
2.222804032
 20
4.9369124599
 10
2.2229899499
 20
4.9308133093
 10
2.222949309
 20
4.9246003179
 10
2.2226745448
 20
4.9183760105
 10
2.2221013311
 20
4.9116230367
 10
2.2212310593
 20
4.9049452955
 10
2.2200250316
 20
4.8982897287
 10
2.2184746537
 20
4.8918470886
 10
2.2173418611
 20
4.8880397055
 10
2.216067279
 20
4.884387982
 10
2.2146277211
 20
4.8808851357
 10
2.2130326342
 20
4.8776175059
 10
2.2102739874
 20
4.8731763591
 10
2.2087369875
 20
4.8712572076
 10
2.2071096335
 20
4.8696021079
 10
2.2042588235
 20
4.8675480067
 10
2.2011935024
 20
4.8664422454
 10
2.1996002337
 20
4.8662972441
  0
LWPOLYLINE
  5
EF
330
D0
100
AcDbEntity
  8
0
  6
Continuous
 62
     7
370
    25
100
AcDbPolyline
 90
       62
 70
   128
 43
0.0
 10
1.3904017348
 20
4.8662972441
 10
1.3873467828
 20
4.8668320113
 10
1.3842918308
 20
4.8684647891
 10
1.3815005478
 20
4.8709944574
 10
1.3788696231
 20
4.8744121957
 10
1.3772476514
 20
4.8771044662
 10
1.3757367581
 20
4.8800905133
 10
1.3743234833
 20
4.8833831826
 10
1.3730340732
 20
4.8869065587
 10
1.3715847232
 20
4.8916388217
 10
1.3703347059
 20
4.896640703
 10
1.3692704726
 20
4.9019402889
 10
1.3684107007
 20
4.9074236057
 10
1.3677631423
 20
4.9129643261
 10
1.3673126289
 20
4.9186124394
 10
1.3670578957
 20
4.924397447
 10
1.3670060132
 20
4.9302326306
 10
1.3672003562
 20
4.9369616622
 10
1.3676730609
 20
4.9436811171
 10
1.3684479146
 20
4.9504420519
 10
1.3695345085
 20
4.9570885119
 10
1.3705130665
 20
4.9617347143
 10
1.371666202
 20
4.9662481903
 10
1.3730195077
 20
4.9706448154
 10
1.3745687395
 20
4.9748218171
 10
1.3772305593
 20
4.9804589701
 10
1.3787510666
 20
4.983001764
 10
1.3803884788
 20
4.9852874068
 10
1.3832132742
 20
4.9882758771
 10
1.3863290815
 20
4.990343619
 10
1.3894957461
 20
4.9912503955
 10
1.3928027787
 20
4.9909674628
 10
1.3956698171
 20
4.9896933195
 10
1.398471145
 20
4.9874648607
 10
1.4011418098
 20
4.9843280392
 10
1.4036147366
 20
4.9803848248
 10
1.4052257842
 20
4.9771624339
 10
1.4067026294
 20
4.9736461241
 10
1.4080594315
 20
4.9698202247
 10
1.4092718707
 20
4.9657715156
 10
1.4105874466
 20
4.960431671
 10
1.4116776591
 20
4.9548441076
 10
1.4125539596
 20
4.948973855
 10
1.4131996193
 20
4.9429451984
 10
1.413608468
 20
4.9369248076
 10
1.4137948833
 20
4.930826976
 10
1.4137547707
 20
4.9246152254
 10
1.4134805641
 20
4.9183920799
 10
1.4129080774
 20
4.9116409515
 10
1.4120386696
 20
4.9049649245
 10
1.4108337213
 20
4.8983109724
 10
1.4092846829
 20
4.8918696418
 10
1.4081517657
 20
4.888059385
 10
1.406876927
 20
4.8844048252
 10
1.4054369684
 20
4.8808991526
 10
1.4038413402
 20
4.8776287799
 10
1.4010820832
 20
4.8731843649
 10
1.3995446861
 20
4.8712636085
 10
1.3979168658
 20
4.8696069605
 10
1.395065792
 20
4.867550897
 10
1.3920000594
 20
4.8664431652
 10
1.3904017348
 20
4.8662972441
  0
LINE
  5
F0
330
D0
100
AcDbEntity
  8
0
  6
Continuous
 62
     7
370
    25
100
AcDbLine
 10
2.266386626
 20
0.4207519685
 30
0.0
 11
1.3236153425
 21
0.4207519685
 31
0.0
  0
LINE
  5
F1
330
D0
100
AcDbEntity
  8
0
  6
Continuous
 62
     7
370
    25
100
AcDbLine
 10
2.2500878505
 20
0.4827519685
 30
0.0
 11
1.3398827889
 21
0.4827519685
 31
0.0
  0
LINE
  5
F2
330
D0
100
AcDbEntity
  8
0
  6
Continuous
 62
     7
370
    25
100
AcDbLine
 10
1.3236153425
 20
2.8022519685
 30
0.0
 11
2.266386626
 21
2.8022519685
 31
0.0
  0
LINE
  5
F3
330
D0
100
AcDbEntity
  8
0
  6
Continuous
 62
     7
370
    25
100
AcDbLine
 10
1.339914118
 20
2.7402519685
 30
0.0
 11
2.2501191796
 21
2.7402519685
 31
0.0
  0
LINE
  5
F4
330
D0
100
AcDbEntity
  8
0
  6
Continuous
 62
     7
370
    25
100
AcDbLine
 10
1.344929934
 20
6.1500019685
 30
0.0
 11
1.3348977057
 21
6.170003937
 31
0.0
  0
LINE
  5
F5
330
D0
100
AcDbEntity
  8
0
  6
Continuous
 62
     7
370
    25
100
AcDbLine
 10
1.344929934
 20
6.1500019685
 30
0.0
 11
1.344929934
 21
5.9372519685
 31
0.0
  0
LINE
  5
F6
330
D0
100
AcDbEntity
  8
0
  6
Continuous
 62
     7
370
    25
100
AcDbLine
 10
1.3414177801
 20
5.9272519685
 30
0.0
 11
1.344929934
 21
5.9372519685
 31
0.0
  0
LINE
  5
F7
330
D0
100
AcDbEntity
  8
0
  6
Continuous
 62
     7
370
    25
100
AcDbLine
 10
1.3414177801
 20
5.9272519685
 30
0.0
 11
1.3236153425
 21
5.9272519685
 31
0.0
  0
LINE
  5
F8
330
D0
100
AcDbEntity
  8
0
  6
Continuous
 62
     7
370
    25
100
AcDbLine
 10
1.3236153425
 20
5.9272519685
 30
0.0
 11
1.3236153425
 21
5.8572519685
 31
0.0
  0
LINE
  5
F9
330
D0
100
AcDbEntity
  8
0
  6
Continuous
 62
     7
370
    25
100
AcDbLine
 10
1.3414177801
 20
5.8572519685
 30
0.0
 11
1.3236153425
 21
5.8572519685
 31
0.0
  0
LINE
  5
FA
330
D0
100
AcDbEntity
  8
0
  6
Continuous
 62
     7
370
    25
100
AcDbLine
 10
1.344929934
 20
5.8472519685
 30
0.0
 11
1.3414177801
 21
5.8572519685
 31
0.0
  0
LINE
  5
FB
330
D0
100
AcDbEntity
  8
0
  6
Continuous
 62
     7
370
    25
100
AcDbLine
 10
1.344929934
 20
5.8472519685
 30
0.0
 11
1.344929934
 21
5.0447628379
 31
0.0
  0
LWPOLYLINE
  5
FC
330
D0
100
AcDbEntity
  8
0
  6
Continuous
 62
     7
370
    25
100
AcDbPolyline
 90
        3
 70
   128
 43
0.0
 10
1.344929934
 20
4.4122410991
 10
1.3466486701
 20
4.4647148497
 10
1.3475732642
 20
4.4992042616
  0
ARC
  5
FD
330
D0
100
AcDbEntity
  8
0
  6
Continuous
 62
     7
370
    25
100
AcDbCircle
 10
-7.3747077779
 20
4.7284395172
 30
0.0
 40
8.725289085194976
100
AcDbArc
 50
358.9171703571
 51
1.0836487332
  0
LWPOLYLINE
  5
FE
330
D0
100
AcDbEntity
  8
0
  6
Continuous
 62
     7
370
    25
100
AcDbPolyline
 90
        3
 70
   128
 43
0.0
 10
1.3475723114
 20
4.9577995815
 10
1.3466586513
 20
4.9919536929
 10
1.344929934
 20
5.0447628379
  0
LINE
  5
FF
330
D0
100
AcDbEntity
  8
0
  6
Continuous
 62
     7
370
    25
100
AcDbLine
 10
1.344929934
 20
4.4122410991
 30
0.0
 11
1.344929934
 21
3.6097519685
 31
0.0
  0
LINE
  5
100
330
D0
100
AcDbEntity
  8
0
  6
Continuous
 62
     7
370
    25
100
AcDbLine
 10
1.3414177801
 20
3.5997519685
 30
0.0
 11
1.344929934
 21
3.6097519685
 31
0.0
  0
LINE
  5
101
330
D0
100
AcDbEntity
  8
0
  6
Continuous
 62
     7
370
    25
100
AcDbLine
 10
1.3236153425
 20
3.5997519685
 30
0.0
 11
1.3414177801
 21
3.5997519685
 31
0.0
  0
LINE
  5
102
330
D0
100
AcDbEntity
  8
0
  6
Continuous
 62
     7
370
    25
100
AcDbLine
 10
1.3236153425
 20
3.5297519685
 30
0.0
 11
1.3236153425
 21
3.5997519685
 31
0.0
  0
LINE
  5
103
330
D0
100
AcDbEntity
  8
0
  6
Continuous
 62
     7
370
    25
100
AcDbLine
 10
1.3236153425
 20
3.5297519685
 30
0.0
 11
1.3414177801
 21
3.5297519685
 31
0.0
  0
LINE
  5
104
330
D0
100
AcDbEntity
  8
0
  6
Continuous
 62
     7
370
    25
100
AcDbLine
 10
1.344929934
 20
3.5197519685
 30
0.0
 11
1.3414177801
 21
3.5297519685
 31
0.0
  0
LINE
  5
105
330
D0
100
AcDbEntity
  8
0
  6
Continuous
 62
     7
370
    25
100
AcDbLine
 10
1.344929934
 20
3.5197519685
 30
0.0
 11
1.344929934
 21
2.8172540439
 31
0.0
  0
LINE
  5
106
330
D0
100
AcDbEntity
  8
0
  6
Continuous
 62
     7
370
    25
100
AcDbLine
 10
1.339914118
 20
2.8102519685
 30
0.0
 11
1.344929934
 21
2.8172540439
 31
0.0
  0
LINE
  5
107
330
D0
100
AcDbEntity
  8
0
  6
Continuous
 62
     7
370
    25
100
AcDbLine
 10
1.339914118
 20
2.8102519685
 30
0.0
 11
1.3236153425
 21
2.8102519685
 31
0.0
  0
LINE
  5
108
330
D0
100
AcDbEntity
  8
0
  6
Continuous
 62
     7
370
    25
100
AcDbLine
 10
1.3236153425
 20
2.7402519685
 30
0.0
 11
1.3236153425
 21
2.8102519685
 31
0.0
  0
LINE
  5
109
330
D0
100
AcDbEntity
  8
0
  6
Continuous
 62
     7
370
    25
100
AcDbLine
 10
1.339914118
 20
2.7402519685
 30
0.0
 11
1.3236153425
 21
2.7402519685
 31
0.0
  0
LINE
  5
10A
330
D0
100
AcDbEntity
  8
0
  6
Continuous
 62
     7
370
    25
100
AcDbLine
 10
1.344929934
 20
2.7332498931
 30
0.0
 11
1.339914118
 21
2.7402519685
 31
0.0
  0
LINE
  5
10B
330
D0
100
AcDbEntity
  8
0
  6
Continuous
 62
     7
370
    25
100
AcDbLine
 10
1.344929934
 20
2.7332498931
 30
0.0
 11
1.344929934
 21
1.9277628379
 31
0.0
  0
LWPOLYLINE
  5
10C
330
D0
100
AcDbEntity
  8
0
  6
Continuous
 62
     7
370
    25
100
AcDbPolyline
 90
        3
 70
   128
 43
0.0
 10
1.344929934
 20
1.2952410991
 10
1.3466486701
 20
1.3477148497
 10
1.3475732642
 20
1.3822042616
  0
ARC
  5
10D
330
D0
100
AcDbEntity
  8
0
  6
Continuous
 62
     7
370
    25
100
AcDbCircle
 10
-7.3747077779
 20
1.6114395172
 30
0.0
 40
8.725289085197245
100
AcDbArc
 50
358.9171703571
 51
1.0836487332
  0
LWPOLYLINE
  5
10E
330
D0
100
AcDbEntity
  8
0
  6
Continuous
 62
     7
370
    25
100
AcDbPolyline
 90
        3
 70
   128
 43
0.0
 10
1.3475723114
 20
1.8407995815
 10
1.3466586513
 20
1.8749536929
 10
1.344929934
 20
1.9277628379
  0
LINE
  5
10F
330
D0
100
AcDbEntity
  8
0
  6
Continuous
 62
     7
370
    25
100
AcDbLine
 10
1.344929934
 20
1.2952410991
 30
0.0
 11
1.344929934
 21
0.4897540439
 31
0.0
  0
LINE
  5
110
330
D0
100
AcDbEntity
  8
0
  6
Continuous
 62
     7
370
    25
100
AcDbLine
 10
1.339914118
 20
0.4827519685
 30
0.0
 11
1.344929934
 21
0.4897540439
 31
0.0
  0
LINE
  5
111
330
D0
100
AcDbEntity
  8
0
  6
Continuous
 62
     7
370
    25
100
AcDbLine
 10
1.3236153425
 20
0.4827519685
 30
0.0
 11
1.339914118
 21
0.4827519685
 31
0.0
  0
LINE
  5
112
330
D0
100
AcDbEntity
  8
0
  6
Continuous
 62
     7
370
    25
100
AcDbLine
 10
1.3236153425
 20
0.4827519685
 30
0.0
 11
1.3236153425
 21
0.4127519685
 31
0.0
  0
LINE
  5
113
330
D0
100
AcDbEntity
  8
0
  6
Continuous
 62
     7
370
    25
100
AcDbLine
 10
1.3236153425
 20
0.4127519685
 30
0.0
 11
1.339914118
 21
0.4127519685
 31
0.0
  0
LINE
  5
114
330
D0
100
AcDbEntity
  8
0
  6
Continuous
 62
     7
370
    25
100
AcDbLine
 10
1.344929934
 20
0.4057498931
 30
0.0
 11
1.339914118
 21
0.4127519685
 31
0.0
  0
LINE
  5
115
330
D0
100
AcDbEntity
  8
0
  6
Continuous
 62
     7
370
    25
100
AcDbLine
 10
1.344929934
 20
0.4057498931
 30
0.0
 11
1.344929934
 21
0.1900019685
 31
0.0
  0
LINE
  5
116
330
D0
100
AcDbEntity
  8
0
  6
Continuous
 62
     7
370
    25
100
AcDbLine
 10
1.3348986929
 20
0.1700019685
 30
0.0
 11
1.344929934
 21
0.1900019685
 31
0.0
  0
LINE
  5
117
330
D0
100
AcDbEntity
  8
0
  6
Continuous
 62
     7
370
    25
100
AcDbLine
 10
1.2882948083
 20
0.1700019685
 30
0.0
 11
1.3348986929
 21
0.1700019685
 31
0.0
  0
LINE
  5
118
330
D0
100
AcDbEntity
  8
0
  6
Continuous
 62
     7
370
    25
100
AcDbLine
 10
1.2882948083
 20
6.1700019685
 30
0.0
 11
1.2882948083
 21
0.1700019685
 31
0.0
  0
LINE
  5
119
330
D0
100
AcDbEntity
  8
0
  6
Continuous
 62
     7
370
    25
100
AcDbLine
 10
1.2882948083
 20
6.1700019685
 30
0.0
 11
1.3348986929
 21
6.1700019685
 31
0.0
  0
LINE
  5
11A
330
D0
100
AcDbEntity
  8
0
  6
Continuous
 62
     7
370
    25
100
AcDbLine
 10
2.3017071602
 20
6.1700019685
 30
0.0
 11
2.3017071602
 21
0.1700019685
 31
0.0
  0
LINE
  5
11B
330
D0
100
AcDbEntity
  8
0
  6
Continuous
 62
     7
370
    25
100
AcDbLine
 10
2.2551032756
 20
0.1700019685
 30
0.0
 11
2.3017071602
 21
0.1700019685
 31
0.0
  0
LINE
  5
11C
330
D0
100
AcDbEntity
  8
0
  6
Continuous
 62
     7
370
    25
100
AcDbLine
 10
2.2450720345
 20
0.1900019685
 30
0.0
 11
2.2551032756
 21
0.1700019685
 31
0.0
  0
LINE
  5
11D
330
D0
100
AcDbEntity
  8
0
  6
Continuous
 62
     7
370
    25
100
AcDbLine
 10
2.2450720345
 20
0.1900019685
 30
0.0
 11
2.2450720345
 21
0.4057498931
 31
0.0
  0
LINE
  5
11E
330
D0
100
AcDbEntity
  8
0
  6
Continuous
 62
     7
370
    25
100
AcDbLine
 10
2.2500878505
 20
0.4127519685
 30
0.0
 11
2.2450720345
 21
0.4057498931
 31
0.0
  0
LINE
  5
11F
330
D0
100
AcDbEntity
  8
0
  6
Continuous
 62
     7
370
    25
100
AcDbLine
 10
2.2500878505
 20
0.4127519685
 30
0.0
 11
2.266386626
 21
0.4127519685
 31
0.0
  0
LINE
  5
120
330
D0
100
AcDbEntity
  8
0
  6
Continuous
 62
     7
370
    25
100
AcDbLine
 10
2.266386626
 20
0.4127519685
 30
0.0
 11
2.266386626
 21
0.4827519685
 31
0.0
  0
LINE
  5
121
330
D0
100
AcDbEntity
  8
0
  6
Continuous
 62
     7
370
    25
100
AcDbLine
 10
2.2500878505
 20
0.4827519685
 30
0.0
 11
2.266386626
 21
0.4827519685
 31
0.0
  0
LINE
  5
122
330
D0
100
AcDbEntity
  8
0
  6
Continuous
 62
     7
370
    25
100
AcDbLine
 10
2.2450720345
 20
0.4897540439
 30
0.0
 11
2.2500878505
 21
0.4827519685
 31
0.0
  0
LINE
  5
123
330
D0
100
AcDbEntity
  8
0
  6
Continuous
 62
     7
370
    25
100
AcDbLine
 10
2.2450720345
 20
0.4897540439
 30
0.0
 11
2.2450720345
 21
1.2952410991
 31
0.0
  0
LWPOLYLINE
  5
124
330
D0
100
AcDbEntity
  8
0
  6
Continuous
 62
     7
370
    25
100
AcDbPolyline
 90
        3
 70
   128
 43
0.0
 10
2.2450720345
 20
1.9277628379
 10
2.2433532984
 20
1.8752890873
 10
2.2424287043
 20
1.8407996755
  0
ARC
  5
125
330
D0
100
AcDbEntity
  8
0
  6
Continuous
 62
     7
370
    25
100
AcDbCircle
 10
10.9647097464
 20
1.6115644198
 30
0.0
 40
8.725289085198899
100
AcDbArc
 50
178.9171703571
 51
181.0836487332
  0
LWPOLYLINE
  5
126
330
D0
100
AcDbEntity
  8
0
  6
Continuous
 62
     7
370
    25
100
AcDbPolyline
 90
        3
 70
   128
 43
0.0
 10
2.2424296571
 20
1.3822043555
 10
2.2433433172
 20
1.3480502441
 10
2.2450720345
 20
1.2952410991
  0
LINE
  5
127
330
D0
100
AcDbEntity
  8
0
  6
Continuous
 62
     7
370
    25
100
AcDbLine
 10
2.2450720345
 20
1.9277628379
 30
0.0
 11
2.2450720345
 21
2.7332498931
 31
0.0
  0
LINE
  5
128
330
D0
100
AcDbEntity
  8
0
  6
Continuous
 62
     7
370
    25
100
AcDbLine
 10
2.2500878505
 20
2.7402519685
 30
0.0
 11
2.2450720345
 21
2.7332498931
 31
0.0
  0
LINE
  5
129
330
D0
100
AcDbEntity
  8
0
  6
Continuous
 62
     7
370
    25
100
AcDbLine
 10
2.266386626
 20
2.7402519685
 30
0.0
 11
2.2500878505
 21
2.7402519685
 31
0.0
  0
LINE
  5
12A
330
D0
100
AcDbEntity
  8
0
  6
Continuous
 62
     7
370
    25
100
AcDbLine
 10
2.266386626
 20
2.8102519685
 30
0.0
 11
2.266386626
 21
2.7402519685
 31
0.0
  0
LINE
  5
12B
330
D0
100
AcDbEntity
  8
0
  6
Continuous
 62
     7
370
    25
100
AcDbLine
 10
2.266386626
 20
2.8102519685
 30
0.0
 11
2.2500878505
 21
2.8102519685
 31
0.0
  0
LINE
  5
12C
330
D0
100
AcDbEntity
  8
0
  6
Continuous
 62
     7
370
    25
100
AcDbLine
 10
2.2450720345
 20
2.8172540439
 30
0.0
 11
2.2500878505
 21
2.8102519685
 31
0.0
  0
LINE
  5
12D
330
D0
100
AcDbEntity
  8
0
  6
Continuous
 62
     7
370
    25
100
AcDbLine
 10
2.2450720345
 20
2.8172540439
 30
0.0
 11
2.2450720345
 21
3.5197519685
 31
0.0
  0
LINE
  5
12E
330
D0
100
AcDbEntity
  8
0
  6
Continuous
 62
     7
370
    25
100
AcDbLine
 10
2.2485841884
 20
3.5297519685
 30
0.0
 11
2.2450720345
 21
3.5197519685
 31
0.0
  0
LINE
  5
12F
330
D0
100
AcDbEntity
  8
0
  6
Continuous
 62
     7
370
    25
100
AcDbLine
 10
2.2485841884
 20
3.5297519685
 30
0.0
 11
2.266386626
 21
3.5297519685
 31
0.0
  0
LINE
  5
130
330
D0
100
AcDbEntity
  8
0
  6
Continuous
 62
     7
370
    25
100
AcDbLine
 10
2.266386626
 20
3.5997519685
 30
0.0
 11
2.266386626
 21
3.5297519685
 31
0.0
  0
LINE
  5
131
330
D0
100
AcDbEntity
  8
0
  6
Continuous
 62
     7
370
    25
100
AcDbLine
 10
2.2485841884
 20
3.5997519685
 30
0.0
 11
2.266386626
 21
3.5997519685
 31
0.0
  0
LINE
  5
132
330
D0
100
AcDbEntity
  8
0
  6
Continuous
 62
     7
370
    25
100
AcDbLine
 10
2.2450720345
 20
3.6097519685
 30
0.0
 11
2.2485841884
 21
3.5997519685
 31
0.0
  0
LINE
  5
133
330
D0
100
AcDbEntity
  8
0
  6
Continuous
 62
     7
370
    25
100
AcDbLine
 10
2.2450720345
 20
3.6097519685
 30
0.0
 11
2.2450720345
 21
4.4122410991
 31
0.0
  0
LWPOLYLINE
  5
134
330
D0
100
AcDbEntity
  8
0
  6
Continuous
 62
     7
370
    25
100
AcDbPolyline
 90
        3
 70
   128
 43
0.0
 10
2.2450720345
 20
5.0447628379
 10
2.2433532984
 20
4.9922890873
 10
2.2424287043
 20
4.9577996755
  0
ARC
  5
135
330
D0
100
AcDbEntity
  8
0
  6
Continuous
 62
     7
370
    25
100
AcDbCircle
 10
10.9647097464
 20
4.7285644198
 30
0.0
 40
8.725289085195337
100
AcDbArc
 50
178.9171703571
 51
181.0836487332
  0
LWPOLYLINE
  5
136
330
D0
100
AcDbEntity
  8
0
  6
Continuous
 62
     7
370
    25
100
AcDbPolyline
 90
        3
 70
   128
 43
0.0
 10
2.2424296571
 20
4.4992043555
 10
2.2433433172
 20
4.4650502441
 10
2.2450720345
 20
4.4122410991
  0
LINE
  5
137
330
D0
100
AcDbEntity
  8
0
  6
Continuous
 62
     7
370
    25
100
AcDbLine
 10
2.2450720345
 20
5.0447628379
 30
0.0
 11
2.2450720345
 21
5.8472519685
 31
0.0
  0
LINE
  5
138
330
D0
100
AcDbEntity
  8
0
  6
Continuous
 62
     7
370
    25
100
AcDbLine
 10
2.2485841884
 20
5.8572519685
 30
0.0
 11
2.2450720345
 21
5.8472519685
 31
0.0
  0
LINE
  5
139
330
D0
100
AcDbEntity
  8
0
  6
Continuous
 62
     7
370
    25
100
AcDbLine
 10
2.266386626
 20
5.8572519685
 30
0.0
 11
2.2485841884
 21
5.8572519685
 31
0.0
  0
LINE
  5
13A
330
D0
100
AcDbEntity
  8
0
  6
Continuous
 62
     7
370
    25
100
AcDbLine
 10
2.266386626
 20
5.8572519685
 30
0.0
 11
2.266386626
 21
5.9272519685
 31
0.0
  0
LINE
  5
13B
330
D0
100
AcDbEntity
  8
0
  6
Continuous
 62
     7
370
    25
100
AcDbLine
 10
2.266386626
 20
5.9272519685
 30
0.0
 11
2.2485841884
 21
5.9272519685
 31
0.0
  0
LINE
  5
13C
330
D0
100
AcDbEntity
  8
0
  6
Continuous
 62
     7
370
    25
100
AcDbLine
 10
2.2450720345
 20
5.9372519685
 30
0.0
 11
2.2485841884
 21
5.9272519685
 31
0.0
  0
LINE
  5
13D
330
D0
100
AcDbEntity
  8
0
  6
Continuous
 62
     7
370
    25
100
AcDbLine
 10
2.2450720345
 20
5.9372519685
 30
0.0
 11
2.2450720345
 21
6.1500019685
 31
0.0
  0
LINE
  5
13E
330
D0
100
AcDbEntity
  8
0
  6
Continuous
 62
     7
370
    25
100
AcDbLine
 10
2.2551042628
 20
6.170003937
 30
0.0
 11
2.2450720345
 21
6.1500019685
 31
0.0
  0
LINE
  5
13F
330
D0
100
AcDbEntity
  8
0
  6
Continuous
 62
     7
370
    25
100
AcDbLine
 10
2.2551032756
 20
6.1700019685
 30
0.0
 11
2.3017071602
 21
6.1700019685
 31
0.0
  0
LINE
  5
140
330
D0
100
AcDbEntity
  8
0
  6
Continuous
 62
     7
370
    25
100
AcDbLine
 10
0.6675009843
 20
6.1700019685
 30
0.0
 11
0.6675009843
 21
0.1700019685
 31
0.0
  0
LINE
  5
141
330
D0
100
AcDbEntity
  8
0
  6
Continuous
 62
     7
370
    25
100
AcDbLine
 10
0.6675009843
 20
0.1700019685
 30
0.0
 11
0.6075009843
 21
0.1700019685
 31
0.0
  0
LINE
  5
142
330
D0
100
AcDbEntity
  8
0
  6
Continuous
 62
     7
370
    25
100
AcDbLine
 10
0.6075009843
 20
0.1700019685
 30
0.0
 11
0.6075009843
 21
6.1700019685
 31
0.0
  0
LINE
  5
143
330
D0
100
AcDbEntity
  8
0
  6
Continuous
 62
     7
370
    25
100
AcDbLine
 10
0.6075009843
 20
6.1700019685
 30
0.0
 11
0.6675009843
 21
6.1700019685
 31
0.0
  0
LINE
  5
144
330
D0
100
AcDbEntity
  8
0
  6
Continuous
 62
     7
370
    25
100
AcDbLine
 10
0.6675009843
 20
0.1700019685
 30
0.0
 11
1.2882948083
 21
0.1700019685
 31
0.0
  0
LINE
  5
145
330
D0
100
AcDbEntity
  8
0
  6
Continuous
 62
     7
370
    25
100
AcDbLine
 10
0.6675009843
 20
6.1700019685
 30
0.0
 11
1.2882948083
 21
6.1700019685
 31
0.0
  0
LINE
  5
146
330
D0
100
AcDbEntity
  8
0
  6
Continuous
 62
     7
370
    25
100
AcDbLine
 10
2.9850009843
 20
0.1700019685
 30
0.0
 11
2.9850009843
 21
6.1700019685
 31
0.0
  0
LINE
  5
147
330
D0
100
AcDbEntity
  8
0
  6
Continuous
 62
     7
370
    25
100
AcDbLine
 10
2.3017071602
 20
0.1700019685
 30
0.0
 11
2.9850009843
 21
0.1700019685
 31
0.0
  0
LINE
  5
148
330
D0
100
AcDbEntity
  8
0
  6
Continuous
 62
     7
370
    25
100
AcDbLine
 10
2.3017071602
 20
6.1700019685
 30
0.0
 11
2.9850009843
 21
6.1700019685
 31
0.0
  0
LINE
  5
149
330
D0
100
AcDbEntity
  8
0
  6
Continuous
 62
     7
370
    25
100
AcDbLine
 10
3.0450009843
 20
6.1700019685
 30
0.0
 11
3.0450009843
 21
0.1700019685
 31
0.0
  0
LINE
  5
14A
330
D0
100
AcDbEntity
  8
0
  6
Continuous
 62
     7
370
    25
100
AcDbLine
 10
3.0450009843
 20
0.1700019685
 30
0.0
 11
2.9850009843
 21
0.1700019685
 31
0.0
  0
LINE
  5
14B
330
D0
100
AcDbEntity
  8
0
  6
Continuous
 62
     7
370
    25
100
AcDbLine
 10
2.9850009843
 20
6.1700019685
 30
0.0
 11
3.0450009843
 21
6.1700019685
 31
0.0
  0
LINE
  5
14C
330
D0
100
AcDbEntity
  8
0
  6
Continuous
 62
     7
370
    25
100
AcDbLine
 10
2.2450997092
 20
6.1500019685
 30
0.0
 11
1.344929934
 21
6.1500019685
 31
0.0
  0
LINE
  5
14D
330
D0
100
AcDbEntity
  8
0
  6
Continuous
 62
     7
370
    25
100
AcDbLine
 10
1.3348071905
 20
6.1700019685
 30
0.0
 11
2.2551032756
 21
6.1700019685
 31
0.0
  0
LINE
  5
14E
330
D0
100
AcDbEntity
  8
0
  6
Continuous
 62
     7
370
    25
100
AcDbLine
 10
1.344929934
 20
0.1900019685
 30
0.0
 11
2.2451350829
 21
0.1900019685
 31
0.0
  0
LINE
  5
14F
330
D0
100
AcDbEntity
  8
0
  6
Continuous
 62
     7
370
    25
100
AcDbLine
 10
2.2551032756
 20
0.1700019685
 30
0.0
 11
1.33484689
 21
0.1700019685
 31
0.0
  0
LINE
  5
150
330
D0
100
AcDbEntity
  8
0
  6
Continuous
 62
     7
370
    25
100
AcDbLine
 10
1.344929934
 20
2.8172540439
 30
0.0
 11
2.2450720345
 21
2.8172540439
 31
0.0
  0
LINE
  5
151
330
D0
100
AcDbEntity
  8
0
  6
Continuous
 62
     7
370
    25
100
AcDbLine
 10
2.2500878505
 20
2.8102519685
 30
0.0
 11
1.3398322379
 21
2.8102519685
 31
0.0
  0
LINE
  5
152
330
D0
100
AcDbEntity
  8
0
  6
Continuous
 62
     7
370
    25
100
AcDbLine
 10
2.2450720345
 20
0.4057498931
 30
0.0
 11
1.344929934
 21
0.4057498931
 31
0.0
  0
LINE
  5
153
330
D0
100
AcDbEntity
  8
0
  6
Continuous
 62
     7
370
    25
100
AcDbLine
 10
1.3398404415
 20
0.4127519685
 30
0.0
 11
2.2500878505
 21
0.4127519685
 31
0.0
  0
LINE
  5
154
330
D0
100
AcDbEntity
  8
0
  6
Continuous
 62
     7
370
    25
100
AcDbLine
 10
2.2450720345
 20
2.7332498931
 30
0.0
 11
1.344929934
 21
2.7332498931
 31
0.0
  0
LINE
  5
155
330
D0
100
AcDbEntity
  8
0
  6
Continuous
 62
     7
370
    25
100
AcDbLine
 10
1.344929934
 20
0.4897540439
 30
0.0
 11
2.2450720345
 21
0.4897540439
 31
0.0
  0
LINE
  5
156
330
D0
100
AcDbEntity
  8
0
  6
Continuous
 62
     7
370
    25
100
AcDbLine
 10
1.344929934
 20
5.9372519685
 30
0.0
 11
2.2450720345
 21
5.9372519685
 31
0.0
  0
LINE
  5
157
330
D0
100
AcDbEntity
  8
0
  6
Continuous
 62
     7
370
    25
100
AcDbLine
 10
2.2485841884
 20
5.9272519685
 30
0.0
 11
1.341323064
 21
5.9272519685
 31
0.0
  0
LINE
  5
158
330
D0
100
AcDbEntity
  8
0
  6
Continuous
 62
     7
370
    25
100
AcDbLine
 10
2.2450720345
 20
3.5197519685
 30
0.0
 11
1.344929934
 21
3.5197519685
 31
0.0
  0
LINE
  5
159
330
D0
100
AcDbEntity
  8
0
  6
Continuous
 62
     7
370
    25
100
AcDbLine
 10
1.3413663724
 20
3.5297519685
 30
0.0
 11
2.2485841884
 21
3.5297519685
 31
0.0
  0
CIRCLE
  5
15A
330
D0
100
AcDbEntity
  8
0
  6
Continuous
 62
     7
370
    25
100
AcDbCircle
 10
3.2325009843
 20
5.4200019685
 30
0.0
 40
0.109375
  0
LINE
  5
15B
330
D0
100
AcDbEntity
  8
0
  6
Continuous
 62
     7
370
    25
100
AcDbLine
 10
3.4200009843
 20
6.1700019685
 30
0.0
 11
3.4200009843
 21
0.1700019685
 31
0.0
  0
CIRCLE
  5
15C
330
D0
100
AcDbEntity
  8
0
  6
Continuous
 62
     7
370
    25
100
AcDbCircle
 10
3.2325009843
 20
2.6700019685
 30
0.0
 40
0.109375
  0
CIRCLE
  5
15D
330
D0
100
AcDbEntity
  8
0
  6
Continuous
 62
     7
370
    25
100
AcDbCircle
 10
3.2325009843
 20
0.9200019685
 30
0.0
 40
0.1093750000000008
  0
CIRCLE
  5
15E
330
D0
100
AcDbEntity
  8
0
  6
Continuous
 62
     7
370
    25
100
AcDbCircle
 10
3.2325009843
 20
3.6700019685
 30
0.0
 40
0.109375
  0
LINE
  5
15F
330
D0
100
AcDbEntity
  8
0
  6
Continuous
 62
     7
370
    25
100
AcDbLine
 10
3.4200009843
 20
0.1700019685
 30
0.0
 11
3.0450009843
 21
0.1700019685
 31
0.0
  0
LINE
  5
160
330
D0
100
AcDbEntity
  8
0
  6
Continuous
 62
     7
370
    25
100
AcDbLine
 10
3.0450009843
 20
6.1700019685
 30
0.0
 11
3.4200009843
 21
6.1700019685
 31
0.0
  0
CIRCLE
  5
161
330
D0
100
AcDbEntity
  8
0
  6
Continuous
 62
     7
370
    25
100
AcDbCircle
 10
0.3575009843
 20
3.6700019685
 30
0.0
 40
0.109375
  0
LINE
  5
162
330
D0
100
AcDbEntity
  8
0
  6
Continuous
 62
     7
370
    25
100
AcDbLine
 10
0.1700009843
 20
6.1700019685
 30
0.0
 11
0.1700009843
 21
0.1700019685
 31
0.0
  0
CIRCLE
  5
163
330
D0
100
AcDbEntity
  8
0
  6
Continuous
 62
     7
370
    25
100
AcDbCircle
 10
0.3575009843
 20
0.9200019685
 30
0.0
 40
0.109375
  0
CIRCLE
  5
164
330
D0
100
AcDbEntity
  8
0
  6
Continuous
 62
     7
370
    25
100
AcDbCircle
 10
0.3575009843
 20
2.6700019685
 30
0.0
 40
0.109375
  0
CIRCLE
  5
165
330
D0
100
AcDbEntity
  8
0
  6
Continuous
 62
     7
370
    25
100
AcDbCircle
 10
0.3575009843
 20
5.4200019685
 30
0.0
 40
0.109375
  0
LINE
  5
166
330
D0
100
AcDbEntity
  8
0
  6
Continuous
 62
     7
370
    25
100
AcDbLine
 10
0.6075009843
 20
0.1700019685
 30
0.0
 11
0.1700009843
 21
0.1700019685
 31
0.0
  0
LINE
  5
167
330
D0
100
AcDbEntity
  8
0
  6
Continuous
 62
     7
370
    25
100
AcDbLine
 10
0.1700009843
 20
6.1700019685
 30
0.0
 11
0.6075009843
 21
6.1700019685
 31
0.0
  0
LINE
  5
168
330
D0
100
AcDbEntity
  8
0
  6
Continuous
 62
     7
370
    25
100
AcDbLine
 10
1.5097509843
 20
2.7181447428
 30
0.0
 11
1.5097509843
 21
0.5048591942
 31
0.0
  0
ARC
  5
169
330
D0
100
AcDbEntity
  8
0
  6
Continuous
 62
     7
370
    25
100
AcDbCircle
 10
1.4908874252
 20
0.5079062597
 30
0.0
 40
0.0191080734158579
100
AcDbArc
 50
294.3886169131
 51
350.8241661734
  0
LINE
  5
16A
330
D0
100
AcDbEntity
  8
0
  6
Continuous
 62
     7
370
    25
100
AcDbLine
 10
1.4987775976
 20
2.7325006554
 30
0.0
 11
1.4987775976
 21
0.4905032816
 31
0.0
  0
ARC
  5
16B
330
D0
100
AcDbEntity
  8
0
  6
Continuous
 62
     7
370
    25
100
AcDbCircle
 10
1.4908874252
 20
2.7150976773
 30
0.0
 40
0.0191080734158606
100
AcDbArc
 50
9.1758338266
 51
65.6113830869
  0
LINE
  5
16C
330
D0
100
AcDbEntity
  8
0
  6
Continuous
 62
     7
370
    25
100
AcDbLine
 10
2.0912243709
 20
0.4905032816
 30
0.0
 11
1.4987775976
 21
0.4905032816
 31
0.0
  0
LINE
  5
16D
330
D0
100
AcDbEntity
  8
0
  6
Continuous
 62
     7
370
    25
100
AcDbLine
 10
2.0912243709
 20
2.7325006554
 30
0.0
 11
2.0912243709
 21
0.4905032816
 31
0.0
  0
LINE
  5
16E
330
D0
100
AcDbEntity
  8
0
  6
Continuous
 62
     7
370
    25
100
AcDbLine
 10
2.0912243709
 20
2.7325006554
 30
0.0
 11
1.4987775976
 21
2.7325006554
 31
0.0
  0
ARC
  5
16F
330
D0
100
AcDbEntity
  8
0
  6
Continuous
 62
     7
370
    25
100
AcDbCircle
 10
2.0998805704
 20
2.7145121408
 30
0.0
 40
0.0199628768253152
100
AcDbArc
 50
115.6971863466
 51
169.5155967399
  0
LINE
  5
170
330
D0
100
AcDbEntity
  8
0
  6
Continuous
 62
     7
370
    25
100
AcDbLine
 10
1.5097509843
 20
2.7181447428
 30
0.0
 11
2.0802509843
 21
2.7181447428
 31
0.0
  0
LINE
  5
171
330
D0
100
AcDbEntity
  8
0
  6
Continuous
 62
     7
370
    25
100
AcDbLine
 10
1.5097509843
 20
0.5048591942
 30
0.0
 11
2.0802509843
 21
0.5048591942
 31
0.0
  0
ARC
  5
172
330
D0
100
AcDbEntity
  8
0
  6
Continuous
 62
     7
370
    25
100
AcDbCircle
 10
2.0998805704
 20
0.5084917963
 30
0.0
 40
0.0199628768253159
100
AcDbArc
 50
190.4844032601
 51
244.3028136534
  0
LINE
  5
173
330
D0
100
AcDbEntity
  8
0
  6
Continuous
 62
     7
370
    25
100
AcDbLine
 10
2.0802509843
 20
2.7181447428
 30
0.0
 11
2.0802509843
 21
0.5048591942
 31
0.0
  0
LINE
  5
174
330
D0
100
AcDbEntity
  8
0
  6
Continuous
 62
     7
370
    25
100
AcDbLine
 10
2.0912243709
 20
3.6075032816
 30
0.0
 11
2.0912243709
 21
5.8495006554
 31
0.0
  0
LINE
  5
175
330
D0
100
AcDbEntity
  8
0
  6
Continuous
 62
     7
370
    25
100
AcDbLine
 10
1.4987775976
 20
5.8495006554
 30
0.0
 11
2.0912243709
 21
5.8495006554
 31
0.0
  0
LINE
  5
176
330
D0
100
AcDbEntity
  8
0
  6
Continuous
 62
     7
370
    25
100
AcDbLine
 10
1.4987775976
 20
3.6075032816
 30
0.0
 11
1.4987775976
 21
5.8495006554
 31
0.0
  0
LINE
  5
177
330
D0
100
AcDbEntity
  8
0
  6
Continuous
 62
     7
370
    25
100
AcDbLine
 10
1.4987775976
 20
3.6075032816
 30
0.0
 11
2.0912704486
 21
3.6075032816
 31
0.0
  0
LINE
  5
178
330
D0
100
AcDbEntity
  8
0
  6
Continuous
 62
     7
370
    25
100
AcDbLine
 10
2.0802509843
 20
5.8351447428
 30
0.0
 11
1.5097509843
 21
5.8351447428
 31
0.0
  0
ARC
  5
179
330
D0
100
AcDbEntity
  8
0
  6
Continuous
 62
     7
370
    25
100
AcDbCircle
 10
1.4901213981
 20
5.8315121408
 30
0.0
 40
0.0199628768253075
100
AcDbArc
 50
10.4844032601
 51
64.3028136534
  0
ARC
  5
17A
330
D0
100
AcDbEntity
  8
0
  6
Continuous
 62
     7
370
    25
100
AcDbCircle
 10
2.0991145433
 20
5.8320976773
 30
0.0
 40
0.0191080734158578
100
AcDbArc
 50
114.3886169131
 51
170.8241661734
  0
ARC
  5
17B
330
D0
100
AcDbEntity
  8
0
  6
Continuous
 62
     7
370
    25
100
AcDbCircle
 10
1.4901213981
 20
3.6254917963
 30
0.0
 40
0.0199628768253097
100
AcDbArc
 50
295.6971863466
 51
349.5155967399
  0
LINE
  5
17C
330
D0
100
AcDbEntity
  8
0
  6
Continuous
 62
     7
370
    25
100
AcDbLine
 10
2.0802509843
 20
3.6218591942
 30
0.0
 11
1.5097509843
 21
3.6218591942
 31
0.0
  0
ARC
  5
17D
330
D0
100
AcDbEntity
  8
0
  6
Continuous
 62
     7
370
    25
100
AcDbCircle
 10
2.0991145433
 20
3.6249062597
 30
0.0
 40
0.0191080734158508
100
AcDbArc
 50
189.1758338265
 51
245.6113830869
  0
LINE
  5
17E
330
D0
100
AcDbEntity
  8
0
  6
Continuous
 62
     7
370
    25
100
AcDbLine
 10
2.0802509843
 20
3.6218591942
 30
0.0
 11
2.0802509843
 21
5.8351447428
 31
0.0
  0
LINE
  5
17F
330
D0
100
AcDbEntity
  8
0
  6
Continuous
 62
     7
370
    25
100
AcDbLine
 10
1.5097509843
 20
3.6218591942
 30
0.0
 11
1.5097509843
 21
5.8351447428
 31
0.0
  0
LINE
  5
180
330
D0
100
AcDbEntity
  8
0
  6
Continuous
 62
     7
370
    25
100
AcDbLine
 10
1.3771299545
 20
0.7295019685
 30
0.0
 11
1.3693688533
 21
0.7140019685
 31
0.0
  0
LINE
  5
181
330
D0
100
AcDbEntity
  8
0
  6
Continuous
 62
     7
370
    25
100
AcDbLine
 10
1.3771299545
 20
0.7295019685
 30
0.0
 11
1.3920400953
 21
0.7295019685
 31
0.0
  0
LINE
  5
182
330
D0
100
AcDbEntity
  8
0
  6
Continuous
 62
     7
370
    25
100
AcDbLine
 10
1.3920400953
 20
0.7295019685
 30
0.0
 11
1.3920400953
 21
0.7990019685
 31
0.0
  0
LINE
  5
183
330
D0
100
AcDbEntity
  8
0
  6
Continuous
 62
     7
370
    25
100
AcDbLine
 10
1.3920400953
 20
0.7990019685
 30
0.0
 11
1.3771299545
 21
0.7990019685
 31
0.0
  0
LINE
  5
184
330
D0
100
AcDbEntity
  8
0
  6
Continuous
 62
     7
370
    25
100
AcDbLine
 10
1.3693688533
 20
0.8145019685
 30
0.0
 11
1.3771299545
 21
0.7990019685
 31
0.0
  0
LINE
  5
185
330
D0
100
AcDbEntity
  8
0
  6
Continuous
 62
     7
370
    25
100
AcDbLine
 10
1.3693688533
 20
0.8145019685
 30
0.0
 11
1.3693688533
 21
1.2300019685
 31
0.0
  0
LINE
  5
186
330
D0
100
AcDbEntity
  8
0
  6
Continuous
 62
     7
370
    25
100
AcDbLine
 10
1.3721227416
 20
1.2355019685
 30
0.0
 11
1.3693688533
 21
1.2300019685
 31
0.0
  0
LINE
  5
187
330
D0
100
AcDbEntity
  8
0
  6
Continuous
 62
     7
370
    25
100
AcDbLine
 10
1.3721227416
 20
1.2355019685
 30
0.0
 11
1.41007005
 21
1.2355019685
 31
0.0
  0
LINE
  5
188
330
D0
100
AcDbEntity
  8
0
  6
Continuous
 62
     7
370
    25
100
AcDbLine
 10
1.41007005
 20
1.2355019685
 30
0.0
 11
1.41007005
 21
1.3615019685
 31
0.0
  0
LINE
  5
189
330
D0
100
AcDbEntity
  8
0
  6
Continuous
 62
     7
370
    25
100
AcDbLine
 10
1.41007005
 20
1.3615019685
 30
0.0
 11
1.40449827
 21
1.3615019685
 31
0.0
  0
LINE
  5
18A
330
D0
100
AcDbEntity
  8
0
  6
Continuous
 62
     7
370
    25
100
AcDbLine
 10
1.3724646793
 20
1.3615019685
 30
0.0
 11
1.3721227416
 21
1.3615019685
 31
0.0
  0
LINE
  5
18B
330
D0
100
AcDbEntity
  8
0
  6
Continuous
 62
     7
370
    25
100
AcDbLine
 10
1.3693688533
 20
1.3670019685
 30
0.0
 11
1.3721227416
 21
1.3615019685
 31
0.0
  0
LINE
  5
18C
330
D0
100
AcDbEntity
  8
0
  6
Continuous
 62
     7
370
    25
100
AcDbLine
 10
1.3693688533
 20
1.3670019685
 30
0.0
 11
1.3693688533
 21
1.3690660337
 31
0.0
  0
LINE
  5
18D
330
D0
100
AcDbEntity
  8
0
  6
Continuous
 62
     7
370
    25
100
AcDbLine
 10
1.3693688533
 20
1.4533473521
 30
0.0
 11
1.3693688533
 21
1.7696565849
 31
0.0
  0
LINE
  5
18E
330
D0
100
AcDbEntity
  8
0
  6
Continuous
 62
     7
370
    25
100
AcDbLine
 10
1.3693688533
 20
1.8539379033
 30
0.0
 11
1.3693688533
 21
1.8560019685
 31
0.0
  0
LINE
  5
18F
330
D0
100
AcDbEntity
  8
0
  6
Continuous
 62
     7
370
    25
100
AcDbLine
 10
1.3721227416
 20
1.8615019685
 30
0.0
 11
1.3693688533
 21
1.8560019685
 31
0.0
  0
LINE
  5
190
330
D0
100
AcDbEntity
  8
0
  6
Continuous
 62
     7
370
    25
100
AcDbLine
 10
1.3721227416
 20
1.8615019685
 30
0.0
 11
1.3724646793
 21
1.8615019685
 31
0.0
  0
LINE
  5
191
330
D0
100
AcDbEntity
  8
0
  6
Continuous
 62
     7
370
    25
100
AcDbLine
 10
1.4045560784
 20
1.8615019685
 30
0.0
 11
1.41007005
 21
1.8615019685
 31
0.0
  0
LINE
  5
192
330
D0
100
AcDbEntity
  8
0
  6
Continuous
 62
     7
370
    25
100
AcDbLine
 10
1.41007005
 20
1.8615019685
 30
0.0
 11
1.41007005
 21
1.9875019685
 31
0.0
  0
LINE
  5
193
330
D0
100
AcDbEntity
  8
0
  6
Continuous
 62
     7
370
    25
100
AcDbLine
 10
1.41007005
 20
1.9875019685
 30
0.0
 11
1.3721227416
 21
1.9875019685
 31
0.0
  0
LINE
  5
194
330
D0
100
AcDbEntity
  8
0
  6
Continuous
 62
     7
370
    25
100
AcDbLine
 10
1.3693688533
 20
1.9930019685
 30
0.0
 11
1.3721227416
 21
1.9875019685
 31
0.0
  0
LINE
  5
195
330
D0
100
AcDbEntity
  8
0
  6
Continuous
 62
     7
370
    25
100
AcDbLine
 10
1.3693688533
 20
1.9930019685
 30
0.0
 11
1.3693688533
 21
2.4085019685
 31
0.0
  0
LINE
  5
196
330
D0
100
AcDbEntity
  8
0
  6
Continuous
 62
     7
370
    25
100
AcDbLine
 10
1.3771299545
 20
2.4240019685
 30
0.0
 11
1.3693688533
 21
2.4085019685
 31
0.0
  0
LINE
  5
197
330
D0
100
AcDbEntity
  8
0
  6
Continuous
 62
     7
370
    25
100
AcDbLine
 10
1.3771299545
 20
2.4240019685
 30
0.0
 11
1.3920400953
 21
2.4240019685
 31
0.0
  0
LINE
  5
198
330
D0
100
AcDbEntity
  8
0
  6
Continuous
 62
     7
370
    25
100
AcDbLine
 10
1.3920400953
 20
2.4240019685
 30
0.0
 11
1.3920400953
 21
2.4935019685
 31
0.0
  0
LINE
  5
199
330
D0
100
AcDbEntity
  8
0
  6
Continuous
 62
     7
370
    25
100
AcDbLine
 10
1.3920400953
 20
2.4935019685
 30
0.0
 11
1.3771299545
 21
2.4935019685
 31
0.0
  0
LINE
  5
19A
330
D0
100
AcDbEntity
  8
0
  6
Continuous
 62
     7
370
    25
100
AcDbLine
 10
1.3693688533
 20
2.5090019685
 30
0.0
 11
1.3771299545
 21
2.4935019685
 31
0.0
  0
LINE
  5
19B
330
D0
100
AcDbEntity
  8
0
  6
Continuous
 62
     7
370
    25
100
AcDbLine
 10
1.3693688533
 20
2.5090019685
 30
0.0
 11
1.3693688533
 21
2.7141509816
 31
0.0
  0
LWPOLYLINE
  5
19C
330
D0
100
AcDbEntity
  8
0
  6
Continuous
 62
     7
370
    25
100
AcDbPolyline
 90
        9
 70
   128
 43
0.0
 10
1.3693688533
 20
2.7141509816
 10
1.3703050955
 20
2.7179249046
 10
1.3715234392
 20
2.7214667417
 10
1.3732341742
 20
2.725085506
 10
1.3752816058
 20
2.7281660206
 10
1.3774972331
 20
2.73045341
 10
1.3799419743
 20
2.7320092242
 10
1.3815823189
 20
2.7325633928
 10
1.3832640521
 20
2.7327519685
  0
LINE
  5
19D
330
D0
100
AcDbEntity
  8
0
  6
Continuous
 62
     7
370
    25
100
AcDbLine
 10
1.4987775976
 20
2.7327519685
 30
0.0
 11
1.3832640521
 21
2.7327519685
 31
0.0
  0
LINE
  5
19E
330
D0
100
AcDbEntity
  8
0
  6
Continuous
 62
     7
370
    25
100
AcDbLine
 10
1.4987775976
 20
2.7327519685
 30
0.0
 11
1.4987775976
 21
0.4902519685
 31
0.0
  0
LINE
  5
19F
330
D0
100
AcDbEntity
  8
0
  6
Continuous
 62
     7
370
    25
100
AcDbLine
 10
1.4987775976
 20
0.4902519685
 30
0.0
 11
1.3832640521
 21
0.4902519685
 31
0.0
  0
LWPOLYLINE
  5
1A0
330
D0
100
AcDbEntity
  8
0
  6
Continuous
 62
     7
370
    25
100
AcDbPolyline
 90
        9
 70
   128
 43
0.0
 10
1.3832640521
 20
0.4902519685
 10
1.381546703
 20
0.4904486428
 10
1.3790967146
 20
0.4914294052
 10
1.3766961909
 20
0.4932711669
 10
1.3745478064
 20
0.4958183245
 10
1.3725887292
 20
0.4991454469
 10
1.3709857219
 20
0.5029681722
 10
1.3696902797
 20
0.5074007561
 10
1.3693688533
 20
0.5088529554
  0
LINE
  5
1A1
330
D0
100
AcDbEntity
  8
0
  6
Continuous
 62
     7
370
    25
100
AcDbLine
 10
1.3693688533
 20
0.5088529554
 30
0.0
 11
1.3693688533
 21
0.7140019685
 31
0.0
  0
LINE
  5
1A2
330
D0
100
AcDbEntity
  8
0
  6
Continuous
 62
     7
370
    25
100
AcDbLine
 10
1.3832640521
 20
0.4902519685
 30
0.0
 11
1.344929934
 21
0.4902519685
 31
0.0
  0
LINE
  5
1A3
330
D0
100
AcDbEntity
  8
0
  6
Continuous
 62
     7
370
    25
100
AcDbLine
 10
2.2450720345
 20
0.4902519685
 30
0.0
 11
2.2067379164
 21
0.4902519685
 31
0.0
  0
LWPOLYLINE
  5
1A4
330
D0
100
AcDbEntity
  8
0
  6
Continuous
 62
     7
370
    25
100
AcDbPolyline
 90
        9
 70
   128
 43
0.0
 10
2.2206331152
 20
0.5088529554
 10
2.219696873
 20
0.5050790324
 10
2.2184785294
 20
0.5015371954
 10
2.2167677943
 20
0.497918431
 10
2.2147203627
 20
0.4948379164
 10
2.2125047354
 20
0.492550527
 10
2.2100599942
 20
0.4909947128
 10
2.2084196496
 20
0.4904405442
 10
2.2067379164
 20
0.4902519685
  0
LINE
  5
1A5
330
D0
100
AcDbEntity
  8
0
  6
Continuous
 62
     7
370
    25
100
AcDbLine
 10
2.2206331152
 20
0.5088529554
 30
0.0
 11
2.2450720345
 21
0.5088529554
 31
0.0
  0
LINE
  5
1A6
330
D0
100
AcDbEntity
  8
0
  6
Continuous
 62
     7
370
    25
100
AcDbLine
 10
1.344929934
 20
0.5088529554
 30
0.0
 11
1.3693688533
 21
0.5088529554
 31
0.0
  0
LWPOLYLINE
  5
1A7
330
D0
100
AcDbEntity
  8
0
  6
Continuous
 62
     7
370
    25
100
AcDbPolyline
 90
        9
 70
   128
 43
0.0
 10
2.2067379164
 20
2.7327519685
 10
2.2084552655
 20
2.7325552942
 10
2.2109052539
 20
2.7315745318
 10
2.2133057776
 20
2.7297327701
 10
2.2154541621
 20
2.7271856125
 10
2.2174132393
 20
2.7238584901
 10
2.2190162466
 20
2.7200357648
 10
2.2203116888
 20
2.7156031809
 10
2.2206331152
 20
2.7141509816
  0
LINE
  5
1A8
330
D0
100
AcDbEntity
  8
0
  6
Continuous
 62
     7
370
    25
100
AcDbLine
 10
1.3832640521
 20
2.7327519685
 30
0.0
 11
1.344929934
 21
2.7327519685
 31
0.0
  0
LINE
  5
1A9
330
D0
100
AcDbEntity
  8
0
  6
Continuous
 62
     7
370
    25
100
AcDbLine
 10
2.2450720345
 20
2.7327519685
 30
0.0
 11
2.2067379164
 21
2.7327519685
 31
0.0
  0
LINE
  5
1AA
330
D0
100
AcDbEntity
  8
0
  6
Continuous
 62
     7
370
    25
100
AcDbLine
 10
1.3693688533
 20
2.7141509816
 30
0.0
 11
1.344929934
 21
2.7141509816
 31
0.0
  0
LINE
  5
1AB
330
D0
100
AcDbEntity
  8
0
  6
Continuous
 62
     7
370
    25
100
AcDbLine
 10
2.2450720345
 20
2.7141509816
 30
0.0
 11
2.2206331152
 21
2.7141509816
 31
0.0
  0
LINE
  5
1AC
330
D0
100
AcDbEntity
  8
0
  6
Continuous
 62
     7
370
    25
100
AcDbLine
 10
2.212872014
 20
2.4935019685
 30
0.0
 11
2.2206331152
 21
2.5090019685
 31
0.0
  0
LINE
  5
1AD
330
D0
100
AcDbEntity
  8
0
  6
Continuous
 62
     7
370
    25
100
AcDbLine
 10
2.212872014
 20
2.4935019685
 30
0.0
 11
2.1979618732
 21
2.4935019685
 31
0.0
  0
LINE
  5
1AE
330
D0
100
AcDbEntity
  8
0
  6
Continuous
 62
     7
370
    25
100
AcDbLine
 10
2.1979618732
 20
2.4935019685
 30
0.0
 11
2.1979618732
 21
2.4240019685
 31
0.0
  0
LINE
  5
1AF
330
D0
100
AcDbEntity
  8
0
  6
Continuous
 62
     7
370
    25
100
AcDbLine
 10
2.1979618732
 20
2.4240019685
 30
0.0
 11
2.212872014
 21
2.4240019685
 31
0.0
  0
LINE
  5
1B0
330
D0
100
AcDbEntity
  8
0
  6
Continuous
 62
     7
370
    25
100
AcDbLine
 10
2.2206331152
 20
2.4085019685
 30
0.0
 11
2.212872014
 21
2.4240019685
 31
0.0
  0
LINE
  5
1B1
330
D0
100
AcDbEntity
  8
0
  6
Continuous
 62
     7
370
    25
100
AcDbLine
 10
2.2206331152
 20
2.4085019685
 30
0.0
 11
2.2206331152
 21
1.9930019685
 31
0.0
  0
LINE
  5
1B2
330
D0
100
AcDbEntity
  8
0
  6
Continuous
 62
     7
370
    25
100
AcDbLine
 10
2.2178792269
 20
1.9875019685
 30
0.0
 11
2.2206331152
 21
1.9930019685
 31
0.0
  0
LINE
  5
1B3
330
D0
100
AcDbEntity
  8
0
  6
Continuous
 62
     7
370
    25
100
AcDbLine
 10
2.2178792269
 20
1.9875019685
 30
0.0
 11
2.1799319185
 21
1.9875019685
 31
0.0
  0
LINE
  5
1B4
330
D0
100
AcDbEntity
  8
0
  6
Continuous
 62
     7
370
    25
100
AcDbLine
 10
2.1799319185
 20
1.9875019685
 30
0.0
 11
2.1799319185
 21
1.8615019685
 31
0.0
  0
LINE
  5
1B5
330
D0
100
AcDbEntity
  8
0
  6
Continuous
 62
     7
370
    25
100
AcDbLine
 10
2.1799319185
 20
1.8615019685
 30
0.0
 11
2.1855036985
 21
1.8615019685
 31
0.0
  0
LINE
  5
1B6
330
D0
100
AcDbEntity
  8
0
  6
Continuous
 62
     7
370
    25
100
AcDbLine
 10
2.2175372892
 20
1.8615019685
 30
0.0
 11
2.2178792269
 21
1.8615019685
 31
0.0
  0
LINE
  5
1B7
330
D0
100
AcDbEntity
  8
0
  6
Continuous
 62
     7
370
    25
100
AcDbLine
 10
2.2206331152
 20
1.8560019685
 30
0.0
 11
2.2178792269
 21
1.8615019685
 31
0.0
  0
LINE
  5
1B8
330
D0
100
AcDbEntity
  8
0
  6
Continuous
 62
     7
370
    25
100
AcDbLine
 10
2.2206331152
 20
1.8560019685
 30
0.0
 11
2.2206331152
 21
1.8539379033
 31
0.0
  0
LINE
  5
1B9
330
D0
100
AcDbEntity
  8
0
  6
Continuous
 62
     7
370
    25
100
AcDbLine
 10
2.2206331152
 20
1.7696565849
 30
0.0
 11
2.2206331152
 21
1.4533473521
 31
0.0
  0
LINE
  5
1BA
330
D0
100
AcDbEntity
  8
0
  6
Continuous
 62
     7
370
    25
100
AcDbLine
 10
2.2206331152
 20
1.3690660337
 30
0.0
 11
2.2206331152
 21
1.3670019685
 31
0.0
  0
LINE
  5
1BB
330
D0
100
AcDbEntity
  8
0
  6
Continuous
 62
     7
370
    25
100
AcDbLine
 10
2.2178792269
 20
1.3615019685
 30
0.0
 11
2.2206331152
 21
1.3670019685
 31
0.0
  0
LINE
  5
1BC
330
D0
100
AcDbEntity
  8
0
  6
Continuous
 62
     7
370
    25
100
AcDbLine
 10
2.2178792269
 20
1.3615019685
 30
0.0
 11
2.2175372892
 21
1.3615019685
 31
0.0
  0
LINE
  5
1BD
330
D0
100
AcDbEntity
  8
0
  6
Continuous
 62
     7
370
    25
100
AcDbLine
 10
2.1854458902
 20
1.3615019685
 30
0.0
 11
2.1799319185
 21
1.3615019685
 31
0.0
  0
LINE
  5
1BE
330
D0
100
AcDbEntity
  8
0
  6
Continuous
 62
     7
370
    25
100
AcDbLine
 10
2.1799319185
 20
1.3615019685
 30
0.0
 11
2.1799319185
 21
1.2355019685
 31
0.0
  0
LINE
  5
1BF
330
D0
100
AcDbEntity
  8
0
  6
Continuous
 62
     7
370
    25
100
AcDbLine
 10
2.1799319185
 20
1.2355019685
 30
0.0
 11
2.2178792269
 21
1.2355019685
 31
0.0
  0
LINE
  5
1C0
330
D0
100
AcDbEntity
  8
0
  6
Continuous
 62
     7
370
    25
100
AcDbLine
 10
2.2206331152
 20
1.2300019685
 30
0.0
 11
2.2178792269
 21
1.2355019685
 31
0.0
  0
LINE
  5
1C1
330
D0
100
AcDbEntity
  8
0
  6
Continuous
 62
     7
370
    25
100
AcDbLine
 10
2.2206331152
 20
1.2300019685
 30
0.0
 11
2.2206331152
 21
0.8145019685
 31
0.0
  0
LINE
  5
1C2
330
D0
100
AcDbEntity
  8
0
  6
Continuous
 62
     7
370
    25
100
AcDbLine
 10
2.212872014
 20
0.7990019685
 30
0.0
 11
2.2206331152
 21
0.8145019685
 31
0.0
  0
LINE
  5
1C3
330
D0
100
AcDbEntity
  8
0
  6
Continuous
 62
     7
370
    25
100
AcDbLine
 10
2.212872014
 20
0.7990019685
 30
0.0
 11
2.1979618732
 21
0.7990019685
 31
0.0
  0
LINE
  5
1C4
330
D0
100
AcDbEntity
  8
0
  6
Continuous
 62
     7
370
    25
100
AcDbLine
 10
2.1979618732
 20
0.7990019685
 30
0.0
 11
2.1979618732
 21
0.7295019685
 31
0.0
  0
LINE
  5
1C5
330
D0
100
AcDbEntity
  8
0
  6
Continuous
 62
     7
370
    25
100
AcDbLine
 10
2.1979618732
 20
0.7295019685
 30
0.0
 11
2.212872014
 21
0.7295019685
 31
0.0
  0
LINE
  5
1C6
330
D0
100
AcDbEntity
  8
0
  6
Continuous
 62
     7
370
    25
100
AcDbLine
 10
2.2206331152
 20
0.7140019685
 30
0.0
 11
2.212872014
 21
0.7295019685
 31
0.0
  0
LINE
  5
1C7
330
D0
100
AcDbEntity
  8
0
  6
Continuous
 62
     7
370
    25
100
AcDbLine
 10
2.2206331152
 20
0.7140019685
 30
0.0
 11
2.2206331152
 21
0.5088529554
 31
0.0
  0
LINE
  5
1C8
330
D0
100
AcDbEntity
  8
0
  6
Continuous
 62
     7
370
    25
100
AcDbLine
 10
2.2067379164
 20
0.4902519685
 30
0.0
 11
2.0912243709
 21
0.4902519685
 31
0.0
  0
LINE
  5
1C9
330
D0
100
AcDbEntity
  8
0
  6
Continuous
 62
     7
370
    25
100
AcDbLine
 10
2.0912243709
 20
0.4902519685
 30
0.0
 11
2.0912243709
 21
2.7327519685
 31
0.0
  0
LINE
  5
1CA
330
D0
100
AcDbEntity
  8
0
  6
Continuous
 62
     7
370
    25
100
AcDbLine
 10
2.2067379164
 20
2.7327519685
 30
0.0
 11
2.0912243709
 21
2.7327519685
 31
0.0
  0
LINE
  5
1CB
330
D0
100
AcDbEntity
  8
0
  6
Continuous
 62
     7
370
    25
100
AcDbLine
 10
2.2206331152
 20
2.7141509816
 30
0.0
 11
2.2206331152
 21
2.5090019685
 31
0.0
  0
LINE
  5
1CC
330
D0
100
AcDbEntity
  8
0
  6
Continuous
 62
     7
370
    25
100
AcDbLine
 10
2.2178792269
 20
1.2355019685
 30
0.0
 11
2.2450720345
 21
1.2355019685
 31
0.0
  0
LINE
  5
1CD
330
D0
100
AcDbEntity
  8
0
  6
Continuous
 62
     7
370
    25
100
AcDbLine
 10
1.344929934
 20
1.2355019685
 30
0.0
 11
1.3721227416
 21
1.2355019685
 31
0.0
  0
LINE
  5
1CE
330
D0
100
AcDbEntity
  8
0
  6
Continuous
 62
     7
370
    25
100
AcDbLine
 10
2.2206331152
 20
1.2300019685
 30
0.0
 11
2.2450720345
 21
1.2300019685
 31
0.0
  0
LINE
  5
1CF
330
D0
100
AcDbEntity
  8
0
  6
Continuous
 62
     7
370
    25
100
AcDbLine
 10
1.344929934
 20
1.2300019685
 30
0.0
 11
1.3693688533
 21
1.2300019685
 31
0.0
  0
LINE
  5
1D0
330
D0
100
AcDbEntity
  8
0
  6
Continuous
 62
     7
370
    25
100
AcDbLine
 10
1.3721227416
 20
1.3615019685
 30
0.0
 11
1.3469965634
 21
1.3615019685
 31
0.0
  0
LINE
  5
1D1
330
D0
100
AcDbEntity
  8
0
  6
Continuous
 62
     7
370
    25
100
AcDbLine
 10
2.2430112329
 20
1.3615019685
 30
0.0
 11
2.2178792269
 21
1.3615019685
 31
0.0
  0
LINE
  5
1D2
330
D0
100
AcDbEntity
  8
0
  6
Continuous
 62
     7
370
    25
100
AcDbLine
 10
1.3693688533
 20
1.3670019685
 30
0.0
 11
1.3471113411
 21
1.3670019685
 31
0.0
  0
LINE
  5
1D3
330
D0
100
AcDbEntity
  8
0
  6
Continuous
 62
     7
370
    25
100
AcDbLine
 10
2.2429255752
 20
1.3670019685
 30
0.0
 11
2.2206331152
 21
1.3670019685
 31
0.0
  0
LINE
  5
1D4
330
D0
100
AcDbEntity
  8
0
  6
Continuous
 62
     7
370
    25
100
AcDbLine
 10
1.3693688533
 20
0.8145019685
 30
0.0
 11
1.344929934
 21
0.8145019685
 31
0.0
  0
LINE
  5
1D5
330
D0
100
AcDbEntity
  8
0
  6
Continuous
 62
     7
370
    25
100
AcDbLine
 10
2.2450720345
 20
0.8145019685
 30
0.0
 11
2.2206331152
 21
0.8145019685
 31
0.0
  0
LINE
  5
1D6
330
D0
100
AcDbEntity
  8
0
  6
Continuous
 62
     7
370
    25
100
AcDbLine
 10
2.2206331152
 20
0.7140019685
 30
0.0
 11
2.2450720345
 21
0.7140019685
 31
0.0
  0
LINE
  5
1D7
330
D0
100
AcDbEntity
  8
0
  6
Continuous
 62
     7
370
    25
100
AcDbLine
 10
1.344929934
 20
0.7140019685
 30
0.0
 11
1.3693688533
 21
0.7140019685
 31
0.0
  0
LINE
  5
1D8
330
D0
100
AcDbEntity
  8
0
  6
Continuous
 62
     7
370
    25
100
AcDbLine
 10
2.212872014
 20
2.4240019685
 30
0.0
 11
2.2450720345
 21
2.4240019685
 31
0.0
  0
LINE
  5
1D9
330
D0
100
AcDbEntity
  8
0
  6
Continuous
 62
     7
370
    25
100
AcDbLine
 10
1.344929934
 20
2.4240019685
 30
0.0
 11
1.3771299545
 21
2.4240019685
 31
0.0
  0
LINE
  5
1DA
330
D0
100
AcDbEntity
  8
0
  6
Continuous
 62
     7
370
    25
100
AcDbLine
 10
2.2206331152
 20
2.4085019685
 30
0.0
 11
2.2450720345
 21
2.4085019685
 31
0.0
  0
LINE
  5
1DB
330
D0
100
AcDbEntity
  8
0
  6
Continuous
 62
     7
370
    25
100
AcDbLine
 10
1.344929934
 20
2.4085019685
 30
0.0
 11
1.3693688533
 21
2.4085019685
 31
0.0
  0
LINE
  5
1DC
330
D0
100
AcDbEntity
  8
0
  6
Continuous
 62
     7
370
    25
100
AcDbLine
 10
2.2206331152
 20
1.8560019685
 30
0.0
 11
2.2428906274
 21
1.8560019685
 31
0.0
  0
LINE
  5
1DD
330
D0
100
AcDbEntity
  8
0
  6
Continuous
 62
     7
370
    25
100
AcDbLine
 10
1.3470763933
 20
1.8560019685
 30
0.0
 11
1.3693688533
 21
1.8560019685
 31
0.0
  0
LINE
  5
1DE
330
D0
100
AcDbEntity
  8
0
  6
Continuous
 62
     7
370
    25
100
AcDbLine
 10
1.3693688533
 20
1.9930019685
 30
0.0
 11
1.344929934
 21
1.9930019685
 31
0.0
  0
LINE
  5
1DF
330
D0
100
AcDbEntity
  8
0
  6
Continuous
 62
     7
370
    25
100
AcDbLine
 10
2.2450720345
 20
1.9930019685
 30
0.0
 11
2.2206331152
 21
1.9930019685
 31
0.0
  0
LINE
  5
1E0
330
D0
100
AcDbEntity
  8
0
  6
Continuous
 62
     7
370
    25
100
AcDbLine
 10
1.3771299545
 20
0.7990019685
 30
0.0
 11
1.344929934
 21
0.7990019685
 31
0.0
  0
LINE
  5
1E1
330
D0
100
AcDbEntity
  8
0
  6
Continuous
 62
     7
370
    25
100
AcDbLine
 10
2.2450720345
 20
0.7990019685
 30
0.0
 11
2.212872014
 21
0.7990019685
 31
0.0
  0
LINE
  5
1E2
330
D0
100
AcDbEntity
  8
0
  6
Continuous
 62
     7
370
    25
100
AcDbLine
 10
1.3771299545
 20
2.4935019685
 30
0.0
 11
1.344929934
 21
2.4935019685
 31
0.0
  0
LINE
  5
1E3
330
D0
100
AcDbEntity
  8
0
  6
Continuous
 62
     7
370
    25
100
AcDbLine
 10
2.2450720345
 20
2.4935019685
 30
0.0
 11
2.212872014
 21
2.4935019685
 31
0.0
  0
LINE
  5
1E4
330
D0
100
AcDbEntity
  8
0
  6
Continuous
 62
     7
370
    25
100
AcDbLine
 10
1.3693688533
 20
2.5090019685
 30
0.0
 11
1.344929934
 21
2.5090019685
 31
0.0
  0
LINE
  5
1E5
330
D0
100
AcDbEntity
  8
0
  6
Continuous
 62
     7
370
    25
100
AcDbLine
 10
2.2450720345
 20
2.5090019685
 30
0.0
 11
2.2206331152
 21
2.5090019685
 31
0.0
  0
LINE
  5
1E6
330
D0
100
AcDbEntity
  8
0
  6
Continuous
 62
     7
370
    25
100
AcDbLine
 10
1.3721227416
 20
1.9875019685
 30
0.0
 11
1.344929934
 21
1.9875019685
 31
0.0
  0
LINE
  5
1E7
330
D0
100
AcDbEntity
  8
0
  6
Continuous
 62
     7
370
    25
100
AcDbLine
 10
2.2450720345
 20
1.9875019685
 30
0.0
 11
2.2178792269
 21
1.9875019685
 31
0.0
  0
LINE
  5
1E8
330
D0
100
AcDbEntity
  8
0
  6
Continuous
 62
     7
370
    25
100
AcDbLine
 10
2.2178792269
 20
1.8615019685
 30
0.0
 11
2.2430054051
 21
1.8615019685
 31
0.0
  0
LINE
  5
1E9
330
D0
100
AcDbEntity
  8
0
  6
Continuous
 62
     7
370
    25
100
AcDbLine
 10
1.3469907356
 20
1.8615019685
 30
0.0
 11
1.3721227416
 21
1.8615019685
 31
0.0
  0
LINE
  5
1EA
330
D0
100
AcDbEntity
  8
0
  6
Continuous
 62
     7
370
    25
100
AcDbLine
 10
2.212872014
 20
0.7295019685
 30
0.0
 11
2.2450720345
 21
0.7295019685
 31
0.0
  0
LINE
  5
1EB
330
D0
100
AcDbEntity
  8
0
  6
Continuous
 62
     7
370
    25
100
AcDbLine
 10
1.344929934
 20
0.7295019685
 30
0.0
 11
1.3771299545
 21
0.7295019685
 31
0.0
  0
LINE
  5
1EC
330
D0
100
AcDbEntity
  8
0
  6
Continuous
 62
     7
370
    25
100
AcDbLine
 10
1.4987775976
 20
2.7327519685
 30
0.0
 11
2.0912243709
 21
2.7327519685
 31
0.0
  0
LINE
  5
1ED
330
D0
100
AcDbEntity
  8
0
  6
Continuous
 62
     7
370
    25
100
AcDbLine
 10
2.0912243709
 20
0.4902519685
 30
0.0
 11
1.4987775976
 21
0.4902519685
 31
0.0
  0
LINE
  5
1EE
330
D0
100
AcDbEntity
  8
0
  6
Continuous
 62
     7
370
    25
100
AcDbLine
 10
2.212872014
 20
5.6105019685
 30
0.0
 11
2.2206331152
 21
5.6260019685
 31
0.0
  0
LINE
  5
1EF
330
D0
100
AcDbEntity
  8
0
  6
Continuous
 62
     7
370
    25
100
AcDbLine
 10
2.212872014
 20
5.6105019685
 30
0.0
 11
2.1979618732
 21
5.6105019685
 31
0.0
  0
LINE
  5
1F0
330
D0
100
AcDbEntity
  8
0
  6
Continuous
 62
     7
370
    25
100
AcDbLine
 10
2.1979618732
 20
5.6105019685
 30
0.0
 11
2.1979618732
 21
5.5410019685
 31
0.0
  0
LINE
  5
1F1
330
D0
100
AcDbEntity
  8
0
  6
Continuous
 62
     7
370
    25
100
AcDbLine
 10
2.1979618732
 20
5.5410019685
 30
0.0
 11
2.212872014
 21
5.5410019685
 31
0.0
  0
LINE
  5
1F2
330
D0
100
AcDbEntity
  8
0
  6
Continuous
 62
     7
370
    25
100
AcDbLine
 10
2.2206331152
 20
5.5255019685
 30
0.0
 11
2.212872014
 21
5.5410019685
 31
0.0
  0
LINE
  5
1F3
330
D0
100
AcDbEntity
  8
0
  6
Continuous
 62
     7
370
    25
100
AcDbLine
 10
2.2206331152
 20
5.5255019685
 30
0.0
 11
2.2206331152
 21
5.1100019685
 31
0.0
  0
LINE
  5
1F4
330
D0
100
AcDbEntity
  8
0
  6
Continuous
 62
     7
370
    25
100
AcDbLine
 10
2.2178792269
 20
5.1045019685
 30
0.0
 11
2.2206331152
 21
5.1100019685
 31
0.0
  0
LINE
  5
1F5
330
D0
100
AcDbEntity
  8
0
  6
Continuous
 62
     7
370
    25
100
AcDbLine
 10
2.2178792269
 20
5.1045019685
 30
0.0
 11
2.1799319185
 21
5.1045019685
 31
0.0
  0
LINE
  5
1F6
330
D0
100
AcDbEntity
  8
0
  6
Continuous
 62
     7
370
    25
100
AcDbLine
 10
2.1799319185
 20
5.1045019685
 30
0.0
 11
2.1799319185
 21
4.9785019685
 31
0.0
  0
LINE
  5
1F7
330
D0
100
AcDbEntity
  8
0
  6
Continuous
 62
     7
370
    25
100
AcDbLine
 10
2.1799319185
 20
4.9785019685
 30
0.0
 11
2.1855036985
 21
4.9785019685
 31
0.0
  0
LINE
  5
1F8
330
D0
100
AcDbEntity
  8
0
  6
Continuous
 62
     7
370
    25
100
AcDbLine
 10
2.2175372892
 20
4.9785019685
 30
0.0
 11
2.2178792269
 21
4.9785019685
 31
0.0
  0
LINE
  5
1F9
330
D0
100
AcDbEntity
  8
0
  6
Continuous
 62
     7
370
    25
100
AcDbLine
 10
2.2206331152
 20
4.9730019685
 30
0.0
 11
2.2178792269
 21
4.9785019685
 31
0.0
  0
LINE
  5
1FA
330
D0
100
AcDbEntity
  8
0
  6
Continuous
 62
     7
370
    25
100
AcDbLine
 10
2.2206331152
 20
4.9730019685
 30
0.0
 11
2.2206331152
 21
4.9709379033
 31
0.0
  0
LINE
  5
1FB
330
D0
100
AcDbEntity
  8
0
  6
Continuous
 62
     7
370
    25
100
AcDbLine
 10
2.2206331152
 20
4.8866565849
 30
0.0
 11
2.2206331152
 21
4.5703473521
 31
0.0
  0
LINE
  5
1FC
330
D0
100
AcDbEntity
  8
0
  6
Continuous
 62
     7
370
    25
100
AcDbLine
 10
2.2206331152
 20
4.4860660337
 30
0.0
 11
2.2206331152
 21
4.4840019685
 31
0.0
  0
LINE
  5
1FD
330
D0
100
AcDbEntity
  8
0
  6
Continuous
 62
     7
370
    25
100
AcDbLine
 10
2.2178792269
 20
4.4785019685
 30
0.0
 11
2.2206331152
 21
4.4840019685
 31
0.0
  0
LINE
  5
1FE
330
D0
100
AcDbEntity
  8
0
  6
Continuous
 62
     7
370
    25
100
AcDbLine
 10
2.2178792269
 20
4.4785019685
 30
0.0
 11
2.2175372892
 21
4.4785019685
 31
0.0
  0
LINE
  5
1FF
330
D0
100
AcDbEntity
  8
0
  6
Continuous
 62
     7
370
    25
100
AcDbLine
 10
2.1854458902
 20
4.4785019685
 30
0.0
 11
2.1799319185
 21
4.4785019685
 31
0.0
  0
LINE
  5
200
330
D0
100
AcDbEntity
  8
0
  6
Continuous
 62
     7
370
    25
100
AcDbLine
 10
2.1799319185
 20
4.4785019685
 30
0.0
 11
2.1799319185
 21
4.3525019685
 31
0.0
  0
LINE
  5
201
330
D0
100
AcDbEntity
  8
0
  6
Continuous
 62
     7
370
    25
100
AcDbLine
 10
2.1799319185
 20
4.3525019685
 30
0.0
 11
2.2178792269
 21
4.3525019685
 31
0.0
  0
LINE
  5
202
330
D0
100
AcDbEntity
  8
0
  6
Continuous
 62
     7
370
    25
100
AcDbLine
 10
2.2206331152
 20
4.3470019685
 30
0.0
 11
2.2178792269
 21
4.3525019685
 31
0.0
  0
LINE
  5
203
330
D0
100
AcDbEntity
  8
0
  6
Continuous
 62
     7
370
    25
100
AcDbLine
 10
2.2206331152
 20
4.3470019685
 30
0.0
 11
2.2206331152
 21
3.9315019685
 31
0.0
  0
LINE
  5
204
330
D0
100
AcDbEntity
  8
0
  6
Continuous
 62
     7
370
    25
100
AcDbLine
 10
2.212872014
 20
3.9160019685
 30
0.0
 11
2.2206331152
 21
3.9315019685
 31
0.0
  0
LINE
  5
205
330
D0
100
AcDbEntity
  8
0
  6
Continuous
 62
     7
370
    25
100
AcDbLine
 10
2.212872014
 20
3.9160019685
 30
0.0
 11
2.1979618732
 21
3.9160019685
 31
0.0
  0
LINE
  5
206
330
D0
100
AcDbEntity
  8
0
  6
Continuous
 62
     7
370
    25
100
AcDbLine
 10
2.1979618732
 20
3.9160019685
 30
0.0
 11
2.1979618732
 21
3.8465019685
 31
0.0
  0
LINE
  5
207
330
D0
100
AcDbEntity
  8
0
  6
Continuous
 62
     7
370
    25
100
AcDbLine
 10
2.1979618732
 20
3.8465019685
 30
0.0
 11
2.212872014
 21
3.8465019685
 31
0.0
  0
LINE
  5
208
330
D0
100
AcDbEntity
  8
0
  6
Continuous
 62
     7
370
    25
100
AcDbLine
 10
2.2206331152
 20
3.8310019685
 30
0.0
 11
2.212872014
 21
3.8465019685
 31
0.0
  0
LINE
  5
209
330
D0
100
AcDbEntity
  8
0
  6
Continuous
 62
     7
370
    25
100
AcDbLine
 10
2.2206331152
 20
3.8310019685
 30
0.0
 11
2.2206331152
 21
3.6258529554
 31
0.0
  0
LWPOLYLINE
  5
20A
330
D0
100
AcDbEntity
  8
0
  6
Continuous
 62
     7
370
    25
100
AcDbPolyline
 90
        9
 70
   128
 43
0.0
 10
2.2206331152
 20
3.6258529554
 10
2.219696873
 20
3.6220790324
 10
2.2184785294
 20
3.6185371954
 10
2.2167677943
 20
3.614918431
 10
2.2147203627
 20
3.6118379164
 10
2.2125047354
 20
3.609550527
 10
2.2100599942
 20
3.6079947128
 10
2.2084196496
 20
3.6074405442
 10
2.2067379164
 20
3.6072519685
  0
LINE
  5
20B
330
D0
100
AcDbEntity
  8
0
  6
Continuous
 62
     7
370
    25
100
AcDbLine
 10
2.0912243709
 20
3.6072519685
 30
0.0
 11
2.2067379164
 21
3.6072519685
 31
0.0
  0
LINE
  5
20C
330
D0
100
AcDbEntity
  8
0
  6
Continuous
 62
     7
370
    25
100
AcDbLine
 10
2.0912243709
 20
3.6072519685
 30
0.0
 11
2.0912243709
 21
5.8497519685
 31
0.0
  0
LINE
  5
20D
330
D0
100
AcDbEntity
  8
0
  6
Continuous
 62
     7
370
    25
100
AcDbLine
 10
2.0912243709
 20
5.8497519685
 30
0.0
 11
2.2067379164
 21
5.8497519685
 31
0.0
  0
LWPOLYLINE
  5
20E
330
D0
100
AcDbEntity
  8
0
  6
Continuous
 62
     7
370
    25
100
AcDbPolyline
 90
        9
 70
   128
 43
0.0
 10
2.2067379164
 20
5.8497519685
 10
2.2084552655
 20
5.8495552942
 10
2.2109052539
 20
5.8485745318
 10
2.2133057776
 20
5.8467327701
 10
2.2154541621
 20
5.8441856125
 10
2.2174132393
 20
5.8408584901
 10
2.2190162466
 20
5.8370357648
 10
2.2203116888
 20
5.8326031809
 10
2.2206331152
 20
5.8311509816
  0
LINE
  5
20F
330
D0
100
AcDbEntity
  8
0
  6
Continuous
 62
     7
370
    25
100
AcDbLine
 10
2.2206331152
 20
5.8311509816
 30
0.0
 11
2.2206331152
 21
5.6260019685
 31
0.0
  0
LINE
  5
210
330
D0
100
AcDbEntity
  8
0
  6
Continuous
 62
     7
370
    25
100
AcDbLine
 10
2.2067379164
 20
5.8497519685
 30
0.0
 11
2.2460509464
 21
5.8497519685
 31
0.0
  0
LINE
  5
211
330
D0
100
AcDbEntity
  8
0
  6
Continuous
 62
     7
370
    25
100
AcDbLine
 10
1.3439607694
 20
5.8497519685
 30
0.0
 11
1.3832640521
 21
5.8497519685
 31
0.0
  0
LWPOLYLINE
  5
212
330
D0
100
AcDbEntity
  8
0
  6
Continuous
 62
     7
370
    25
100
AcDbPolyline
 90
        9
 70
   128
 43
0.0
 10
1.3693688533
 20
5.8311509816
 10
1.3703050955
 20
5.8349249046
 10
1.3715234392
 20
5.8384667417
 10
1.3732341742
 20
5.842085506
 10
1.3752816058
 20
5.8451660206
 10
1.3774972331
 20
5.84745341
 10
1.3799419743
 20
5.8490092242
 10
1.3815823189
 20
5.8495633928
 10
1.3832640521
 20
5.8497519685
  0
LINE
  5
213
330
D0
100
AcDbEntity
  8
0
  6
Continuous
 62
     7
370
    25
100
AcDbLine
 10
1.3693688533
 20
5.8311509816
 30
0.0
 11
1.344929934
 21
5.8311509816
 31
0.0
  0
LINE
  5
214
330
D0
100
AcDbEntity
  8
0
  6
Continuous
 62
     7
370
    25
100
AcDbLine
 10
2.2450720345
 20
5.8311509816
 30
0.0
 11
2.2206331152
 21
5.8311509816
 31
0.0
  0
LINE
  5
215
330
D0
100
AcDbEntity
  8
0
  6
Continuous
 62
     7
370
    25
100
AcDbLine
 10
1.3771299545
 20
3.8465019685
 30
0.0
 11
1.3693688533
 21
3.8310019685
 31
0.0
  0
LINE
  5
216
330
D0
100
AcDbEntity
  8
0
  6
Continuous
 62
     7
370
    25
100
AcDbLine
 10
1.3771299545
 20
3.8465019685
 30
0.0
 11
1.3920400953
 21
3.8465019685
 31
0.0
  0
LINE
  5
217
330
D0
100
AcDbEntity
  8
0
  6
Continuous
 62
     7
370
    25
100
AcDbLine
 10
1.3920400953
 20
3.8465019685
 30
0.0
 11
1.3920400953
 21
3.9160019685
 31
0.0
  0
LINE
  5
218
330
D0
100
AcDbEntity
  8
0
  6
Continuous
 62
     7
370
    25
100
AcDbLine
 10
1.3920400953
 20
3.9160019685
 30
0.0
 11
1.3771299545
 21
3.9160019685
 31
0.0
  0
LINE
  5
219
330
D0
100
AcDbEntity
  8
0
  6
Continuous
 62
     7
370
    25
100
AcDbLine
 10
1.3693688533
 20
3.9315019685
 30
0.0
 11
1.3771299545
 21
3.9160019685
 31
0.0
  0
LINE
  5
21A
330
D0
100
AcDbEntity
  8
0
  6
Continuous
 62
     7
370
    25
100
AcDbLine
 10
1.3693688533
 20
3.9315019685
 30
0.0
 11
1.3693688533
 21
4.3470019685
 31
0.0
  0
LINE
  5
21B
330
D0
100
AcDbEntity
  8
0
  6
Continuous
 62
     7
370
    25
100
AcDbLine
 10
1.3721227416
 20
4.3525019685
 30
0.0
 11
1.3693688533
 21
4.3470019685
 31
0.0
  0
LINE
  5
21C
330
D0
100
AcDbEntity
  8
0
  6
Continuous
 62
     7
370
    25
100
AcDbLine
 10
1.3721227416
 20
4.3525019685
 30
0.0
 11
1.41007005
 21
4.3525019685
 31
0.0
  0
LINE
  5
21D
330
D0
100
AcDbEntity
  8
0
  6
Continuous
 62
     7
370
    25
100
AcDbLine
 10
1.41007005
 20
4.3525019685
 30
0.0
 11
1.41007005
 21
4.4785019685
 31
0.0
  0
LINE
  5
21E
330
D0
100
AcDbEntity
  8
0
  6
Continuous
 62
     7
370
    25
100
AcDbLine
 10
1.41007005
 20
4.4785019685
 30
0.0
 11
1.40449827
 21
4.4785019685
 31
0.0
  0
LINE
  5
21F
330
D0
100
AcDbEntity
  8
0
  6
Continuous
 62
     7
370
    25
100
AcDbLine
 10
1.3724646793
 20
4.4785019685
 30
0.0
 11
1.3721227416
 21
4.4785019685
 31
0.0
  0
LINE
  5
220
330
D0
100
AcDbEntity
  8
0
  6
Continuous
 62
     7
370
    25
100
AcDbLine
 10
1.3693688533
 20
4.4840019685
 30
0.0
 11
1.3721227416
 21
4.4785019685
 31
0.0
  0
LINE
  5
221
330
D0
100
AcDbEntity
  8
0
  6
Continuous
 62
     7
370
    25
100
AcDbLine
 10
1.3693688533
 20
4.4840019685
 30
0.0
 11
1.3693688533
 21
4.4860660337
 31
0.0
  0
LINE
  5
222
330
D0
100
AcDbEntity
  8
0
  6
Continuous
 62
     7
370
    25
100
AcDbLine
 10
1.3693688533
 20
4.5703473521
 30
0.0
 11
1.3693688533
 21
4.8866565849
 31
0.0
  0
LINE
  5
223
330
D0
100
AcDbEntity
  8
0
  6
Continuous
 62
     7
370
    25
100
AcDbLine
 10
1.3693688533
 20
4.9709379033
 30
0.0
 11
1.3693688533
 21
4.9730019685
 31
0.0
  0
LINE
  5
224
330
D0
100
AcDbEntity
  8
0
  6
Continuous
 62
     7
370
    25
100
AcDbLine
 10
1.3721227416
 20
4.9785019685
 30
0.0
 11
1.3693688533
 21
4.9730019685
 31
0.0
  0
LINE
  5
225
330
D0
100
AcDbEntity
  8
0
  6
Continuous
 62
     7
370
    25
100
AcDbLine
 10
1.3721227416
 20
4.9785019685
 30
0.0
 11
1.3724646793
 21
4.9785019685
 31
0.0
  0
LINE
  5
226
330
D0
100
AcDbEntity
  8
0
  6
Continuous
 62
     7
370
    25
100
AcDbLine
 10
1.4045560784
 20
4.9785019685
 30
0.0
 11
1.41007005
 21
4.9785019685
 31
0.0
  0
LINE
  5
227
330
D0
100
AcDbEntity
  8
0
  6
Continuous
 62
     7
370
    25
100
AcDbLine
 10
1.41007005
 20
4.9785019685
 30
0.0
 11
1.41007005
 21
5.1045019685
 31
0.0
  0
LINE
  5
228
330
D0
100
AcDbEntity
  8
0
  6
Continuous
 62
     7
370
    25
100
AcDbLine
 10
1.41007005
 20
5.1045019685
 30
0.0
 11
1.3721227416
 21
5.1045019685
 31
0.0
  0
LINE
  5
229
330
D0
100
AcDbEntity
  8
0
  6
Continuous
 62
     7
370
    25
100
AcDbLine
 10
1.3693688533
 20
5.1100019685
 30
0.0
 11
1.3721227416
 21
5.1045019685
 31
0.0
  0
LINE
  5
22A
330
D0
100
AcDbEntity
  8
0
  6
Continuous
 62
     7
370
    25
100
AcDbLine
 10
1.3693688533
 20
5.1100019685
 30
0.0
 11
1.3693688533
 21
5.5255019685
 31
0.0
  0
LINE
  5
22B
330
D0
100
AcDbEntity
  8
0
  6
Continuous
 62
     7
370
    25
100
AcDbLine
 10
1.3771299545
 20
5.5410019685
 30
0.0
 11
1.3693688533
 21
5.5255019685
 31
0.0
  0
LINE
  5
22C
330
D0
100
AcDbEntity
  8
0
  6
Continuous
 62
     7
370
    25
100
AcDbLine
 10
1.3771299545
 20
5.5410019685
 30
0.0
 11
1.3920400953
 21
5.5410019685
 31
0.0
  0
LINE
  5
22D
330
D0
100
AcDbEntity
  8
0
  6
Continuous
 62
     7
370
    25
100
AcDbLine
 10
1.3920400953
 20
5.5410019685
 30
0.0
 11
1.3920400953
 21
5.6105019685
 31
0.0
  0
LINE
  5
22E
330
D0
100
AcDbEntity
  8
0
  6
Continuous
 62
     7
370
    25
100
AcDbLine
 10
1.3920400953
 20
5.6105019685
 30
0.0
 11
1.3771299545
 21
5.6105019685
 31
0.0
  0
LINE
  5
22F
330
D0
100
AcDbEntity
  8
0
  6
Continuous
 62
     7
370
    25
100
AcDbLine
 10
1.3693688533
 20
5.6260019685
 30
0.0
 11
1.3771299545
 21
5.6105019685
 31
0.0
  0
LINE
  5
230
330
D0
100
AcDbEntity
  8
0
  6
Continuous
 62
     7
370
    25
100
AcDbLine
 10
1.3693688533
 20
5.6260019685
 30
0.0
 11
1.3693688533
 21
5.8311509816
 31
0.0
  0
LINE
  5
231
330
D0
100
AcDbEntity
  8
0
  6
Continuous
 62
     7
370
    25
100
AcDbLine
 10
1.3832640521
 20
5.8497519685
 30
0.0
 11
1.4987775976
 21
5.8497519685
 31
0.0
  0
LINE
  5
232
330
D0
100
AcDbEntity
  8
0
  6
Continuous
 62
     7
370
    25
100
AcDbLine
 10
1.4987775976
 20
5.8497519685
 30
0.0
 11
1.4987775976
 21
3.6072519685
 31
0.0
  0
LINE
  5
233
330
D0
100
AcDbEntity
  8
0
  6
Continuous
 62
     7
370
    25
100
AcDbLine
 10
1.3832640521
 20
3.6072519685
 30
0.0
 11
1.4987775976
 21
3.6072519685
 31
0.0
  0
LWPOLYLINE
  5
234
330
D0
100
AcDbEntity
  8
0
  6
Continuous
 62
     7
370
    25
100
AcDbPolyline
 90
        9
 70
   128
 43
0.0
 10
1.3832640521
 20
3.6072519685
 10
1.381546703
 20
3.6074486428
 10
1.3790967146
 20
3.6084294052
 10
1.3766961909
 20
3.6102711669
 10
1.3745478064
 20
3.6128183245
 10
1.3725887292
 20
3.6161454469
 10
1.3709857219
 20
3.6199681722
 10
1.3696902797
 20
3.6244007561
 10
1.3693688533
 20
3.6258529554
  0
LINE
  5
235
330
D0
100
AcDbEntity
  8
0
  6
Continuous
 62
     7
370
    25
100
AcDbLine
 10
1.3693688533
 20
3.6258529554
 30
0.0
 11
1.3693688533
 21
3.8310019685
 31
0.0
  0
LINE
  5
236
330
D0
100
AcDbEntity
  8
0
  6
Continuous
 62
     7
370
    25
100
AcDbLine
 10
2.2067379164
 20
3.6072519685
 30
0.0
 11
2.2460509464
 21
3.6072519685
 31
0.0
  0
LINE
  5
237
330
D0
100
AcDbEntity
  8
0
  6
Continuous
 62
     7
370
    25
100
AcDbLine
 10
1.3439607694
 20
3.6072519685
 30
0.0
 11
1.3832640521
 21
3.6072519685
 31
0.0
  0
LINE
  5
238
330
D0
100
AcDbEntity
  8
0
  6
Continuous
 62
     7
370
    25
100
AcDbLine
 10
2.2206331152
 20
3.6258529554
 30
0.0
 11
2.2450720345
 21
3.6258529554
 31
0.0
  0
LINE
  5
239
330
D0
100
AcDbEntity
  8
0
  6
Continuous
 62
     7
370
    25
100
AcDbLine
 10
1.344929934
 20
3.6258529554
 30
0.0
 11
1.3693688533
 21
3.6258529554
 31
0.0
  0
LINE
  5
23A
330
D0
100
AcDbEntity
  8
0
  6
Continuous
 62
     7
370
    25
100
AcDbLine
 10
1.3771299545
 20
3.9160019685
 30
0.0
 11
1.344929934
 21
3.9160019685
 31
0.0
  0
LINE
  5
23B
330
D0
100
AcDbEntity
  8
0
  6
Continuous
 62
     7
370
    25
100
AcDbLine
 10
2.2450720345
 20
3.9160019685
 30
0.0
 11
2.212872014
 21
3.9160019685
 31
0.0
  0
LINE
  5
23C
330
D0
100
AcDbEntity
  8
0
  6
Continuous
 62
     7
370
    25
100
AcDbLine
 10
1.3693688533
 20
3.9315019685
 30
0.0
 11
1.344929934
 21
3.9315019685
 31
0.0
  0
LINE
  5
23D
330
D0
100
AcDbEntity
  8
0
  6
Continuous
 62
     7
370
    25
100
AcDbLine
 10
2.2450720345
 20
3.9315019685
 30
0.0
 11
2.2206331152
 21
3.9315019685
 31
0.0
  0
LINE
  5
23E
330
D0
100
AcDbEntity
  8
0
  6
Continuous
 62
     7
370
    25
100
AcDbLine
 10
1.3693688533
 20
5.1100019685
 30
0.0
 11
1.344929934
 21
5.1100019685
 31
0.0
  0
LINE
  5
23F
330
D0
100
AcDbEntity
  8
0
  6
Continuous
 62
     7
370
    25
100
AcDbLine
 10
2.2450720345
 20
5.1100019685
 30
0.0
 11
2.2206331152
 21
5.1100019685
 31
0.0
  0
LINE
  5
240
330
D0
100
AcDbEntity
  8
0
  6
Continuous
 62
     7
370
    25
100
AcDbLine
 10
2.2206331152
 20
5.5255019685
 30
0.0
 11
2.2450720345
 21
5.5255019685
 31
0.0
  0
LINE
  5
241
330
D0
100
AcDbEntity
  8
0
  6
Continuous
 62
     7
370
    25
100
AcDbLine
 10
1.344929934
 20
5.5255019685
 30
0.0
 11
1.3693688533
 21
5.5255019685
 31
0.0
  0
LINE
  5
242
330
D0
100
AcDbEntity
  8
0
  6
Continuous
 62
     7
370
    25
100
AcDbLine
 10
2.2178792269
 20
4.3525019685
 30
0.0
 11
2.2450720345
 21
4.3525019685
 31
0.0
  0
LINE
  5
243
330
D0
100
AcDbEntity
  8
0
  6
Continuous
 62
     7
370
    25
100
AcDbLine
 10
1.344929934
 20
4.3525019685
 30
0.0
 11
1.3721227416
 21
4.3525019685
 31
0.0
  0
LINE
  5
244
330
D0
100
AcDbEntity
  8
0
  6
Continuous
 62
     7
370
    25
100
AcDbLine
 10
2.2206331152
 20
4.3470019685
 30
0.0
 11
2.2450720345
 21
4.3470019685
 31
0.0
  0
LINE
  5
245
330
D0
100
AcDbEntity
  8
0
  6
Continuous
 62
     7
370
    25
100
AcDbLine
 10
1.344929934
 20
4.3470019685
 30
0.0
 11
1.3693688533
 21
4.3470019685
 31
0.0
  0
LINE
  5
246
330
D0
100
AcDbEntity
  8
0
  6
Continuous
 62
     7
370
    25
100
AcDbLine
 10
2.212872014
 20
3.8465019685
 30
0.0
 11
2.2450720345
 21
3.8465019685
 31
0.0
  0
LINE
  5
247
330
D0
100
AcDbEntity
  8
0
  6
Continuous
 62
     7
370
    25
100
AcDbLine
 10
1.344929934
 20
3.8465019685
 30
0.0
 11
1.3771299545
 21
3.8465019685
 31
0.0
  0
LINE
  5
248
330
D0
100
AcDbEntity
  8
0
  6
Continuous
 62
     7
370
    25
100
AcDbLine
 10
2.2206331152
 20
3.8310019685
 30
0.0
 11
2.2450720345
 21
3.8310019685
 31
0.0
  0
LINE
  5
249
330
D0
100
AcDbEntity
  8
0
  6
Continuous
 62
     7
370
    25
100
AcDbLine
 10
1.344929934
 20
3.8310019685
 30
0.0
 11
1.3693688533
 21
3.8310019685
 31
0.0
  0
LINE
  5
24A
330
D0
100
AcDbEntity
  8
0
  6
Continuous
 62
     7
370
    25
100
AcDbLine
 10
2.212872014
 20
5.5410019685
 30
0.0
 11
2.2450720345
 21
5.5410019685
 31
0.0
  0
LINE
  5
24B
330
D0
100
AcDbEntity
  8
0
  6
Continuous
 62
     7
370
    25
100
AcDbLine
 10
1.344929934
 20
5.5410019685
 30
0.0
 11
1.3771299545
 21
5.5410019685
 31
0.0
  0
LINE
  5
24C
330
D0
100
AcDbEntity
  8
0
  6
Continuous
 62
     7
370
    25
100
AcDbLine
 10
1.3693688533
 20
4.4840019685
 30
0.0
 11
1.3471113411
 21
4.4840019685
 31
0.0
  0
LINE
  5
24D
330
D0
100
AcDbEntity
  8
0
  6
Continuous
 62
     7
370
    25
100
AcDbLine
 10
2.2429255752
 20
4.4840019685
 30
0.0
 11
2.2206331152
 21
4.4840019685
 31
0.0
  0
LINE
  5
24E
330
D0
100
AcDbEntity
  8
0
  6
Continuous
 62
     7
370
    25
100
AcDbLine
 10
2.2206331152
 20
4.9730019685
 30
0.0
 11
2.2428906274
 21
4.9730019685
 31
0.0
  0
LINE
  5
24F
330
D0
100
AcDbEntity
  8
0
  6
Continuous
 62
     7
370
    25
100
AcDbLine
 10
1.3470763933
 20
4.9730019685
 30
0.0
 11
1.3693688533
 21
4.9730019685
 31
0.0
  0
LINE
  5
250
330
D0
100
AcDbEntity
  8
0
  6
Continuous
 62
     7
370
    25
100
AcDbLine
 10
1.3721227416
 20
4.4785019685
 30
0.0
 11
1.3469965634
 21
4.4785019685
 31
0.0
  0
LINE
  5
251
330
D0
100
AcDbEntity
  8
0
  6
Continuous
 62
     7
370
    25
100
AcDbLine
 10
2.2430112329
 20
4.4785019685
 30
0.0
 11
2.2178792269
 21
4.4785019685
 31
0.0
  0
LINE
  5
252
330
D0
100
AcDbEntity
  8
0
  6
Continuous
 62
     7
370
    25
100
AcDbLine
 10
1.3693688533
 20
5.6260019685
 30
0.0
 11
1.344929934
 21
5.6260019685
 31
0.0
  0
LINE
  5
253
330
D0
100
AcDbEntity
  8
0
  6
Continuous
 62
     7
370
    25
100
AcDbLine
 10
2.2450720345
 20
5.6260019685
 30
0.0
 11
2.2206331152
 21
5.6260019685
 31
0.0
  0
LINE
  5
254
330
D0
100
AcDbEntity
  8
0
  6
Continuous
 62
     7
370
    25
100
AcDbLine
 10
1.3721227416
 20
5.1045019685
 30
0.0
 11
1.344929934
 21
5.1045019685
 31
0.0
  0
LINE
  5
255
330
D0
100
AcDbEntity
  8
0
  6
Continuous
 62
     7
370
    25
100
AcDbLine
 10
2.2450720345
 20
5.1045019685
 30
0.0
 11
2.2178792269
 21
5.1045019685
 31
0.0
  0
LINE
  5
256
330
D0
100
AcDbEntity
  8
0
  6
Continuous
 62
     7
370
    25
100
AcDbLine
 10
1.3771299545
 20
5.6105019685
 30
0.0
 11
1.344929934
 21
5.6105019685
 31
0.0
  0
LINE
  5
257
330
D0
100
AcDbEntity
  8
0
  6
Continuous
 62
     7
370
    25
100
AcDbLine
 10
2.2450720345
 20
5.6105019685
 30
0.0
 11
2.212872014
 21
5.6105019685
 31
0.0
  0
LINE
  5
258
330
D0
100
AcDbEntity
  8
0
  6
Continuous
 62
     7
370
    25
100
AcDbLine
 10
2.2178792269
 20
4.9785019685
 30
0.0
 11
2.2430054051
 21
4.9785019685
 31
0.0
  0
LINE
  5
259
330
D0
100
AcDbEntity
  8
0
  6
Continuous
 62
     7
370
    25
100
AcDbLine
 10
1.3469907356
 20
4.9785019685
 30
0.0
 11
1.3721227416
 21
4.9785019685
 31
0.0
  0
LINE
  5
25A
330
D0
100
AcDbEntity
  8
0
  6
Continuous
 62
     7
370
    25
100
AcDbLine
 10
2.0912243709
 20
3.6072519685
 30
0.0
 11
1.4987775976
 21
3.6072519685
 31
0.0
  0
LINE
  5
25B
330
D0
100
AcDbEntity
  8
0
  6
Continuous
 62
     7
370
    25
100
AcDbLine
 10
1.4987775976
 20
5.8497519685
 30
0.0
 11
2.0912243709
 21
5.8497519685
 31
0.0
  0
ENDBLK
  5
D3
330
D0
100
AcDbEntity
  8
0
100
AcDbBlockEnd
  0
BLOCK
  5
25E
330
25C
100
AcDbEntity
  8
0
100
AcDbBlockBegin
  2
*Paper_Space2
 70
     0
 10
0.0
 20
0.0
 30
0.0
  3
*Paper_Space2
  1

  0
LINE
  5
260
330
25C
100
AcDbEntity
  8
0
  6
Continuous
 62
     7
370
    25
100
AcDbLine
 10
2.176193207
 20
1.9435089422
 30
0.0
 11
2.1799319185
 21
1.9410620052
 31
0.0
  0
LINE
  5
261
330
25C
100
AcDbEntity
  8
0
  6
Continuous
 62
     7
370
    25
100
AcDbLine
 10
1.41007005
 20
1.9410620052
 30
0.0
 11
1.4138086985
 21
1.9435089013
 31
0.0
  0
LWPOLYLINE
  5
262
330
25C
100
AcDbEntity
  8
0
  6
Continuous
 62
     7
370
    25
100
AcDbPolyline
 90
        3
 70
   128
 43
0.0
 10
1.3669980695
 20
2.024579587
 10
1.3496303919
 20
2.0131204428
 10
1.344929934
 20
2.0099050848
  0
LWPOLYLINE
  5
263
330
25C
100
AcDbEntity
  8
0
  6
Continuous
 62
     7
370
    25
100
AcDbPolyline
 90
        3
 70
   128
 43
0.0
 10
2.2450807415
 20
2.0098990827
 10
2.2403712494
 20
2.0131206649
 10
2.2230035661
 20
2.0245798004
  0
LINE
  5
264
330
25C
100
AcDbEntity
  8
0
  6
Continuous
 62
     7
370
    25
100
AcDbLine
 10
1.2081087124
 20
1.8902977229
 30
0.0
 11
1.2091577383
 21
1.8910986993
 31
0.0
  0
ARC
  5
265
330
25C
100
AcDbEntity
  8
0
  6
Continuous
 62
     7
370
    25
100
AcDbCircle
 10
1.2274510361
 20
1.8673214989
 30
0.0
 40
0.0300000000000001
100
AcDbArc
 50
45.786561532
 51
127.5733508302
  0
LINE
  5
266
330
25C
100
AcDbEntity
  8
0
  6
Continuous
 62
     7
370
    25
100
AcDbLine
 10
1.2750009843
 20
1.8629152597
 30
0.0
 11
1.248371033
 21
1.888823911
 31
0.0
  0
LINE
  5
267
330
25C
100
AcDbEntity
  8
0
  6
Continuous
 62
     7
370
    25
100
AcDbLine
 10
2.3416309355
 20
1.888823911
 30
0.0
 11
2.3150009843
 21
1.8629152597
 31
0.0
  0
ARC
  5
268
330
25C
100
AcDbEntity
  8
0
  6
Continuous
 62
     7
370
    25
100
AcDbCircle
 10
2.3625509324
 20
1.8673214989
 30
0.0
 40
0.0300000000000001
100
AcDbArc
 50
52.4266491698
 51
134.213438468
  0
LINE
  5
269
330
25C
100
AcDbEntity
  8
0
  6
Continuous
 62
     7
370
    25
100
AcDbLine
 10
2.3818932561
 20
1.8902977229
 30
0.0
 11
2.3808442302
 21
1.8910986993
 31
0.0
  0
ARC
  5
26A
330
25C
100
AcDbEntity
  8
0
  6
Continuous
 62
     7
370
    25
100
AcDbCircle
 10
1.7950009843
 20
1.357
 30
0.0
 40
0.7255
100
AcDbArc
 50
135.786561532
 51
44.213438468
  0
LINE
  5
26B
330
25C
100
AcDbEntity
  8
0
  6
Continuous
 62
     7
370
    25
100
AcDbLine
 10
2.1762070852
 20
1.9435293324
 30
0.0
 11
2.2229959553
 21
2.0245700326
 31
0.0
  0
LINE
  5
26C
330
25C
100
AcDbEntity
  8
0
  6
Continuous
 62
     7
370
    25
100
AcDbLine
 10
1.3670120186
 20
2.024559631
 30
0.0
 11
1.4138010127
 21
1.943518716
 31
0.0
  0
ARC
  5
26D
330
25C
100
AcDbEntity
  8
0
  6
Continuous
 62
     7
370
    25
100
AcDbCircle
 10
1.7950009843
 20
1.357
 30
0.0
 40
0.8129999999999997
100
AcDbArc
 50
124.4669943891
 51
55.5330056109
  0
LINE
  5
26E
330
25C
100
AcDbEntity
  8
0
  6
Continuous
 62
     7
370
    25
100
AcDbLine
 10
2.3017071602
 20
2.108
 30
0.0
 11
2.2551032756
 21
2.0272797039
 31
0.0
  0
LINE
  5
26F
330
25C
100
AcDbEntity
  8
0
  6
Continuous
 62
     7
370
    25
100
AcDbLine
 10
2.9225009843
 20
2.108
 30
0.0
 11
2.3017071602
 21
2.108
 31
0.0
  0
ARC
  5
270
330
25C
100
AcDbEntity
  8
0
  6
Continuous
 62
     7
370
    25
100
AcDbCircle
 10
2.9225009843
 20
2.048
 30
0.0
 40
0.0600000000000001
100
AcDbArc
 50
0.0
 51
90.0
  0
LINE
  5
271
330
25C
100
AcDbEntity
  8
0
  6
Continuous
 62
     7
370
    25
100
AcDbLine
 10
2.9825009843
 20
0.545
 30
0.0
 11
2.9825009843
 21
2.048
 31
0.0
  0
LINE
  5
272
330
25C
100
AcDbEntity
  8
0
  6
Continuous
 62
     7
370
    25
100
AcDbLine
 10
3.4200009843
 20
0.545
 30
0.0
 11
2.9825009843
 21
0.545
 31
0.0
  0
LINE
  5
273
330
25C
100
AcDbEntity
  8
0
  6
Continuous
 62
     7
370
    25
100
AcDbLine
 10
3.4200009843
 20
0.17
 30
0.0
 11
3.4200009843
 21
0.545
 31
0.0
  0
LINE
  5
274
330
25C
100
AcDbEntity
  8
0
  6
Continuous
 62
     7
370
    25
100
AcDbLine
 10
2.5159539789
 20
0.17
 30
0.0
 11
3.4200009843
 21
0.17
 31
0.0
  0
LINE
  5
275
330
25C
100
AcDbEntity
  8
0
  6
Continuous
 62
     7
370
    25
100
AcDbLine
 10
2.4784262114
 20
0.235
 30
0.0
 11
2.5159539789
 21
0.17
 31
0.0
  0
LINE
  5
276
330
25C
100
AcDbEntity
  8
0
  6
Continuous
 62
     7
370
    25
100
AcDbLine
 10
1.1115757571
 20
0.235
 30
0.0
 11
2.4784262114
 21
0.235
 31
0.0
  0
LINE
  5
277
330
25C
100
AcDbEntity
  8
0
  6
Continuous
 62
     7
370
    25
100
AcDbLine
 10
1.0740479896
 20
0.17
 30
0.0
 11
1.1115757571
 21
0.235
 31
0.0
  0
LINE
  5
278
330
25C
100
AcDbEntity
  8
0
  6
Continuous
 62
     7
370
    25
100
AcDbLine
 10
0.1700009843
 20
0.17
 30
0.0
 11
1.0740479896
 21
0.17
 31
0.0
  0
LINE
  5
279
330
25C
100
AcDbEntity
  8
0
  6
Continuous
 62
     7
370
    25
100
AcDbLine
 10
0.1700009843
 20
0.545
 30
0.0
 11
0.1700009843
 21
0.17
 31
0.0
  0
LINE
  5
27A
330
25C
100
AcDbEntity
  8
0
  6
Continuous
 62
     7
370
    25
100
AcDbLine
 10
0.6075009843
 20
0.545
 30
0.0
 11
0.1700009843
 21
0.545
 31
0.0
  0
LINE
  5
27B
330
25C
100
AcDbEntity
  8
0
  6
Continuous
 62
     7
370
    25
100
AcDbLine
 10
0.6075009843
 20
1.5595
 30
0.0
 11
0.6075009843
 21
0.545
 31
0.0
  0
LINE
  5
27C
330
25C
100
AcDbEntity
  8
0
  6
Continuous
 62
     7
370
    25
100
AcDbLine
 10
0.5450009843
 20
1.622
 30
0.0
 11
0.6075009843
 21
1.5595
 31
0.0
  0
LINE
  5
27D
330
25C
100
AcDbEntity
  8
0
  6
Continuous
 62
     7
370
    25
100
AcDbLine
 10
0.5450009843
 20
2.048
 30
0.0
 11
0.5450009843
 21
1.622
 31
0.0
  0
ARC
  5
27E
330
25C
100
AcDbEntity
  8
0
  6
Continuous
 62
     7
370
    25
100
AcDbCircle
 10
0.6050009843
 20
2.048
 30
0.0
 40
0.0600000000000002
100
AcDbArc
 50
90.0
 51
180.0
  0
LINE
  5
27F
330
25C
100
AcDbEntity
  8
0
  6
Continuous
 62
     7
370
    25
100
AcDbLine
 10
1.2882948083
 20
2.108
 30
0.0
 11
0.6050009843
 21
2.108
 31
0.0
  0
LINE
  5
280
330
25C
100
AcDbEntity
  8
0
  6
Continuous
 62
     7
370
    25
100
AcDbLine
 10
1.3348986929
 20
2.0272797039
 30
0.0
 11
1.2882948083
 21
2.108
 31
0.0
  0
ARC
  5
281
330
25C
100
AcDbEntity
  8
0
  6
Continuous
 62
     7
370
    25
100
AcDbCircle
 10
1.7950009843
 20
1.357
 30
0.0
 40
0.7930000000000001
100
AcDbArc
 50
124.5798981684
 51
55.4201018316
  0
LINE
  5
282
330
25C
100
AcDbEntity
  8
0
  6
Continuous
 62
     7
370
    25
100
AcDbLine
 10
1.3348977057
 20
2.0272814139
 30
0.0
 11
1.344929934
 21
2.0099050848
 31
0.0
  0
LINE
  5
283
330
25C
100
AcDbEntity
  8
0
  6
Continuous
 62
     7
370
    25
100
AcDbLine
 10
2.2450720345
 20
2.0099050848
 30
0.0
 11
2.2551042628
 21
2.0272814139
 31
0.0
  0
LINE
  5
284
330
25C
100
AcDbEntity
  8
0
  6
Continuous
 62
     7
370
    25
100
AcDbLine
 10
1.344929934
 20
2.0099050848
 30
0.0
 11
1.3475732642
 21
2.0053267026
 31
0.0
  0
LINE
  5
285
330
25C
100
AcDbEntity
  8
0
  6
Continuous
 62
     7
370
    25
100
AcDbLine
 10
2.2424296571
 20
2.0053283529
 30
0.0
 11
2.2450720345
 21
2.0099050848
 31
0.0
  0
ARC
  5
286
330
25C
100
AcDbEntity
  8
0
  6
Continuous
 62
     7
370
    25
100
AcDbCircle
 10
1.7950009843
 20
1.357
 30
0.0
 40
0.500625
100
AcDbArc
 50
124.7354273087
 51
55.2645726913
  0
LINE
  5
287
330
25C
100
AcDbEntity
  8
0
  6
Continuous
 62
     7
370
    25
100
AcDbLine
 10
2.0912243709
 20
1.7874160257
 30
0.0
 11
2.0802509843
 21
1.7684095625
 31
0.0
  0
LINE
  5
288
330
25C
100
AcDbEntity
  8
0
  6
Continuous
 62
     7
370
    25
100
AcDbLine
 10
1.5097509843
 20
1.7684095625
 30
0.0
 11
1.4987775976
 21
1.7874160257
 31
0.0
  0
LINE
  5
289
330
25C
100
AcDbEntity
  8
0
  6
Continuous
 62
     7
370
    25
100
AcDbLine
 10
1.3832640521
 20
1.9874913555
 30
0.0
 11
1.3693688533
 21
2.0115585457
 31
0.0
  0
LINE
  5
28A
330
25C
100
AcDbEntity
  8
0
  6
Continuous
 62
     7
370
    25
100
AcDbLine
 10
2.2206331152
 20
2.0115585457
 30
0.0
 11
2.2067379164
 21
1.9874913555
 31
0.0
  0
ARC
  5
28B
330
25C
100
AcDbEntity
  8
0
  6
Continuous
 62
     7
370
    25
100
AcDbCircle
 10
1.7950009843
 20
1.357
 30
0.0
 40
0.780775
100
AcDbArc
 50
43.7677471523
 51
56.965729577
  0
ARC
  5
28C
330
25C
100
AcDbEntity
  8
0
  6
Continuous
 62
     7
370
    25
100
AcDbCircle
 10
1.7950009843
 20
1.357
 30
0.0
 40
0.7807750000000001
100
AcDbArc
 50
123.034270423
 51
136.2322528477
  0
ARC
  5
28D
330
25C
100
AcDbEntity
  8
0
  6
Continuous
 62
     7
370
    25
100
AcDbCircle
 10
1.7950009843
 20
1.357
 30
0.0
 40
0.5225000000000001
100
AcDbArc
 50
124.5367492611
 51
55.4632507389
  0
LINE
  5
28E
330
25C
100
AcDbEntity
  8
0
  6
Continuous
 62
     7
370
    25
100
AcDbLine
 10
2.2067379164
 20
1.9874913555
 30
0.0
 11
2.0912243709
 21
1.7874160257
 31
0.0
  0
LINE
  5
28F
330
25C
100
AcDbEntity
  8
0
  6
Continuous
 62
     7
370
    25
100
AcDbLine
 10
1.4987775976
 20
1.7874160257
 30
0.0
 11
1.3832640521
 21
1.9874913555
 31
0.0
  0
ARC
  5
290
330
25C
100
AcDbEntity
  8
0
  6
Continuous
 62
     8
370
    25
100
AcDbCircle
 10
1.7950009843
 20
1.357
 30
0.0
 40
0.7530249999999996
100
AcDbArc
 50
123.1461979492
 51
135.786561532
  0
ARC
  5
291
330
25C
100
AcDbEntity
  8
0
  6
Continuous
 62
     8
370
    25
100
AcDbCircle
 10
1.7950009843
 20
1.357
 30
0.0
 40
0.7530249999999996
100
AcDbArc
 50
44.213438468
 51
56.8538020508
  0
ENDBLK
  5
25F
330
25C
100
AcDbEntity
  8
0
100
AcDbBlockEnd
  0
ENDSEC
  0
SECTION
  2
ENTITIES
  0
LINE
  5
74
330
1F
100
AcDbEntity
  8
0
  6
Continuous
 62
     7
370
    25
100
AcDbLine
 10
2.1766397847
 20
1.9442787899
 30
0.0
 11
2.1799319185
 21
1.9410620052
 31
0.0
  0
LINE
  5
75
330
1F
100
AcDbEntity
  8
0
  6
Continuous
 62
     7
370
    25
100
AcDbLine
 10
1.41007005
 20
1.9410620052
 30
0.0
 11
1.4138010127
 21
1.943518716
 31
0.0
  0
LINE
  5
76
330
1F
100
AcDbEntity
  8
0
  6
Continuous
 62
     7
370
    25
100
AcDbLine
 10
1.3674464064
 20
2.0238072494
 30
0.0
 11
1.344929934
 21
2.0099050848
 31
0.0
  0
LINE
  5
77
330
1F
100
AcDbEntity
  8
0
  6
Continuous
 62
     7
370
    25
100
AcDbLine
 10
2.2450720345
 20
2.0099050848
 30
0.0
 11
2.2229959553
 21
2.0245700326
 31
0.0
  0
LINE
  5
78
330
1F
100
AcDbEntity
  8
0
  6
Continuous
 62
     7
370
    25
100
AcDbLine
 10
2.2206331152
 20
2.0115585457
 30
0.0
 11
2.2229959553
 21
2.0245700326
 31
0.0
  0
LINE
  5
79
330
1F
100
AcDbEntity
  8
0
  6
Continuous
 62
     7
370
    25
100
AcDbLine
 10
2.2067379164
 20
1.9874913555
 30
0.0
 11
2.1766397847
 21
1.9442787899
 31
0.0
  0
LINE
  5
7A
330
1F
100
AcDbEntity
  8
0
  6
Continuous
 62
     7
370
    25
100
AcDbLine
 10
1.3832640521
 20
1.9874913555
 30
0.0
 11
1.4138010127
 21
1.943518716
 31
0.0
  0
LINE
  5
7B
330
1F
100
AcDbEntity
  8
0
  6
Continuous
 62
     7
370
    25
100
AcDbLine
 10
1.3693688533
 20
2.0115585457
 30
0.0
 11
1.3674464064
 21
2.0238072494
 31
0.0
  0
ARC
  5
7C
330
1F
100
AcDbEntity
  8
0
  6
Continuous
 62
     7
370
    25
100
AcDbCircle
 10
1.2274510361
 20
1.8673214989
 30
0.0
 40
0.0300000000000006
100
AcDbArc
 50
45.786561532
 51
127.5733508302
  0
LINE
  5
7D
330
1F
100
AcDbEntity
  8
0
  6
Continuous
 62
     7
370
    25
100
AcDbLine
 10
1.2750009843
 20
1.8629152597
 30
0.0
 11
1.248371033
 21
1.888823911
 31
0.0
  0
ARC
  5
7E
330
1F
100
AcDbEntity
  8
0
  6
Continuous
 62
     7
370
    25
100
AcDbCircle
 10
1.7950009843
 20
1.357
 30
0.0
 40
0.7255000000000001
100
AcDbArc
 50
135.786561532
 51
44.213438468
  0
LINE
  5
7F
330
1F
100
AcDbEntity
  8
0
  6
Continuous
 62
     7
370
    25
100
AcDbLine
 10
2.3416309355
 20
1.888823911
 30
0.0
 11
2.3150009843
 21
1.8629152597
 31
0.0
  0
ARC
  5
80
330
1F
100
AcDbEntity
  8
0
  6
Continuous
 62
     7
370
    25
100
AcDbCircle
 10
2.3625509324
 20
1.8673214989
 30
0.0
 40
0.0300000000000006
100
AcDbArc
 50
52.4266491698
 51
134.213438468
  0
ARC
  5
81
330
1F
100
AcDbEntity
  8
0
  6
Continuous
 62
     7
370
    25
100
AcDbCircle
 10
2.9850009843
 20
2.048
 30
0.0
 40
0.0600000000000005
100
AcDbArc
 50
0.0
 51
90.0
  0
LINE
  5
82
330
1F
100
AcDbEntity
  8
0
  6
Continuous
 62
     7
370
    25
100
AcDbLine
 10
3.0450009843
 20
1.622
 30
0.0
 11
3.0450009843
 21
2.048
 31
0.0
  0
LINE
  5
83
330
1F
100
AcDbEntity
  8
0
  6
Continuous
 62
     7
370
    25
100
AcDbLine
 10
2.9825009843
 20
1.5595
 30
0.0
 11
3.0450009843
 21
1.622
 31
0.0
  0
LINE
  5
84
330
1F
100
AcDbEntity
  8
0
  6
Continuous
 62
     7
370
    25
100
AcDbLine
 10
3.4200009843
 20
0.545
 30
0.0
 11
2.9825009843
 21
0.545
 31
0.0
  0
LINE
  5
85
330
1F
100
AcDbEntity
  8
0
  6
Continuous
 62
     7
370
    25
100
AcDbLine
 10
3.4200009843
 20
0.17
 30
0.0
 11
3.4200009843
 21
0.545
 31
0.0
  0
LINE
  5
86
330
1F
100
AcDbEntity
  8
0
  6
Continuous
 62
     7
370
    25
100
AcDbLine
 10
3.4200009843
 20
0.17
 30
0.0
 11
2.5159539789
 21
0.17
 31
0.0
  0
LINE
  5
87
330
1F
100
AcDbEntity
  8
0
  6
Continuous
 62
     7
370
    25
100
AcDbLine
 10
2.5159539789
 20
0.17
 30
0.0
 11
2.4784262114
 21
0.235
 31
0.0
  0
LINE
  5
88
330
1F
100
AcDbEntity
  8
0
  6
Continuous
 62
     7
370
    25
100
AcDbLine
 10
2.4784262114
 20
0.235
 30
0.0
 11
1.1115757571
 21
0.235
 31
0.0
  0
LINE
  5
89
330
1F
100
AcDbEntity
  8
0
  6
Continuous
 62
     7
370
    25
100
AcDbLine
 10
1.1115757571
 20
0.235
 30
0.0
 11
1.0740479896
 21
0.17
 31
0.0
  0
LINE
  5
8A
330
1F
100
AcDbEntity
  8
0
  6
Continuous
 62
     7
370
    25
100
AcDbLine
 10
1.0740479896
 20
0.17
 30
0.0
 11
0.1700009843
 21
0.17
 31
0.0
  0
LINE
  5
8B
330
1F
100
AcDbEntity
  8
0
  6
Continuous
 62
     7
370
    25
100
AcDbLine
 10
0.1700009843
 20
0.545
 30
0.0
 11
0.1700009843
 21
0.17
 31
0.0
  0
ARC
  5
8C
330
1F
100
AcDbEntity
  8
0
  6
Continuous
 62
     7
370
    25
100
AcDbCircle
 10
0.6675009843
 20
2.048
 30
0.0
 40
0.0600000000000001
100
AcDbArc
 50
90.0
 51
180.0
  0
LINE
  5
8D
330
1F
100
AcDbEntity
  8
0
  6
Continuous
 62
     7
370
    25
100
AcDbLine
 10
0.6675009843
 20
2.108
 30
0.0
 11
1.2882948083
 21
2.108
 31
0.0
  0
LINE
  5
8E
330
1F
100
AcDbEntity
  8
0
  6
Continuous
 62
     7
370
    25
100
AcDbLine
 10
1.2882948083
 20
2.108
 30
0.0
 11
1.3348986929
 21
2.0272797039
 31
0.0
  0
ARC
  5
8F
330
1F
100
AcDbEntity
  8
0
  6
Continuous
 62
     7
370
    25
100
AcDbCircle
 10
1.7950009843
 20
1.357
 30
0.0
 40
0.8129999999999992
100
AcDbArc
 50
124.4669998081
 51
55.533000192
  0
LINE
  5
90
330
1F
100
AcDbEntity
  8
0
  6
Continuous
 62
     7
370
    25
100
AcDbLine
 10
2.2551032756
 20
2.0272797039
 30
0.0
 11
2.3017071602
 21
2.108
 31
0.0
  0
LINE
  5
91
330
1F
100
AcDbEntity
  8
0
  6
Continuous
 62
     7
370
    25
100
AcDbLine
 10
2.3017071602
 20
2.108
 30
0.0
 11
2.9850009843
 21
2.108
 31
0.0
  0
LINE
  5
92
330
1F
100
AcDbEntity
  8
0
  6
Continuous
 62
     7
370
    25
100
AcDbLine
 10
2.9825009843
 20
1.5595
 30
0.0
 11
2.9825009843
 21
0.545
 31
0.0
  0
LINE
  5
93
330
1F
100
AcDbEntity
  8
0
  6
Continuous
 62
     7
370
    25
100
AcDbLine
 10
0.6075009843
 20
0.545
 30
0.0
 11
0.6075009843
 21
2.048
 31
0.0
  0
LINE
  5
94
330
1F
100
AcDbEntity
  8
0
  6
Continuous
 62
     7
370
    25
100
AcDbLine
 10
0.6075009843
 20
0.545
 30
0.0
 11
0.1700009843
 21
0.545
 31
0.0
  0
LINE
  5
95
330
1F
100
AcDbEntity
  8
0
  6
Continuous
 62
     7
370
    25
100
AcDbLine
 10
1.3348986929
 20
2.0272797039
 30
0.0
 11
1.344929934
 21
2.0099050848
 31
0.0
  0
ARC
  5
96
330
1F
100
AcDbEntity
  8
0
  6
Continuous
 62
     7
370
    25
100
AcDbCircle
 10
1.7950009843
 20
1.357
 30
0.0
 40
0.7930000000000001
100
AcDbArc
 50
124.5798981684
 51
55.4201018316
  0
LINE
  5
97
330
1F
100
AcDbEntity
  8
0
  6
Continuous
 62
     7
370
    25
100
AcDbLine
 10
2.2450720345
 20
2.0099050848
 30
0.0
 11
2.2551032756
 21
2.0272797039
 31
0.0
  0
LINE
  5
98
330
1F
100
AcDbEntity
  8
0
  6
Continuous
 62
     7
370
    25
100
AcDbLine
 10
2.2435228793
 20
2.0072218692
 30
0.0
 11
2.2450720345
 21
2.0099050848
 31
0.0
  0
LINE
  5
99
330
1F
100
AcDbEntity
  8
0
  6
Continuous
 62
     7
370
    25
100
AcDbLine
 10
1.344929934
 20
2.0099050848
 30
0.0
 11
1.3464870082
 21
2.0072081531
 31
0.0
  0
ARC
  5
9A
330
1F
100
AcDbEntity
  8
0
  6
Continuous
 62
     7
370
    25
100
AcDbCircle
 10
1.7950009843
 20
1.357
 30
0.0
 40
0.500625
100
AcDbArc
 50
124.7354273087
 51
55.2645726913
  0
LINE
  5
9B
330
1F
100
AcDbEntity
  8
0
  6
Continuous
 62
     7
370
    25
100
AcDbLine
 10
1.5097509843
 20
1.7684095625
 30
0.0
 11
1.4987775976
 21
1.7874160257
 31
0.0
  0
LINE
  5
9C
330
1F
100
AcDbEntity
  8
0
  6
Continuous
 62
     7
370
    25
100
AcDbLine
 10
2.0912243709
 20
1.7874160257
 30
0.0
 11
2.0802509843
 21
1.7684095625
 31
0.0
  0
LINE
  5
9D
330
1F
100
AcDbEntity
  8
0
  6
Continuous
 62
     7
370
    25
100
AcDbLine
 10
1.3832640521
 20
1.9874913555
 30
0.0
 11
1.3693688533
 21
2.0115585457
 31
0.0
  0
LINE
  5
9E
330
1F
100
AcDbEntity
  8
0
  6
Continuous
 62
     7
370
    25
100
AcDbLine
 10
2.2206331152
 20
2.0115585457
 30
0.0
 11
2.2067379164
 21
1.9874913555
 31
0.0
  0
ARC
  5
9F
330
1F
100
AcDbEntity
  8
0
  6
Continuous
 62
     7
370
    25
100
AcDbCircle
 10
1.7285176459
 20
1.4053968796
 30
0.0
 40
0.7807749999999998
100
AcDbArc
 50
38.2550417815
 51
50.9284034475
  0
ARC
  5
A0
330
1F
100
AcDbEntity
  8
0
  6
Continuous
 62
     7
370
    25
100
AcDbCircle
 10
1.8614843226
 20
1.4053968796
 30
0.0
 40
0.7807750000000001
100
AcDbArc
 50
129.0715965525
 51
141.7449582185
  0
ARC
  5
A1
330
1F
100
AcDbEntity
  8
0
  6
Continuous
 62
     7
370
    25
100
AcDbCircle
 10
1.7950009843
 20
1.357
 30
0.0
 40
0.5225
100
AcDbArc
 50
124.5367492611
 51
55.4632507389
  0
LINE
  5
A2
330
1F
100
AcDbEntity
  8
0
  6
Continuous
 62
     7
370
    25
100
AcDbLine
 10
2.2067379164
 20
1.9874913555
 30
0.0
 11
2.0912243709
 21
1.7874160257
 31
0.0
  0
LINE
  5
A3
330
1F
100
AcDbEntity
  8
0
  6
Continuous
 62
     7
370
    25
100
AcDbLine
 10
1.4987775976
 20
1.7874160257
 30
0.0
 11
1.3832640521
 21
1.9874913555
 31
0.0
  0
ARC
  5
A4
330
1F
100
AcDbEntity
  8
0
  6
Continuous
 62
     8
370
    25
100
AcDbCircle
 10
1.7950009843
 20
1.357
 30
0.0
 40
0.7530249999999999
100
AcDbArc
 50
123.1461979492
 51
135.786561532
  0
ARC
  5
A5
330
1F
100
AcDbEntity
  8
0
  6
Continuous
 62
     8
370
    25
100
AcDbCircle
 10
1.8323634316
 20
1.3341228562
 30
0.0
 40
0.753025
100
AcDbArc
 50
47.4451570299
 51
60.1876651969
  0
ARC
  5
A6
330
1B
100
AcDbEntity
 67
     1
  8
0
  6
Continuous
 62
     7
370
    25
100
AcDbCircle
 10
5.7247519685
 20
1.357
 30
0.0
 40
0.027062499999999
100
AcDbArc
 50
6.1115822941
 51
353.8884177059
  0
LINE
  5
A7
330
1B
100
AcDbEntity
 67
     1
  8
0
  6
Continuous
 62
     7
370
    25
100
AcDbLine
 10
5.7606991872
 20
1.3541187889
 30
0.0
 11
5.7516606572
 21
1.3541187889
 31
0.0
  0
ARC
  5
A8
330
1B
100
AcDbEntity
 67
     1
  8
0
  6
Continuous
 62
     7
370
    25
100
AcDbCircle
 10
5.7247519685
 20
1.357
 30
0.0
 40
0.0360625
100
AcDbArc
 50
4.5825265681
 51
355.4174734319
  0
LINE
  5
A9
330
1B
100
AcDbEntity
 67
     1
  8
0
  6
Continuous
 62
     7
370
    25
100
AcDbLine
 10
5.7516606572
 20
1.3598812111
 30
0.0
 11
5.7606991872
 21
1.3598812111
 31
0.0
  0
ARC
  5
AA
330
1B
100
AcDbEntity
 67
     1
  8
0
  6
Continuous
 62
     7
370
    25
100
AcDbCircle
 10
5.7247519685
 20
1.357
 30
0.0
 40
0.0390624999999987
100
AcDbArc
 50
4.2299209107
 51
355.7700790893
  0
LINE
  5
AB
330
1B
100
AcDbEntity
 67
     1
  8
0
  6
Continuous
 62
     7
370
    25
100
AcDbLine
 10
5.7606991872
 20
1.3541187889
 30
0.0
 11
5.763708066
 21
1.3541187889
 31
0.0
  0
LINE
  5
AC
330
1B
100
AcDbEntity
 67
     1
  8
0
  6
Continuous
 62
     7
370
    25
100
AcDbLine
 10
5.763708066
 20
1.3598812111
 30
0.0
 11
5.7606991872
 21
1.3598812111
 31
0.0
  0
LINE
  5
AD
330
1B
100
AcDbEntity
 67
     1
  8
0
  6
Continuous
 62
     7
370
    25
100
AcDbLine
 10
6.1700019685
 20
0.17
 30
0.0
 11
0.1700019685
 21
0.17
 31
0.0
  0
LINE
  5
AE
330
1B
100
AcDbEntity
 67
     1
  8
0
  6
Continuous
 62
     7
370
    25
100
AcDbLine
 10
6.1700019685
 20
0.545
 30
0.0
 11
0.1700019685
 21
0.545
 31
0.0
  0
LINE
  5
AF
330
1B
100
AcDbEntity
 67
     1
  8
0
  6
Continuous
 62
     7
370
    25
100
AcDbLine
 10
0.1700019685
 20
0.17
 30
0.0
 11
0.1700019685
 21
0.545
 31
0.0
  0
LINE
  5
B0
330
1B
100
AcDbEntity
 67
     1
  8
0
  6
Continuous
 62
     7
370
    25
100
AcDbLine
 10
6.1700019685
 20
0.545
 30
0.0
 11
6.1700019685
 21
0.17
 31
0.0
  0
LINE
  5
B1
330
1B
100
AcDbEntity
 67
     1
  8
0
  6
Continuous
 62
     7
370
    25
100
AcDbLine
 10
6.1700019685
 20
1.5595
 30
0.0
 11
0.1700019685
 21
1.5595
 31
0.0
  0
LINE
  5
B2
330
1B
100
AcDbEntity
 67
     1
  8
0
  6
Continuous
 62
     7
370
    25
100
AcDbLine
 10
6.1700019685
 20
1.622
 30
0.0
 11
0.1700019685
 21
1.622
 31
0.0
  0
LINE
  5
B3
330
1B
100
AcDbEntity
 67
     1
  8
0
  6
Continuous
 62
     7
370
    25
100
AcDbLine
 10
0.1700019685
 20
1.5595
 30
0.0
 11
0.1700019685
 21
1.622
 31
0.0
  0
LINE
  5
B4
330
1B
100
AcDbEntity
 67
     1
  8
0
  6
Continuous
 62
     7
370
    25
100
AcDbLine
 10
6.1700019685
 20
1.622
 30
0.0
 11
6.1700019685
 21
1.5595
 31
0.0
  0
LINE
  5
B5
330
1B
100
AcDbEntity
 67
     1
  8
0
  6
Continuous
 62
     7
370
    25
100
AcDbLine
 10
6.1700019685
 20
2.048
 30
0.0
 11
0.1700019685
 21
2.048
 31
0.0
  0
LINE
  5
B6
330
1B
100
AcDbEntity
 67
     1
  8
0
  6
Continuous
 62
     7
370
    25
100
AcDbLine
 10
0.1700019685
 20
1.622
 30
0.0
 11
0.1700019685
 21
2.048
 31
0.0
  0
LINE
  5
B7
330
1B
100
AcDbEntity
 67
     1
  8
0
  6
Continuous
 62
     7
370
    25
100
AcDbLine
 10
6.1700019685
 20
2.048
 30
0.0
 11
6.1700019685
 21
1.622
 31
0.0
  0
LINE
  5
B8
330
1B
100
AcDbEntity
 67
     1
  8
0
  6
Continuous
 62
     7
370
    25
100
AcDbLine
 10
0.1700019685
 20
2.108
 30
0.0
 11
6.1700019685
 21
2.108
 31
0.0
  0
LINE
  5
B9
330
1B
100
AcDbEntity
 67
     1
  8
0
  6
Continuous
 62
     7
370
    25
100
AcDbLine
 10
0.1700019685
 20
2.048
 30
0.0
 11
0.1700019685
 21
2.108
 31
0.0
  0
LINE
  5
BA
330
1B
100
AcDbEntity
 67
     1
  8
0
  6
Continuous
 62
     7
370
    25
100
AcDbLine
 10
6.1700019685
 20
2.108
 30
0.0
 11
6.1700019685
 21
2.048
 31
0.0
  0
CIRCLE
  5
BB
330
1B
100
AcDbEntity
 67
     1
  8
0
  6
Continuous
 62
     7
370
    25
100
AcDbCircle
 10
5.7247519685
 20
1.357
 30
0.0
 40
0.0394999999999999
  0
LINE
  5
BC
330
1B
100
AcDbEntity
 67
     1
  8
0
  6
Continuous
 62
     7
370
    25
100
AcDbLine
 10
0.1700019685
 20
1.5595
 30
0.0
 11
0.1700019685
 21
0.545
 31
0.0
  0
LINE
  5
BD
330
1B
100
AcDbEntity
 67
     1
  8
0
  6
Continuous
 62
     7
370
    25
100
AcDbLine
 10
6.1700019685
 20
1.5595
 30
0.0
 11
6.1700019685
 21
0.545
 31
0.0
  0
ENDSEC
  0
SECTION
  2
OBJECTS
  0
DICTIONARY
  5
C
330
0
100
AcDbDictionary
281
     1
  3
ACAD_DETAILVIEWSTYLE
350
299
  3
ACAD_GROUP
350
D
  3
ACAD_LAYOUT
350
1A
  3
ACAD_MATERIAL
350
43
  3
ACAD_MLEADERSTYLE
350
6B
  3
ACAD_MLINESTYLE
350
17
  3
ACAD_PLOTSETTINGS
350
19
  3
ACAD_PLOTSTYLENAME
350
E
  3
ACAD_SCALELIST
350
47
  3
ACAD_SECTIONVIEWSTYLE
350
29A
  3
ACAD_TABLESTYLE
350
69
  3
ACAD_VISUALSTYLE
350
2A
  3
ACDB_RECOMPOSE_DATA
350
296
  3
AcDbVariableDictionary
350
292
  0
SUN
  5
6D
330
29
100
AcDbSun
 90
        1
290
     0
 63
     7
421
 16777215
 40
1.0
291
     1
 91
  2455826
 92
 54000000
292
     0
 70
     2
 71
   256
280
     1
  0
DICTIONARY
  5
299
102
{ACAD_REACTORS
330
C
102
}
330
C
100
AcDbDictionary
281
     1
  0
DICTIONARY
  5
D
102
{ACAD_REACTORS
330
C
102
}
330
C
100
AcDbDictionary
281
     1
  0
DICTIONARY
  5
1A
102
{ACAD_REACTORS
330
C
102
}
330
C
100
AcDbDictionary
281
     1
  3
Back
350
25D
  3
Left
350
26
  3
Model
350
22
  3
Right
350
1E
  3
Top
350
D1
  0
DICTIONARY
  5
43
102
{ACAD_REACTORS
330
C
102
}
330
C
100
AcDbDictionary
281
     1
  3
ByBlock
350
45
  3
ByLayer
350
44
  3
Global
350
46
  0
DICTIONARY
  5
6B
102
{ACAD_REACTORS
330
C
102
}
330
C
100
AcDbDictionary
281
     1
  3
Standard
350
6C
  0
DICTIONARY
  5
17
102
{ACAD_REACTORS
330
C
102
}
330
C
100
AcDbDictionary
281
     1
  3
Standard
350
18
  0
DICTIONARY
  5
19
102
{ACAD_REACTORS
330
C
102
}
330
C
100
AcDbDictionary
281
     1
  0
ACDBDICTIONARYWDFLT
  5
E
102
{ACAD_REACTORS
330
C
102
}
330
C
100
AcDbDictionary
281
     1
  3
Normal
350
F
100
AcDbDictionaryWithDefault
340
F
  0
DICTIONARY
  5
47
102
{ACAD_REACTORS
330
C
102
}
330
C
100
AcDbDictionary
281
     1
  3
A0
350
48
  3
A1
350
49
  3
A2
350
4A
  3
A3
350
4B
  3
A4
350
4C
  3
A5
350
4D
  3
A6
350
4E
  3
A7
350
4F
  3
A8
350
50
  3
A9
350
51
  3
B0
350
52
  3
B1
350
53
  3
B2
350
54
  3
B3
350
55
  3
B4
350
56
  3
B5
350
57
  3
B6
350
58
  3
B7
350
59
  3
B8
350
5A
  3
B9
350
5B
  3
C0
350
5C
  3
C1
350
5D
  3
C2
350
5E
  3
C3
350
5F
  3
C4
350
60
  3
C5
350
61
  3
C6
350
62
  3
C7
350
63
  3
C8
350
64
  3
C9
350
65
  3
D0
350
66
  3
D1
350
67
  3
D2
350
68
  0
DICTIONARY
  5
29A
102
{ACAD_REACTORS
330
C
102
}
330
C
100
AcDbDictionary
281
     1
  0
DICTIONARY
  5
69
102
{ACAD_REACTORS
330
C
102
}
330
C
100
AcDbDictionary
281
     1
  3
Standard
350
6A
  0
DICTIONARY
  5
2A
102
{ACAD_REACTORS
330
C
102
}
330
C
100
AcDbDictionary
281
     1
  3
2dWireframe
350
2F
  3
Basic
350
32
  3
Brighten
350
36
  3
ColorChange
350
3A
  3
Conceptual
350
34
  3
Dim
350
35
  3
EdgeColorOff
350
3D
  3
Facepattern
350
39
  3
Flat
350
2B
  3
FlatWithEdges
350
2C
  3
Gouraud
350
2D
  3
GouraudWithEdges
350
2E
  3
Hidden
350
31
  3
JitterOff
350
3B
  3
Linepattern
350
38
  3
OverhangOff
350
3C
  3
Realistic
350
33
  3
Shaded
350
42
  3
Shaded with edges
350
41
  3
Shades of Gray
350
3E
  3
Sketchy
350
3F
  3
Thicken
350
37
  3
Wireframe
350
30
  3
X-Ray
350
40
  0
XRECORD
  5
296
102
{ACAD_REACTORS
330
C
102
}
330
C
100
AcDbXrecord
280
     1
 90
        1
330
6A
  0
DICTIONARY
  5
292
102
{ACAD_REACTORS
330
C
102
}
330
C
100
AcDbDictionary
281
     1
  3
CANNOSCALE
350
293
  3
CMLEADERSTYLE
350
298
  3
CTABLESTYLE
350
297
  0
LAYOUT
  5
25D
102
{ACAD_REACTORS
330
1A
102
}
330
1A
100
AcDbPlotSettings
  1

  2
none_device
  4
ANSI_A_(11.00_x_8.50_Inches)
  6

 40
6.35
 41
19.05
 42
6.35000508
 43
19.05000254
 44
279.4
 45
215.9
 46
0.0
 47
0.0
 48
0.0
 49
0.0
140
0.0
141
0.0
142
1.0
143
1.0
 70
  4832
 72
     0
 73
     0
 74
     1
  7

 75
    16
 76
     0
 77
     2
 78
   300
147
1.0
148
0.0
149
0.0
100
AcDbLayout
  1
Back
 70
     1
 71
     4
 10
0.0
 20
0.0
 11
11.0
 21
8.5
 12
0.0
 22
0.0
 32
0.0
 14
0.0
 24
0.0
 34
0.0
 15
11.0
 25
8.5
 35
0.0
146
0.0
 13
0.0
 23
0.0
 33
0.0
 16
1.0
 26
0.0
 36
0.0
 17
0.0
 27
1.0
 37
0.0
 76
     0
330
25C
  0
LAYOUT
  5
26
102
{ACAD_REACTORS
330
1A
102
}
330
1A
100
AcDbPlotSettings
  1

  2
none_device
  4
ANSI_A_(11.00_x_8.50_Inches)
  6

 40
6.35
 41
19.05
 42
6.35000508
 43
19.05000254
 44
279.4
 45
215.9
 46
0.0
 47
0.0
 48
0.0
 49
0.0
140
0.0
141
0.0
142
1.0
143
1.0
 70
  4832
 72
     0
 73
     0
 74
     1
  7

 75
    16
 76
     0
 77
     2
 78
   300
147
1.0
148
0.0
149
0.0
100
AcDbLayout
  1
Left
 70
     1
 71
     2
 10
0.0
 20
0.0
 11
11.0
 21
8.5
 12
0.0
 22
0.0
 32
0.0
 14
0.0
 24
0.0
 34
0.0
 15
11.0
 25
8.5
 35
0.0
146
0.0
 13
0.0
 23
0.0
 33
0.0
 16
1.0
 26
0.0
 36
0.0
 17
0.0
 27
1.0
 37
0.0
 76
     0
330
23
  0
LAYOUT
  5
22
102
{ACAD_REACTORS
330
1A
102
}
330
1A
100
AcDbPlotSettings
  1

  2
none_device
  4
Letter_(8.50_x_11.00_Inches)
  6

 40
6.35
 41
6.35
 42
6.35000508
 43
6.35000508
 44
215.9
 45
279.4
 46
0.0
 47
0.0
 48
0.0
 49
0.0
140
0.0
141
0.0
142
1.0
143
1.0
 70
  1712
 72
     0
 73
     0
 74
     0
  7

 75
     0
 76
     0
 77
     2
 78
   300
147
1.0
148
0.0
149
0.0
100
AcDbLayout
  1
Model
 70
     1
 71
     0
 10
0.0
 20
0.0
 11
11.0
 21
8.5
 12
0.0
 22
0.0
 32
0.0
 14
0.0
 24
0.0
 34
0.0
 15
11.0
 25
8.5
 35
0.0
146
0.0
 13
0.0
 23
0.0
 33
0.0
 16
1.0
 26
0.0
 36
0.0
 17
0.0
 27
1.0
 37
0.0
 76
     0
330
1F
331
29
  0
LAYOUT
  5
1E
102
{ACAD_REACTORS
330
1A
102
}
330
1A
100
AcDbPlotSettings
  1

  2
none_device
  4
ANSI_A_(11.00_x_8.50_Inches)
  6

 40
6.35
 41
19.05
 42
6.35000508
 43
19.05000254
 44
279.4
 45
215.9
 46
0.0
 47
0.0
 48
0.0
 49
0.0
140
0.0
141
0.0
142
1.0
143
1.0
 70
  4832
 72
     0
 73
     0
 74
     1
  7

 75
     0
 76
     0
 77
     2
 78
   300
147
1.0
148
0.0
149
0.0
100
AcDbLayout
  1
Right
 70
     1
 71
     1
 10
0.0
 20
0.0
 11
11.0
 21
8.5
 12
0.0
 22
0.0
 32
0.0
 14
0.0
 24
0.0
 34
0.0
 15
11.0
 25
8.5
 35
0.0
146
0.0
 13
0.0
 23
0.0
 33
0.0
 16
1.0
 26
0.0
 36
0.0
 17
0.0
 27
1.0
 37
0.0
 76
     0
330
1B
  0
LAYOUT
  5
D1
102
{ACAD_REACTORS
330
1A
102
}
330
1A
100
AcDbPlotSettings
  1

  2
none_device
  4
ANSI_A_(11.00_x_8.50_Inches)
  6

 40
6.35
 41
19.05
 42
6.35000508
 43
19.05000254
 44
279.4
 45
215.9
 46
0.0
 47
0.0
 48
0.0
 49
0.0
140
0.0
141
0.0
142
1.0
143
1.0
 70
  4832
 72
     0
 73
     0
 74
     1
  7

 75
    16
 76
     0
 77
     2
 78
   300
147
1.0
148
0.0
149
0.0
100
AcDbLayout
  1
Top
 70
     1
 71
     3
 10
0.0
 20
0.0
 11
11.0
 21
8.5
 12
0.0
 22
0.0
 32
0.0
 14
0.0
 24
0.0
 34
0.0
 15
11.0
 25
8.5
 35
0.0
146
0.0
 13
0.0
 23
0.0
 33
0.0
 16
1.0
 26
0.0
 36
0.0
 17
0.0
 27
1.0
 37
0.0
 76
     0
330
D0
  0
MATERIAL
  5
45
102
{ACAD_REACTORS
330
43
102
}
330
43
100
AcDbMaterial
  1
ByBlock
 72
     1
 94
      127
  0
MATERIAL
  5
44
102
{ACAD_REACTORS
330
43
102
}
330
43
100
AcDbMaterial
  1
ByLayer
 72
     1
 94
      127
  0
MATERIAL
  5
46
102
{ACAD_REACTORS
330
43
102
}
330
43
100
AcDbMaterial
  1
Global
 72
     1
 94
      127
  0
MLEADERSTYLE
  5
6C
102
{ACAD_REACTORS
330
6B
102
}
330
6B
100
AcDbMLeaderStyle
179
     2
170
     2
171
     1
172
     0
 90
        2
 40
0.0
 41
0.0
173
     1
 91
-1056964608
340
14
 92
       -2
290
     1
 42
0.09
291
     1
 43
0.36
  3
Standard
341
0
 44
0.18
300

342
11
174
     1
178
     6
175
     1
176
     0
 93
-1056964608
 45
0.18
292
     0
297
     0
 46
0.18
343
0
 94
-1056964608
 47
1.0
 49
1.0
140
1.0
293
     1
141
0.0
294
     1
177
     0
142
1.0
295
     0
296
     0
143
0.125
271
     0
272
     9
273
     9
298
     0
  0
MLINESTYLE
  5
18
102
{ACAD_REACTORS
330
17
102
}
330
17
100
AcDbMlineStyle
  2
Standard
 70
     0
  3

 62
   256
 51
90.0
 52
90.0
 71
     2
 49
0.5
 62
   256
  6
BYLAYER
 49
-0.5
 62
   256
  6
BYLAYER
  0
ACDBPLACEHOLDER
  5
F
102
{ACAD_REACTORS
330
E
102
}
330
E
  0
SCALE
  5
48
102
{ACAD_REACTORS
330
47
102
}
330
47
100
AcDbScale
 70
     0
300
1:1
140
1.0
141
1.0
290
     1
  0
SCALE
  5
49
102
{ACAD_REACTORS
330
47
102
}
330
47
100
AcDbScale
 70
     0
300
1:2
140
1.0
141
2.0
290
     0
  0
SCALE
  5
4A
102
{ACAD_REACTORS
330
47
102
}
330
47
100
AcDbScale
 70
     0
300
1:4
140
1.0
141
4.0
290
     0
  0
SCALE
  5
4B
102
{ACAD_REACTORS
330
47
102
}
330
47
100
AcDbScale
 70
     0
300
1:5
140
1.0
141
5.0
290
     0
  0
SCALE
  5
4C
102
{ACAD_REACTORS
330
47
102
}
330
47
100
AcDbScale
 70
     0
300
1:8
140
1.0
141
8.0
290
     0
  0
SCALE
  5
4D
102
{ACAD_REACTORS
330
47
102
}
330
47
100
AcDbScale
 70
     0
300
1:10
140
1.0
141
10.0
290
     0
  0
SCALE
  5
4E
102
{ACAD_REACTORS
330
47
102
}
330
47
100
AcDbScale
 70
     0
300
1:16
140
1.0
141
16.0
290
     0
  0
SCALE
  5
4F
102
{ACAD_REACTORS
330
47
102
}
330
47
100
AcDbScale
 70
     0
300
1:20
140
1.0
141
20.0
290
     0
  0
SCALE
  5
50
102
{ACAD_REACTORS
330
47
102
}
330
47
100
AcDbScale
 70
     0
300
1:30
140
1.0
141
30.0
290
     0
  0
SCALE
  5
51
102
{ACAD_REACTORS
330
47
102
}
330
47
100
AcDbScale
 70
     0
300
1:40
140
1.0
141
40.0
290
     0
  0
SCALE
  5
52
102
{ACAD_REACTORS
330
47
102
}
330
47
100
AcDbScale
 70
     0
300
1:50
140
1.0
141
50.0
290
     0
  0
SCALE
  5
53
102
{ACAD_REACTORS
330
47
102
}
330
47
100
AcDbScale
 70
     0
300
1:100
140
1.0
141
100.0
290
     0
  0
SCALE
  5
54
102
{ACAD_REACTORS
330
47
102
}
330
47
100
AcDbScale
 70
     0
300
2:1
140
2.0
141
1.0
290
     0
  0
SCALE
  5
55
102
{ACAD_REACTORS
330
47
102
}
330
47
100
AcDbScale
 70
     0
300
4:1
140
4.0
141
1.0
290
     0
  0
SCALE
  5
56
102
{ACAD_REACTORS
330
47
102
}
330
47
100
AcDbScale
 70
     0
300
8:1
140
8.0
141
1.0
290
     0
  0
SCALE
  5
57
102
{ACAD_REACTORS
330
47
102
}
330
47
100
AcDbScale
 70
     0
300
10:1
140
10.0
141
1.0
290
     0
  0
SCALE
  5
58
102
{ACAD_REACTORS
330
47
102
}
330
47
100
AcDbScale
 70
     0
300
100:1
140
100.0
141
1.0
290
     0
  0
SCALE
  5
59
102
{ACAD_REACTORS
330
47
102
}
330
47
100
AcDbScale
 70
     0
300
1/128" = 1'-0"
140
0.0078125
141
12.0
290
     0
  0
SCALE
  5
5A
102
{ACAD_REACTORS
330
47
102
}
330
47
100
AcDbScale
 70
     0
300
1/64" = 1'-0"
140
0.015625
141
12.0
290
     0
  0
SCALE
  5
5B
102
{ACAD_REACTORS
330
47
102
}
330
47
100
AcDbScale
 70
     0
300
1/32" = 1'-0"
140
0.03125
141
12.0
290
     0
  0
SCALE
  5
5C
102
{ACAD_REACTORS
330
47
102
}
330
47
100
AcDbScale
 70
     0
300
1/16" = 1'-0"
140
0.0625
141
12.0
290
     0
  0
SCALE
  5
5D
102
{ACAD_REACTORS
330
47
102
}
330
47
100
AcDbScale
 70
     0
300
3/32" = 1'-0"
140
0.09375
141
12.0
290
     0
  0
SCALE
  5
5E
102
{ACAD_REACTORS
330
47
102
}
330
47
100
AcDbScale
 70
     0
300
1/8" = 1'-0"
140
0.125
141
12.0
290
     0
  0
SCALE
  5
5F
102
{ACAD_REACTORS
330
47
102
}
330
47
100
AcDbScale
 70
     0
300
3/16" = 1'-0"
140
0.1875
141
12.0
290
     0
  0
SCALE
  5
60
102
{ACAD_REACTORS
330
47
102
}
330
47
100
AcDbScale
 70
     0
300
1/4" = 1'-0"
140
0.25
141
12.0
290
     0
  0
SCALE
  5
61
102
{ACAD_REACTORS
330
47
102
}
330
47
100
AcDbScale
 70
     0
300
3/8" = 1'-0"
140
0.375
141
12.0
290
     0
  0
SCALE
  5
62
102
{ACAD_REACTORS
330
47
102
}
330
47
100
AcDbScale
 70
     0
300
1/2" = 1'-0"
140
0.5
141
12.0
290
     0
  0
SCALE
  5
63
102
{ACAD_REACTORS
330
47
102
}
330
47
100
AcDbScale
 70
     0
300
3/4" = 1'-0"
140
0.75
141
12.0
290
     0
  0
SCALE
  5
64
102
{ACAD_REACTORS
330
47
102
}
330
47
100
AcDbScale
 70
     0
300
1" = 1'-0"
140
1.0
141
12.0
290
     0
  0
SCALE
  5
65
102
{ACAD_REACTORS
330
47
102
}
330
47
100
AcDbScale
 70
     0
300
1-1/2" = 1'-0"
140
1.5
141
12.0
290
     0
  0
SCALE
  5
66
102
{ACAD_REACTORS
330
47
102
}
330
47
100
AcDbScale
 70
     0
300
3" = 1'-0"
140
3.0
141
12.0
290
     0
  0
SCALE
  5
67
102
{ACAD_REACTORS
330
47
102
}
330
47
100
AcDbScale
 70
     0
300
6" = 1'-0"
140
6.0
141
12.0
290
     0
  0
SCALE
  5
68
102
{ACAD_REACTORS
330
47
102
}
330
47
100
AcDbScale
 70
     0
300
1'-0" = 1'-0"
140
12.0
141
12.0
290
     0
  0
TABLESTYLE
  5
6A
102
{ACAD_REACTORS
330
69
102
}
102
{ACAD_XDICTIONARY
360
294
102
}
330
69
100
AcDbTableStyle
  3
Standard
 70
     0
 71
     0
 40
0.06
 41
0.06
280
     0
281
     0
  7
Standard
140
0.18
170
     2
 62
     0
 63
   257
283
     0
 90
        4
 91
        0
  1

274
    -2
284
     1
 64
     0
275
    -2
285
     1
 65
     0
276
    -2
286
     1
 66
     0
277
    -2
287
     1
 67
     0
278
    -2
288
     1
 68
     0
279
    -2
289
     1
 69
     0
  7
Standard
140
0.25
170
     5
 62
     0
 63
   257
283
     0
 90
        4
 91
        0
  1

274
    -2
284
     1
 64
     0
275
    -2
285
     1
 65
     0
276
    -2
286
     1
 66
     0
277
    -2
287
     1
 67
     0
278
    -2
288
     1
 68
     0
279
    -2
289
     1
 69
     0
  7
Standard
140
0.18
170
     5
 62
     0
 63
   257
283
     0
 90
        4
 91
        0
  1

274
    -2
284
     1
 64
     0
275
    -2
285
     1
 65
     0
276
    -2
286
     1
 66
     0
277
    -2
287
     1
 67
     0
278
    -2
288
     1
 68
     0
279
    -2
289
     1
 69
     0
  0
VISUALSTYLE
  5
2F
102
{ACAD_REACTORS
330
2A
102
}
330
2A
100
AcDbVisualStyle
  2
2dWireframe
 70
     4
177
     3
291
     0
 70
    58
 90
        0
176
     1
 90
        2
176
     1
 90
        0
176
     1
 90
        0
176
     1
 40
0.6
176
     1
 40
30.0
176
     1
 62
     7
420
 16777215
176
     1
 90
        1
176
     1
 90
        4
176
     1
 62
     7
176
     1
 62
   257
176
     1
 90
        1
176
     1
 90
        1
176
     1
 40
1.0
176
     1
 90
        0
176
     1
 62
   257
176
     1
 40
1.0
176
     1
 90
        1
176
     1
 90
        6
176
     1
 90
        2
176
     1
 62
     7
176
     1
 90
        5
176
     1
 90
        0
176
     1
 90
        0
176
     1
290
     0
176
     1
 90
        1
176
     1
 40
0.0
176
     1
 90
        0
176
     1
290
     1
176
     1
290
     1
176
     1
290
     0
176
     1
290
     0
176
     1
290
     0
176
     1
290
     0
176
     1
290
     0
176
     1
290
     0
176
     1
290
     0
176
     1
 90
       50
176
     1
 40
0.0
176
     1
 40
1.0
176
     1
 90
        0
176
     1
 62
    18
420
        0
176
     1
 90
       50
176
     1
 90
        3
176
     1
 62
     5
420
      255
176
     1
290
     0
176
     1
 90
       50
176
     1
 90
       50
176
     1
 90
       50
176
     1
290
     0
176
     1
 90
       50
176
     1
 62
   256
176
     0
 40
1.0
176
     0
 90
        2
176
     1
  1
strokes_ogs.tif
176
     1
290
     0
176
     1
 40
1.0
176
     1
 40
1.0
176
     1
  0
VISUALSTYLE
  5
32
102
{ACAD_REACTORS
330
2A
102
}
330
2A
100
AcDbVisualStyle
  2
Basic
 70
     7
177
     3
291
     1
 70
    58
 90
        1
176
     1
 90
        0
176
     1
 90
        1
176
     1
 90
        0
176
     1
 40
0.6
176
     1
 40
30.0
176
     1
 62
     7
420
 16777215
176
     1
 90
        0
176
     1
 90
        4
176
     1
 62
     7
176
     1
 62
   257
176
     1
 90
        1
176
     1
 90
        1
176
     1
 40
1.0
176
     1
 90
        8
176
     1
 62
     7
176
     1
 40
1.0
176
     1
 90
        1
176
     1
 90
        6
176
     1
 90
        2
176
     1
 62
     7
176
     1
 90
        5
176
     1
 90
        0
176
     1
 90
        0
176
     1
290
     0
176
     1
 90
        1
176
     1
 40
0.0
176
     1
 90
        0
176
     1
290
     0
176
     1
290
     1
176
     1
290
     1
176
     1
290
     0
176
     1
290
     0
176
     1
290
     0
176
     1
290
     0
176
     1
290
     0
176
     1
290
     0
176
     1
 90
       50
176
     1
 40
0.0
176
     1
 40
1.0
176
     1
 90
        0
176
     1
 62
    18
420
        0
176
     1
 90
       50
176
     1
 90
        3
176
     1
 62
     5
420
      255
176
     1
290
     0
176
     1
 90
       50
176
     1
 90
       50
176
     1
 90
       50
176
     1
290
     0
176
     1
 90
       50
176
     1
 62
   256
176
     0
 40
1.0
176
     0
 90
        2
176
     1
  1
strokes_ogs.tif
176
     1
290
     0
176
     1
 40
1.0
176
     1
 40
1.0
176
     1
  0
VISUALSTYLE
  5
36
102
{ACAD_REACTORS
330
2A
102
}
330
2A
100
AcDbVisualStyle
  2
Brighten
 70
    12
177
     3
291
     1
 70
    58
 90
        2
176
     1
 90
        2
176
     1
 90
        0
176
     1
 90
        0
176
     1
 40
0.6
176
     1
 40
30.0
176
     1
 62
     7
420
 16777215
176
     1
 90
        1
176
     1
 90
        4
176
     1
 62
     7
176
     1
 62
   257
176
     1
 90
        1
176
     1
 90
        1
176
     1
 40
1.0
176
     1
 90
        8
176
     1
 62
     7
176
     1
 40
1.0
176
     1
 90
        1
176
     1
 90
        6
176
     1
 90
        2
176
     1
 62
     7
176
     1
 90
        5
176
     1
 90
        0
176
     1
 90
        0
176
     1
290
     0
176
     1
 90
        1
176
     1
 40
50.0
176
     1
 90
        0
176
     1
290
     0
176
     1
290
     1
176
     1
290
     1
176
     1
290
     0
176
     1
290
     0
176
     1
290
     0
176
     1
290
     0
176
     1
290
     0
176
     1
290
     0
176
     1
 90
       50
176
     1
 40
0.0
176
     1
 40
1.0
176
     1
 90
        0
176
     1
 62
    18
420
        0
176
     1
 90
       50
176
     1
 90
        3
176
     1
 62
     5
420
      255
176
     1
290
     0
176
     1
 90
       50
176
     1
 90
       50
176
     1
 90
       50
176
     1
290
     0
176
     1
 90
       50
176
     1
 62
   256
176
     0
 40
1.0
176
     0
 90
        2
176
     1
  1
strokes_ogs.tif
176
     1
290
     0
176
     1
 40
1.0
176
     1
 40
1.0
176
     1
  0
VISUALSTYLE
  5
3A
102
{ACAD_REACTORS
330
2A
102
}
330
2A
100
AcDbVisualStyle
  2
ColorChange
 70
    16
177
     3
291
     1
 70
    58
 90
        2
176
     1
 90
        2
176
     1
 90
        3
176
     1
 90
        0
176
     1
 40
0.6
176
     1
 40
30.0
176
     1
 62
     8
420
  8421504
176
     1
 90
        1
176
     1
 90
        4
176
     1
 62
     7
176
     1
 62
   257
176
     1
 90
        1
176
     1
 90
        1
176
     1
 40
1.0
176
     1
 90
        8
176
     1
 62
     8
420
  8421504
176
     1
 40
1.0
176
     1
 90
        1
176
     1
 90
        6
176
     1
 90
        2
176
     1
 62
     7
176
     1
 90
        5
176
     1
 90
        0
176
     1
 90
        0
176
     1
290
     0
176
     1
 90
        1
176
     1
 40
0.0
176
     1
 90
        0
176
     1
290
     0
176
     1
290
     1
176
     1
290
     1
176
     1
290
     0
176
     1
290
     0
176
     1
290
     0
176
     1
290
     0
176
     1
290
     0
176
     1
290
     0
176
     1
 90
       50
176
     1
 40
0.0
176
     1
 40
1.0
176
     1
 90
        0
176
     1
 62
    18
420
        0
176
     1
 90
       50
176
     1
 90
        3
176
     1
 62
     5
420
      255
176
     1
290
     0
176
     1
 90
       50
176
     1
 90
       50
176
     1
 90
       50
176
     1
290
     0
176
     1
 90
       50
176
     1
 62
   256
176
     0
 40
1.0
176
     0
 90
        2
176
     1
  1
strokes_ogs.tif
176
     1
290
     0
176
     1
 40
1.0
176
     1
 40
1.0
176
     1
  0
VISUALSTYLE
  5
34
102
{ACAD_REACTORS
330
2A
102
}
330
2A
100
AcDbVisualStyle
  2
Conceptual
 70
     9
177
     3
291
     0
 70
    58
 90
        3
176
     1
 90
        2
176
     1
 90
        0
176
     1
 90
        0
176
     1
 40
0.6
176
     1
 40
30.0
176
     1
 62
     7
420
 16777215
176
     1
 90
        2
176
     1
 90
        2
176
     1
 62
     7
176
     1
 62
   257
176
     1
 90
        1
176
     1
 90
        1
176
     1
 40
179.0
176
     1
 90
        8
176
     1
 62
     7
176
     1
 40
1.0
176
     1
 90
        1
176
     1
 90
        6
176
     1
 90
        2
176
     1
 62
     7
176
     1
 90
        3
176
     1
 90
        0
176
     1
 90
        0
176
     1
290
     0
176
     1
 90
        1
176
     1
 40
0.0
176
     1
 90
        0
176
     1
290
     0
176
     1
290
     1
176
     1
290
     1
176
     1
290
     0
176
     1
290
     0
176
     1
290
     0
176
     1
290
     0
176
     1
290
     0
176
     1
290
     0
176
     1
 90
       50
176
     1
 40
0.0
176
     1
 40
1.0
176
     1
 90
        0
176
     1
 62
    18
420
        0
176
     1
 90
       50
176
     1
 90
        3
176
     1
 62
     5
420
      255
176
     1
290
     0
176
     1
 90
       50
176
     1
 90
       50
176
     1
 90
       50
176
     1
290
     0
176
     1
 90
       50
176
     1
 62
   256
176
     0
 40
1.0
176
     0
 90
        2
176
     1
  1
strokes_ogs.tif
176
     1
290
     0
176
     1
 40
1.0
176
     1
 40
1.0
176
     1
  0
VISUALSTYLE
  5
35
102
{ACAD_REACTORS
330
2A
102
}
330
2A
100
AcDbVisualStyle
  2
Dim
 70
    11
177
     3
291
     1
 70
    58
 90
        2
176
     1
 90
        2
176
     1
 90
        0
176
     1
 90
        0
176
     1
 40
0.6
176
     1
 40
30.0
176
     1
 62
     7
420
 16777215
176
     1
 90
        1
176
     1
 90
        4
176
     1
 62
     7
176
     1
 62
   257
176
     1
 90
        1
176
     1
 90
        1
176
     1
 40
1.0
176
     1
 90
        8
176
     1
 62
     7
176
     1
 40
1.0
176
     1
 90
        1
176
     1
 90
        6
176
     1
 90
        2
176
     1
 62
     7
176
     1
 90
        5
176
     1
 90
        0
176
     1
 90
        0
176
     1
290
     0
176
     1
 90
        1
176
     1
 40
-50.0
176
     1
 90
        0
176
     1
290
     0
176
     1
290
     1
176
     1
290
     1
176
     1
290
     0
176
     1
290
     0
176
     1
290
     0
176
     1
290
     0
176
     1
290
     0
176
     1
290
     0
176
     1
 90
       50
176
     1
 40
0.0
176
     1
 40
1.0
176
     1
 90
        0
176
     1
 62
    18
420
        0
176
     1
 90
       50
176
     1
 90
        3
176
     1
 62
     5
420
      255
176
     1
290
     0
176
     1
 90
       50
176
     1
 90
       50
176
     1
 90
       50
176
     1
290
     0
176
     1
 90
       50
176
     1
 62
   256
176
     0
 40
1.0
176
     0
 90
        2
176
     1
  1
strokes_ogs.tif
176
     1
290
     0
176
     1
 40
1.0
176
     1
 40
1.0
176
     1
  0
VISUALSTYLE
  5
3D
102
{ACAD_REACTORS
330
2A
102
}
330
2A
100
AcDbVisualStyle
  2
EdgeColorOff
 70
    22
177
     3
291
     1
 70
    58
 90
        2
176
     0
 90
        2
176
     0
 90
        0
176
     0
 90
        0
176
     0
 40
0.6
176
     0
 40
30.0
176
     0
 62
     7
420
 16777215
176
     0
 90
        1
176
     0
 90
        4
176
     0
 62
     7
176
     0
 62
   257
176
     0
 90
        1
176
     0
 90
        1
176
     0
 40
1.0
176
     0
 90
        8
176
     2
 62
     7
176
     0
 40
1.0
176
     0
 90
        1
176
     0
 90
        6
176
     0
 90
        2
176
     0
 62
     7
176
     0
 90
        5
176
     0
 90
        0
176
     0
 90
        0
176
     0
290
     0
176
     0
 90
        1
176
     0
 40
0.0
176
     0
 90
        0
176
     0
290
     0
176
     0
290
     1
176
     0
290
     1
176
     0
290
     0
176
     0
290
     0
176
     0
290
     0
176
     0
290
     0
176
     0
290
     0
176
     0
290
     0
176
     0
 90
       50
176
     0
 40
0.0
176
     0
 40
1.0
176
     0
 90
        0
176
     0
 62
    18
420
        0
176
     0
 90
       50
176
     0
 90
        3
176
     0
 62
     5
420
      255
176
     0
290
     0
176
     0
 90
       50
176
     0
 90
       50
176
     0
 90
       50
176
     0
290
     0
176
     0
 90
       50
176
     0
 62
   256
176
     0
 40
1.0
176
     0
 90
        2
176
     0
  1
strokes_ogs.tif
176
     0
290
     0
176
     0
 40
1.0
176
     0
 40
1.0
176
     0
  0
VISUALSTYLE
  5
39
102
{ACAD_REACTORS
330
2A
102
}
330
2A
100
AcDbVisualStyle
  2
Facepattern
 70
    15
177
     3
291
     1
 70
    58
 90
        2
176
     1
 90
        2
176
     1
 90
        0
176
     1
 90
        0
176
     1
 40
0.6
176
     1
 40
30.0
176
     1
 62
     7
420
 16777215
176
     1
 90
        1
176
     1
 90
        4
176
     1
 62
     7
176
     1
 62
   257
176
     1
 90
        1
176
     1
 90
        1
176
     1
 40
1.0
176
     1
 90
        8
176
     1
 62
     7
176
     1
 40
1.0
176
     1
 90
        1
176
     1
 90
        6
176
     1
 90
        2
176
     1
 62
     7
176
     1
 90
        5
176
     1
 90
        0
176
     1
 90
        0
176
     1
290
     0
176
     1
 90
        1
176
     1
 40
0.0
176
     1
 90
        0
176
     1
290
     0
176
     1
290
     1
176
     1
290
     1
176
     1
290
     0
176
     1
290
     0
176
     1
290
     0
176
     1
290
     0
176
     1
290
     0
176
     1
290
     0
176
     1
 90
       50
176
     1
 40
0.0
176
     1
 40
1.0
176
     1
 90
        0
176
     1
 62
    18
420
        0
176
     1
 90
       50
176
     1
 90
        3
176
     1
 62
     5
420
      255
176
     1
290
     0
176
     1
 90
       50
176
     1
 90
       50
176
     1
 90
       50
176
     1
290
     0
176
     1
 90
       50
176
     1
 62
   256
176
     0
 40
1.0
176
     0
 90
        2
176
     1
  1
strokes_ogs.tif
176
     1
290
     0
176
     1
 40
1.0
176
     1
 40
1.0
176
     1
  0
VISUALSTYLE
  5
2B
102
{ACAD_REACTORS
330
2A
102
}
330
2A
100
AcDbVisualStyle
  2
Flat
 70
     0
177
     3
291
     1
 70
    58
 90
        2
176
     1
 90
        1
176
     1
 90
        1
176
     1
 90
        2
176
     1
 40
0.6
176
     1
 40
30.0
176
     1
 62
     7
420
 16777215
176
     1
 90
        0
176
     1
 90
        0
176
     1
 62
     7
176
     1
 62
   257
176
     1
 90
        1
176
     1
 90
        1
176
     1
 40
1.0
176
     1
 90
        8
176
     1
 62
     7
176
     1
 40
1.0
176
     1
 90
        1
176
     1
 90
        6
176
     1
 90
        2
176
     1
 62
     7
176
     1
 90
        5
176
     1
 90
        0
176
     1
 90
        0
176
     1
290
     0
176
     1
 90
       13
176
     1
 40
0.0
176
     1
 90
        0
176
     1
290
     0
176
     1
290
     1
176
     1
290
     1
176
     1
290
     0
176
     1
290
     0
176
     1
290
     0
176
     1
290
     0
176
     1
290
     0
176
     1
290
     0
176
     1
 90
       50
176
     1
 40
0.0
176
     1
 40
1.0
176
     1
 90
        0
176
     1
 62
    18
420
        0
176
     1
 90
       50
176
     1
 90
        3
176
     1
 62
     5
420
      255
176
     1
290
     0
176
     1
 90
       50
176
     1
 90
       50
176
     1
 90
       50
176
     1
290
     0
176
     1
 90
       50
176
     1
 62
   256
176
     0
 40
1.0
176
     0
 90
        2
176
     1
  1
strokes_ogs.tif
176
     1
290
     0
176
     1
 40
1.0
176
     1
 40
1.0
176
     1
  0
VISUALSTYLE
  5
2C
102
{ACAD_REACTORS
330
2A
102
}
330
2A
100
AcDbVisualStyle
  2
FlatWithEdges
 70
     1
177
     3
291
     1
 70
    58
 90
        2
176
     1
 90
        1
176
     1
 90
        1
176
     1
 90
        2
176
     1
 40
0.6
176
     1
 40
30.0
176
     1
 62
     7
420
 16777215
176
     1
 90
        1
176
     1
 90
        0
176
     1
 62
     7
176
     1
 62
   257
176
     1
 90
        1
176
     1
 90
        1
176
     1
 40
1.0
176
     1
 90
        0
176
     1
 62
   257
176
     1
 40
1.0
176
     1
 90
        1
176
     1
 90
        6
176
     1
 90
        2
176
     1
 62
     7
176
     1
 90
        5
176
     1
 90
        0
176
     1
 90
        0
176
     1
290
     0
176
     1
 90
       13
176
     1
 40
0.0
176
     1
 90
        0
176
     1
290
     0
176
     1
290
     1
176
     1
290
     1
176
     1
290
     0
176
     1
290
     0
176
     1
290
     0
176
     1
290
     0
176
     1
290
     0
176
     1
290
     0
176
     1
 90
       50
176
     1
 40
0.0
176
     1
 40
1.0
176
     1
 90
        0
176
     1
 62
    18
420
        0
176
     1
 90
       50
176
     1
 90
        3
176
     1
 62
     5
420
      255
176
     1
290
     0
176
     1
 90
       50
176
     1
 90
       50
176
     1
 90
       50
176
     1
290
     0
176
     1
 90
       50
176
     1
 62
   256
176
     0
 40
1.0
176
     0
 90
        2
176
     1
  1
strokes_ogs.tif
176
     1
290
     0
176
     1
 40
1.0
176
     1
 40
1.0
176
     1
  0
VISUALSTYLE
  5
2D
102
{ACAD_REACTORS
330
2A
102
}
330
2A
100
AcDbVisualStyle
  2
Gouraud
 70
     2
177
     3
291
     1
 70
    58
 90
        2
176
     1
 90
        2
176
     1
 90
        1
176
     1
 90
        2
176
     1
 40
0.6
176
     1
 40
30.0
176
     1
 62
     7
420
 16777215
176
     1
 90
        0
176
     1
 90
        0
176
     1
 62
     7
176
     1
 62
   257
176
     1
 90
        1
176
     1
 90
        1
176
     1
 40
1.0
176
     1
 90
        0
176
     1
 62
     7
176
     1
 40
1.0
176
     1
 90
        1
176
     1
 90
        6
176
     1
 90
        2
176
     1
 62
     7
176
     1
 90
        5
176
     1
 90
        0
176
     1
 90
        0
176
     1
290
     0
176
     1
 90
       13
176
     1
 40
0.0
176
     1
 90
        0
176
     1
290
     0
176
     1
290
     1
176
     1
290
     1
176
     1
290
     0
176
     1
290
     0
176
     1
290
     0
176
     1
290
     0
176
     1
290
     0
176
     1
290
     0
176
     1
 90
       50
176
     1
 40
0.0
176
     1
 40
1.0
176
     1
 90
        0
176
     1
 62
    18
420
        0
176
     1
 90
       50
176
     1
 90
        3
176
     1
 62
     5
420
      255
176
     1
290
     0
176
     1
 90
       50
176
     1
 90
       50
176
     1
 90
       50
176
     1
290
     0
176
     1
 90
       50
176
     1
 62
   256
176
     0
 40
1.0
176
     0
 90
        2
176
     1
  1
strokes_ogs.tif
176
     1
290
     0
176
     1
 40
1.0
176
     1
 40
1.0
176
     1
  0
VISUALSTYLE
  5
2E
102
{ACAD_REACTORS
330
2A
102
}
330
2A
100
AcDbVisualStyle
  2
GouraudWithEdges
 70
     3
177
     3
291
     1
 70
    58
 90
        2
176
     1
 90
        2
176
     1
 90
        1
176
     1
 90
        2
176
     1
 40
0.6
176
     1
 40
30.0
176
     1
 62
     7
420
 16777215
176
     1
 90
        1
176
     1
 90
        0
176
     1
 62
     7
176
     1
 62
   257
176
     1
 90
        1
176
     1
 90
        1
176
     1
 40
1.0
176
     1
 90
        0
176
     1
 62
   257
176
     1
 40
1.0
176
     1
 90
        1
176
     1
 90
        6
176
     1
 90
        2
176
     1
 62
     7
176
     1
 90
        5
176
     1
 90
        0
176
     1
 90
        0
176
     1
290
     0
176
     1
 90
       13
176
     1
 40
0.0
176
     1
 90
        0
176
     1
290
     0
176
     1
290
     1
176
     1
290
     1
176
     1
290
     0
176
     1
290
     0
176
     1
290
     0
176
     1
290
     0
176
     1
290
     0
176
     1
290
     0
176
     1
 90
       50
176
     1
 40
0.0
176
     1
 40
1.0
176
     1
 90
        0
176
     1
 62
    18
420
        0
176
     1
 90
       50
176
     1
 90
        3
176
     1
 62
     5
420
      255
176
     1
290
     0
176
     1
 90
       50
176
     1
 90
       50
176
     1
 90
       50
176
     1
290
     0
176
     1
 90
       50
176
     1
 62
   256
176
     0
 40
1.0
176
     0
 90
        2
176
     1
  1
strokes_ogs.tif
176
     1
290
     0
176
     1
 40
1.0
176
     1
 40
1.0
176
     1
  0
VISUALSTYLE
  5
31
102
{ACAD_REACTORS
330
2A
102
}
330
2A
100
AcDbVisualStyle
  2
Hidden
 70
     6
177
     3
291
     0
 70
    58
 90
        1
176
     1
 90
        2
176
     1
 90
        2
176
     1
 90
        0
176
     1
 40
0.6
176
     1
 40
30.0
176
     1
 62
     7
420
 16777215
176
     1
 90
        2
176
     1
 90
        2
176
     1
 62
     7
176
     1
 62
   257
176
     1
 90
        2
176
     1
 90
        1
176
     1
 40
40.0
176
     1
 90
        0
176
     1
 62
   257
176
     1
 40
1.0
176
     1
 90
        1
176
     1
 90
        6
176
     1
 90
        2
176
     1
 62
     7
176
     1
 90
        3
176
     1
 90
        0
176
     1
 90
        0
176
     1
290
     0
176
     1
 90
        1
176
     1
 40
0.0
176
     1
 90
        0
176
     1
290
     0
176
     1
290
     1
176
     1
290
     1
176
     1
290
     0
176
     1
290
     0
176
     1
290
     0
176
     1
290
     0
176
     1
290
     0
176
     1
290
     0
176
     1
 90
       50
176
     1
 40
0.0
176
     1
 40
1.0
176
     1
 90
        0
176
     1
 62
    18
420
        0
176
     1
 90
       50
176
     1
 90
        3
176
     1
 62
     5
420
      255
176
     1
290
     0
176
     1
 90
       50
176
     1
 90
       50
176
     1
 90
       50
176
     1
290
     0
176
     1
 90
       50
176
     1
 62
   256
176
     0
 40
1.0
176
     0
 90
        2
176
     1
  1
strokes_ogs.tif
176
     1
290
     0
176
     1
 40
1.0
176
     1
 40
1.0
176
     1
  0
VISUALSTYLE
  5
3B
102
{ACAD_REACTORS
330
2A
102
}
330
2A
100
AcDbVisualStyle
  2
JitterOff
 70
    20
177
     3
291
     1
 70
    58
 90
        2
176
     0
 90
        2
176
     0
 90
        0
176
     0
 90
        0
176
     0
 40
0.6
176
     0
 40
30.0
176
     0
 62
     7
420
 16777215
176
     0
 90
        1
176
     0
 90
        4
176
     0
 62
     7
176
     0
 62
   257
176
     0
 90
        1
176
     0
 90
        1
176
     0
 40
1.0
176
     0
 90
       10
176
     2
 62
     7
176
     0
 40
1.0
176
     0
 90
        1
176
     0
 90
        6
176
     0
 90
        2
176
     0
 62
     7
176
     0
 90
        5
176
     0
 90
        0
176
     0
 90
        0
176
     0
290
     0
176
     0
 90
        1
176
     0
 40
0.0
176
     0
 90
        0
176
     0
290
     0
176
     0
290
     1
176
     0
290
     1
176
     0
290
     0
176
     0
290
     0
176
     0
290
     0
176
     0
290
     0
176
     0
290
     0
176
     0
290
     0
176
     0
 90
       50
176
     0
 40
0.0
176
     0
 40
1.0
176
     0
 90
        0
176
     0
 62
    18
420
        0
176
     0
 90
       50
176
     0
 90
        3
176
     0
 62
     5
420
      255
176
     0
290
     0
176
     0
 90
       50
176
     0
 90
       50
176
     0
 90
       50
176
     0
290
     0
176
     0
 90
       50
176
     0
 62
   256
176
     0
 40
1.0
176
     0
 90
        2
176
     0
  1
strokes_ogs.tif
176
     0
290
     0
176
     0
 40
1.0
176
     0
 40
1.0
176
     0
  0
VISUALSTYLE
  5
38
102
{ACAD_REACTORS
330
2A
102
}
330
2A
100
AcDbVisualStyle
  2
Linepattern
 70
    14
177
     3
291
     1
 70
    58
 90
        2
176
     1
 90
        2
176
     1
 90
        0
176
     1
 90
        0
176
     1
 40
0.6
176
     1
 40
30.0
176
     1
 62
     7
420
 16777215
176
     1
 90
        1
176
     1
 90
        4
176
     1
 62
     7
176
     1
 62
   257
176
     1
 90
        7
176
     1
 90
        7
176
     1
 40
1.0
176
     1
 90
        8
176
     1
 62
     7
176
     1
 40
1.0
176
     1
 90
        1
176
     1
 90
        6
176
     1
 90
        2
176
     1
 62
     7
176
     1
 90
        5
176
     1
 90
        0
176
     1
 90
        0
176
     1
290
     0
176
     1
 90
        1
176
     1
 40
0.0
176
     1
 90
        0
176
     1
290
     0
176
     1
290
     1
176
     1
290
     1
176
     1
290
     0
176
     1
290
     0
176
     1
290
     0
176
     1
290
     0
176
     1
290
     0
176
     1
290
     0
176
     1
 90
       50
176
     1
 40
0.0
176
     1
 40
1.0
176
     1
 90
        0
176
     1
 62
    18
420
        0
176
     1
 90
       50
176
     1
 90
        3
176
     1
 62
     5
420
      255
176
     1
290
     0
176
     1
 90
       50
176
     1
 90
       50
176
     1
 90
       50
176
     1
290
     0
176
     1
 90
       50
176
     1
 62
   256
176
     0
 40
1.0
176
     0
 90
        2
176
     1
  1
strokes_ogs.tif
176
     1
290
     0
176
     1
 40
1.0
176
     1
 40
1.0
176
     1
  0
VISUALSTYLE
  5
3C
102
{ACAD_REACTORS
330
2A
102
}
330
2A
100
AcDbVisualStyle
  2
OverhangOff
 70
    21
177
     3
291
     1
 70
    58
 90
        2
176
     0
 90
        2
176
     0
 90
        0
176
     0
 90
        0
176
     0
 40
0.6
176
     0
 40
30.0
176
     0
 62
     7
420
 16777215
176
     0
 90
        1
176
     0
 90
        4
176
     0
 62
     7
176
     0
 62
   257
176
     0
 90
        1
176
     0
 90
        1
176
     0
 40
1.0
176
     0
 90
        9
176
     2
 62
     7
176
     0
 40
1.0
176
     0
 90
        1
176
     0
 90
        6
176
     0
 90
        2
176
     0
 62
     7
176
     0
 90
        5
176
     0
 90
        0
176
     0
 90
        0
176
     0
290
     0
176
     0
 90
        1
176
     0
 40
0.0
176
     0
 90
        0
176
     0
290
     0
176
     0
290
     1
176
     0
290
     1
176
     0
290
     0
176
     0
290
     0
176
     0
290
     0
176
     0
290
     0
176
     0
290
     0
176
     0
290
     0
176
     0
 90
       50
176
     0
 40
0.0
176
     0
 40
1.0
176
     0
 90
        0
176
     0
 62
    18
420
        0
176
     0
 90
       50
176
     0
 90
        3
176
     0
 62
     5
420
      255
176
     0
290
     0
176
     0
 90
       50
176
     0
 90
       50
176
     0
 90
       50
176
     0
290
     0
176
     0
 90
       50
176
     0
 62
   256
176
     0
 40
1.0
176
     0
 90
        2
176
     0
  1
strokes_ogs.tif
176
     0
290
     0
176
     0
 40
1.0
176
     0
 40
1.0
176
     0
  0
VISUALSTYLE
  5
33
102
{ACAD_REACTORS
330
2A
102
}
330
2A
100
AcDbVisualStyle
  2
Realistic
 70
     8
177
     3
291
     0
 70
    58
 90
        2
176
     1
 90
        3
176
     1
 90
        0
176
     1
 90
        2
176
     1
 40
0.6
176
     1
 40
30.0
176
     1
 62
     7
420
 16777215
176
     1
 90
        0
176
     1
 90
        0
176
     1
 62
     7
176
     1
 62
   257
176
     1
 90
        1
176
     1
 90
        1
176
     1
 40
1.0
176
     1
 90
        8
176
     1
 62
   257
176
     1
 40
1.0
176
     1
 90
        1
176
     1
 90
        6
176
     1
 90
        2
176
     1
 62
     7
176
     1
 90
        3
176
     1
 90
        0
176
     1
 90
        0
176
     1
290
     0
176
     1
 90
       13
176
     1
 40
0.0
176
     1
 90
        0
176
     1
290
     0
176
     1
290
     1
176
     1
290
     1
176
     1
290
     0
176
     1
290
     0
176
     1
290
     0
176
     1
290
     0
176
     1
290
     0
176
     1
290
     0
176
     1
 90
       50
176
     1
 40
0.0
176
     1
 40
1.0
176
     1
 90
        0
176
     1
 62
    18
420
        0
176
     1
 90
       50
176
     1
 90
        3
176
     1
 62
     5
420
      255
176
     1
290
     0
176
     1
 90
       50
176
     1
 90
       50
176
     1
 90
       50
176
     1
290
     0
176
     1
 90
       50
176
     1
 62
   256
176
     0
 40
1.0
176
     0
 90
        2
176
     1
  1
strokes_ogs.tif
176
     1
290
     0
176
     1
 40
1.0
176
     1
 40
1.0
176
     1
  0
VISUALSTYLE
  5
42
102
{ACAD_REACTORS
330
2A
102
}
330
2A
100
AcDbVisualStyle
  2
Shaded
 70
    27
177
     3
291
     0
 70
    58
 90
        2
176
     1
 90
        2
176
     1
 90
        1
176
     1
 90
        2
176
     1
 40
0.6
176
     1
 40
30.0
176
     1
 62
     7
420
 16777215
176
     1
 90
        0
176
     1
 90
        4
176
     1
 62
     7
176
     1
 62
   257
176
     1
 90
        1
176
     1
 90
        1
176
     1
 40
1.0
176
     1
 90
        8
176
     1
 62
   257
176
     1
 40
1.0
176
     1
 90
        1
176
     1
 90
        6
176
     1
 90
        2
176
     1
 62
     8
420
  7895160
176
     1
 90
        3
176
     1
 90
        0
176
     1
 90
        0
176
     1
290
     0
176
     1
 90
        5
176
     1
 40
0.0
176
     1
 90
        0
176
     1
290
     0
176
     1
290
     1
176
     1
290
     1
176
     1
290
     0
176
     1
290
     0
176
     1
290
     0
176
     1
290
     0
176
     1
290
     0
176
     1
290
     0
176
     1
 90
       50
176
     1
 40
0.0
176
     1
 40
1.0
176
     1
 90
        0
176
     1
 62
    18
420
        0
176
     1
 90
       50
176
     1
 90
        3
176
     1
 62
     5
420
      255
176
     1
290
     0
176
     1
 90
       50
176
     1
 90
       50
176
     1
 90
       50
176
     1
290
     0
176
     1
 90
       50
176
     1
 62
   256
176
     0
 40
1.0
176
     0
 90
        2
176
     1
  1
strokes_ogs.tif
176
     1
290
     0
176
     1
 40
1.0
176
     1
 40
1.0
176
     1
  0
VISUALSTYLE
  5
41
102
{ACAD_REACTORS
330
2A
102
}
330
2A
100
AcDbVisualStyle
  2
Shaded with edges
 70
    26
177
     3
291
     0
 70
    58
 90
        2
176
     1
 90
        2
176
     1
 90
        1
176
     1
 90
        2
176
     1
 40
0.6
176
     1
 40
30.0
176
     1
 62
     7
420
 16777215
176
     1
 90
        1
176
     1
 90
       10
176
     1
 62
     7
176
     1
 62
   257
176
     1
 90
        2
176
     1
 90
        1
176
     1
 40
1.0
176
     1
 90
        8
176
     1
 62
   257
176
     1
 40
1.0
176
     1
 90
        1
176
     1
 90
        6
176
     1
 90
        2
176
     1
 62
     7
176
     1
 90
        3
176
     1
 90
        0
176
     1
 90
        0
176
     1
290
     0
176
     1
 90
        5
176
     1
 40
0.0
176
     1
 90
        0
176
     1
290
     0
176
     1
290
     1
176
     1
290
     1
176
     1
290
     0
176
     1
290
     0
176
     1
290
     0
176
     1
290
     0
176
     1
290
     0
176
     1
290
     0
176
     1
 90
       50
176
     1
 40
0.0
176
     1
 40
1.0
176
     1
 90
        0
176
     1
 62
    18
420
        0
176
     1
 90
       50
176
     1
 90
        3
176
     1
 62
     5
420
      255
176
     1
290
     0
176
     1
 90
       50
176
     1
 90
       50
176
     1
 90
       50
176
     1
290
     0
176
     1
 90
       50
176
     1
 62
   256
176
     0
 40
1.0
176
     0
 90
        2
176
     1
  1
strokes_ogs.tif
176
     1
290
     0
176
     1
 40
1.0
176
     1
 40
1.0
176
     1
  0
VISUALSTYLE
  5
3E
102
{ACAD_REACTORS
330
2A
102
}
330
2A
100
AcDbVisualStyle
  2
Shades of Gray
 70
    23
177
     3
291
     0
 70
    58
 90
        2
176
     1
 90
        2
176
     1
 90
        3
176
     1
 90
        0
176
     1
 40
0.6
176
     1
 40
30.0
176
     1
 62
     7
420
 16777215
176
     1
 90
        2
176
     1
 90
        2
176
     1
 62
     7
176
     1
 62
     7
176
     1
 90
        1
176
     1
 90
        1
176
     1
 40
40.0
176
     1
 90
        8
176
     1
 62
     7
176
     1
 40
1.0
176
     1
 90
        1
176
     1
 90
        6
176
     1
 90
        2
176
     1
 62
     7
176
     1
 90
        3
176
     1
 90
        0
176
     1
 90
        0
176
     1
290
     0
176
     1
 90
        1
176
     1
 40
0.0
176
     1
 90
        0
176
     1
290
     0
176
     1
290
     1
176
     1
290
     1
176
     1
290
     0
176
     1
290
     0
176
     1
290
     0
176
     1
290
     0
176
     1
290
     0
176
     1
290
     0
176
     1
 90
       50
176
     1
 40
0.0
176
     1
 40
1.0
176
     1
 90
        0
176
     1
 62
    18
420
        0
176
     1
 90
       50
176
     1
 90
        3
176
     1
 62
     5
420
      255
176
     1
290
     0
176
     1
 90
       50
176
     1
 90
       50
176
     1
 90
       50
176
     1
290
     0
176
     1
 90
       50
176
     1
 62
   256
176
     0
 40
1.0
176
     0
 90
        2
176
     1
  1
strokes_ogs.tif
176
     1
290
     0
176
     1
 40
1.0
176
     1
 40
1.0
176
     1
  0
VISUALSTYLE
  5
3F
102
{ACAD_REACTORS
330
2A
102
}
330
2A
100
AcDbVisualStyle
  2
Sketchy
 70
    24
177
     3
291
     0
 70
    58
 90
        1
176
     1
 90
        2
176
     1
 90
        2
176
     1
 90
        0
176
     1
 40
0.6
176
     1
 40
30.0
176
     1
 62
     7
420
 16777215
176
     1
 90
        2
176
     1
 90
        2
176
     1
 62
     7
176
     1
 62
     7
176
     1
 90
        1
176
     1
 90
        1
176
     1
 40
40.0
176
     1
 90
       11
176
     1
 62
     7
176
     1
 40
1.0
176
     1
 90
        1
176
     1
 90
        6
176
     1
 90
        2
176
     1
 62
     7
176
     1
 90
        6
176
     1
 90
        0
176
     1
 90
        0
176
     1
290
     0
176
     1
 90
        1
176
     1
 40
0.0
176
     1
 90
        0
176
     1
290
     0
176
     1
290
     1
176
     1
290
     1
176
     1
290
     0
176
     1
290
     0
176
     1
290
     0
176
     1
290
     0
176
     1
290
     0
176
     1
290
     0
176
     1
 90
       50
176
     1
 40
0.0
176
     1
 40
1.0
176
     1
 90
        0
176
     1
 62
    18
420
        0
176
     1
 90
       50
176
     1
 90
        3
176
     1
 62
     5
420
      255
176
     1
290
     0
176
     1
 90
       50
176
     1
 90
       50
176
     1
 90
       50
176
     1
290
     0
176
     1
 90
       50
176
     1
 62
   256
176
     0
 40
1.0
176
     0
 90
        2
176
     1
  1
strokes_ogs.tif
176
     1
290
     0
176
     1
 40
1.0
176
     1
 40
1.0
176
     1
  0
VISUALSTYLE
  5
37
102
{ACAD_REACTORS
330
2A
102
}
330
2A
100
AcDbVisualStyle
  2
Thicken
 70
    13
177
     3
291
     1
 70
    58
 90
        2
176
     1
 90
        2
176
     1
 90
        0
176
     1
 90
        0
176
     1
 40
0.6
176
     1
 40
30.0
176
     1
 62
     7
420
 16777215
176
     1
 90
        1
176
     1
 90
        4
176
     1
 62
     7
176
     1
 62
   257
176
     1
 90
        1
176
     1
 90
        1
176
     1
 40
1.0
176
     1
 90
       12
176
     1
 62
     7
176
     1
 40
1.0
176
     1
 90
        1
176
     1
 90
        6
176
     1
 90
        2
176
     1
 62
     7
176
     1
 90
        5
176
     1
 90
        0
176
     1
 90
        0
176
     1
290
     0
176
     1
 90
        1
176
     1
 40
0.0
176
     1
 90
        0
176
     1
290
     0
176
     1
290
     1
176
     1
290
     1
176
     1
290
     0
176
     1
290
     0
176
     1
290
     0
176
     1
290
     0
176
     1
290
     0
176
     1
290
     0
176
     1
 90
       50
176
     1
 40
0.0
176
     1
 40
1.0
176
     1
 90
        0
176
     1
 62
    18
420
        0
176
     1
 90
       50
176
     1
 90
        3
176
     1
 62
     5
420
      255
176
     1
290
     0
176
     1
 90
       50
176
     1
 90
       50
176
     1
 90
       50
176
     1
290
     0
176
     1
 90
       50
176
     1
 62
   256
176
     0
 40
1.0
176
     0
 90
        2
176
     1
  1
strokes_ogs.tif
176
     1
290
     0
176
     1
 40
1.0
176
     1
 40
1.0
176
     1
  0
VISUALSTYLE
  5
30
102
{ACAD_REACTORS
330
2A
102
}
330
2A
100
AcDbVisualStyle
  2
Wireframe
 70
     5
177
     3
291
     0
 70
    58
 90
        0
176
     1
 90
        2
176
     1
 90
        0
176
     1
 90
        0
176
     1
 40
0.6
176
     1
 40
30.0
176
     1
 62
     7
420
 16777215
176
     1
 90
        1
176
     1
 90
        4
176
     1
 62
     7
176
     1
 62
   257
176
     1
 90
        1
176
     1
 90
        1
176
     1
 40
1.0
176
     1
 90
        0
176
     1
 62
   257
176
     1
 40
1.0
176
     1
 90
        1
176
     1
 90
        6
176
     1
 90
        2
176
     1
 62
     7
176
     1
 90
        3
176
     1
 90
        0
176
     1
 90
        0
176
     1
290
     0
176
     1
 90
        1
176
     1
 40
0.0
176
     1
 90
        0
176
     1
290
     0
176
     1
290
     1
176
     1
290
     1
176
     1
290
     0
176
     1
290
     0
176
     1
290
     0
176
     1
290
     0
176
     1
290
     0
176
     1
290
     0
176
     1
 90
       50
176
     1
 40
0.0
176
     1
 40
1.0
176
     1
 90
        0
176
     1
 62
    18
420
        0
176
     1
 90
       50
176
     1
 90
        3
176
     1
 62
     5
420
      255
176
     1
290
     0
176
     1
 90
       50
176
     1
 90
       50
176
     1
 90
       50
176
     1
290
     0
176
     1
 90
       50
176
     1
 62
   256
176
     0
 40
1.0
176
     0
 90
        2
176
     1
  1
strokes_ogs.tif
176
     1
290
     0
176
     1
 40
1.0
176
     1
 40
1.0
176
     1
  0
VISUALSTYLE
  5
40
102
{ACAD_REACTORS
330
2A
102
}
330
2A
100
AcDbVisualStyle
  2
X-Ray
 70
    25
177
     3
291
     0
 70
    58
 90
        2
176
     1
 90
        2
176
     1
 90
        1
176
     1
 90
        1
176
     1
 40
0.5
176
     1
 40
30.0
176
     1
 62
     7
420
 16777215
176
     1
 90
        1
176
     1
 90
        0
176
     1
 62
     7
176
     1
 62
   257
176
     1
 90
        1
176
     1
 90
        1
176
     1
 40
1.0
176
     1
 90
        8
176
     1
 62
     7
176
     1
 40
1.0
176
     1
 90
        1
176
     1
 90
        6
176
     1
 90
        2
176
     1
 62
     7
176
     1
 90
        3
176
     1
 90
        0
176
     1
 90
        0
176
     1
290
     0
176
     1
 90
       13
176
     1
 40
0.0
176
     1
 90
        0
176
     1
290
     0
176
     1
290
     1
176
     1
290
     1
176
     1
290
     0
176
     1
290
     0
176
     1
290
     0
176
     1
290
     0
176
     1
290
     0
176
     1
290
     0
176
     1
 90
       50
176
     1
 40
0.0
176
     1
 40
1.0
176
     1
 90
        0
176
     1
 62
    18
420
        0
176
     1
 90
       50
176
     1
 90
        3
176
     1
 62
     5
420
      255
176
     1
290
     0
176
     1
 90
       50
176
     1
 90
       50
176
     1
 90
       50
176
     1
290
     0
176
     1
 90
       50
176
     1
 62
   256
176
     0
 40
1.0
176
     0
 90
        2
176
     1
  1
strokes_ogs.tif
176
     1
290
     0
176
     1
 40
1.0
176
     1
 40
1.0
176
     1
  0
DICTIONARYVAR
  5
293
102
{ACAD_REACTORS
330
292
102
}
330
292
100
DictionaryVariables
280
     0
  1
1:1
  0
DICTIONARYVAR
  5
298
102
{ACAD_REACTORS
330
292
102
}
330
292
100
DictionaryVariables
280
     0
  1
Standard
  0
DICTIONARYVAR
  5
297
102
{ACAD_REACTORS
330
292
102
}
330
292
100
DictionaryVariables
280
     0
  1
Standard
  0
DICTIONARY
  5
294
330
6A
100
AcDbDictionary
280
     1
281
     1
  3
ACAD_ROUNDTRIP_2008_TABLESTYLE_CELLSTYLEMAP
360
295
  0
CELLSTYLEMAP
  5
295
102
{ACAD_REACTORS
330
294
102
}
330
294
100
AcDbCellStyleMap
 90
        3
300
CELLSTYLE
  1
TABLEFORMAT_BEGIN
 90
        5
170
     1
 91
        0
 92
    32768
 62
   257
 93
        1
300
CONTENTFORMAT
  1
CONTENTFORMAT_BEGIN
 90
        0
 91
        0
 92
        4
 93
        0
300

 40
0.0
140
1.0
 94
        5
 62
     0
340
11
144
0.25
309
CONTENTFORMAT_END
171
     1
301
MARGIN
  1
CELLMARGIN_BEGIN
 40
0.06
 40
0.06
 40
0.06
 40
0.06
 40
0.06
 40
0.06
309
CELLMARGIN_END
 94
        6
 95
        1
302
GRIDFORMAT
  1
GRIDFORMAT_BEGIN
 90
        0
 91
        1
 62
     0
 92
       -2
340
14
 93
        0
 40
0.045
309
GRIDFORMAT_END
 95
        2
302
GRIDFORMAT
  1
GRIDFORMAT_BEGIN
 90
        0
 91
        1
 62
     0
 92
       -2
340
14
 93
        0
 40
0.045
309
GRIDFORMAT_END
 95
        4
302
GRIDFORMAT
  1
GRIDFORMAT_BEGIN
 90
        0
 91
        1
 62
     0
 92
       -2
340
14
 93
        0
 40
0.045
309
GRIDFORMAT_END
 95
        8
302
GRIDFORMAT
  1
GRIDFORMAT_BEGIN
 90
        0
 91
        1
 62
     0
 92
       -2
340
14
 93
        0
 40
0.045
309
GRIDFORMAT_END
 95
       16
302
GRIDFORMAT
  1
GRIDFORMAT_BEGIN
 90
        0
 91
        1
 62
     0
 92
       -2
340
14
 93
        0
 40
0.045
309
GRIDFORMAT_END
 95
       32
302
GRIDFORMAT
  1
GRIDFORMAT_BEGIN
 90
        0
 91
        1
 62
     0
 92
       -2
340
14
 93
        0
 40
0.045
309
GRIDFORMAT_END
309
TABLEFORMAT_END
  1
CELLSTYLE_BEGIN
 90
        1
 91
        1
300
_TITLE
309
CELLSTYLE_END
300
CELLSTYLE
  1
TABLEFORMAT_BEGIN
 90
        5
170
     1
 91
        0
 92
        0
 62
   257
 93
        1
300
CONTENTFORMAT
  1
CONTENTFORMAT_BEGIN
 90
        0
 91
        0
 92
        4
 93
        0
300

 40
0.0
140
1.0
 94
        5
 62
     0
340
11
144
0.18
309
CONTENTFORMAT_END
171
     1
301
MARGIN
  1
CELLMARGIN_BEGIN
 40
0.06
 40
0.06
 40
0.06
 40
0.06
 40
0.06
 40
0.06
309
CELLMARGIN_END
 94
        6
 95
        1
302
GRIDFORMAT
  1
GRIDFORMAT_BEGIN
 90
        0
 91
        1
 62
     0
 92
       -2
340
14
 93
        0
 40
0.045
309
GRIDFORMAT_END
 95
        2
302
GRIDFORMAT
  1
GRIDFORMAT_BEGIN
 90
        0
 91
        1
 62
     0
 92
       -2
340
14
 93
        0
 40
0.045
309
GRIDFORMAT_END
 95
        4
302
GRIDFORMAT
  1
GRIDFORMAT_BEGIN
 90
        0
 91
        1
 62
     0
 92
       -2
340
14
 93
        0
 40
0.045
309
GRIDFORMAT_END
 95
        8
302
GRIDFORMAT
  1
GRIDFORMAT_BEGIN
 90
        0
 91
        1
 62
     0
 92
       -2
340
14
 93
        0
 40
0.045
309
GRIDFORMAT_END
 95
       16
302
GRIDFORMAT
  1
GRIDFORMAT_BEGIN
 90
        0
 91
        1
 62
     0
 92
       -2
340
14
 93
        0
 40
0.045
309
GRIDFORMAT_END
 95
       32
302
GRIDFORMAT
  1
GRIDFORMAT_BEGIN
 90
        0
 91
        1
 62
     0
 92
       -2
340
14
 93
        0
 40
0.045
309
GRIDFORMAT_END
309
TABLEFORMAT_END
  1
CELLSTYLE_BEGIN
 90
        2
 91
        1
300
_HEADER
309
CELLSTYLE_END
300
CELLSTYLE
  1
TABLEFORMAT_BEGIN
 90
        5
170
     1
 91
        0
 92
        0
 62
   257
 93
        1
300
CONTENTFORMAT
  1
CONTENTFORMAT_BEGIN
 90
        0
 91
        0
 92
        4
 93
        0
300

 40
0.0
140
1.0
 94
        2
 62
     0
340
11
144
0.18
309
CONTENTFORMAT_END
171
     1
301
MARGIN
  1
CELLMARGIN_BEGIN
 40
0.06
 40
0.06
 40
0.06
 40
0.06
 40
0.06
 40
0.06
309
CELLMARGIN_END
 94
        6
 95
        1
302
GRIDFORMAT
  1
GRIDFORMAT_BEGIN
 90
        0
 91
        1
 62
     0
 92
       -2
340
14
 93
        0
 40
0.045
309
GRIDFORMAT_END
 95
        2
302
GRIDFORMAT
  1
GRIDFORMAT_BEGIN
 90
        0
 91
        1
 62
     0
 92
       -2
340
14
 93
        0
 40
0.045
309
GRIDFORMAT_END
 95
        4
302
GRIDFORMAT
  1
GRIDFORMAT_BEGIN
 90
        0
 91
        1
 62
     0
 92
       -2
340
14
 93
        0
 40
0.045
309
GRIDFORMAT_END
 95
        8
302
GRIDFORMAT
  1
GRIDFORMAT_BEGIN
 90
        0
 91
        1
 62
     0
 92
       -2
340
14
 93
        0
 40
0.045
309
GRIDFORMAT_END
 95
       16
302
GRIDFORMAT
  1
GRIDFORMAT_BEGIN
 90
        0
 91
        1
 62
     0
 92
       -2
340
14
 93
        0
 40
0.045
309
GRIDFORMAT_END
 95
       32
302
GRIDFORMAT
  1
GRIDFORMAT_BEGIN
 90
        0
 91
        1
 62
     0
 92
       -2
340
14
 93
        0
 40
0.045
309
GRIDFORMAT_END
309
TABLEFORMAT_END
  1
CELLSTYLE_BEGIN
 90
        3
 91
        2
300
_DATA
309
CELLSTYLE_END
  0
ENDSEC
  0
EOF
